  0
SECTION
  2
HEADER
  9
$ACADVER
  1
AC1014
  9
$ACADMAINTVER
 70
     9
  9
$DWGCODEPAGE
  3
ANSI_1252
  9
$INSBASE
 10
5.750198708096172
 20
5.919139099670797
 30
0.0
  9
$EXTMIN
 10
4.537547214758941
 20
4.049855746900879
 30
0.0
  9
$EXTMAX
 10
8.022766536506075
 20
7.419139099670797
 30
0.0
  9
$LIMMIN
 10
0.0
 20
0.0
  9
$LIMMAX
 10
18.0
 20
12.0
  9
$ORTHOMODE
 70
     1
  9
$REGENMODE
 70
     1
  9
$FILLMODE
 70
     1
  9
$QTEXTMODE
 70
     0
  9
$MIRRTEXT
 70
     0
  9
$DRAGMODE
 70
     2
  9
$LTSCALE
 40
1.0
  9
$OSMODE
 70
    39
  9
$ATTMODE
 70
     1
  9
$TEXTSIZE
 40
0.125
  9
$TRACEWID
 40
0.05
  9
$TEXTSTYLE
  7
ROMANS
  9
$CLAYER
  8
0
  9
$CELTYPE
  6
BYLAYER
  9
$CECOLOR
 62
   256
  9
$CELTSCALE
 40
1.0
  9
$DELOBJ
 70
     1
  9
$DISPSILH
 70
     1
  9
$DIMSCALE
 40
1.0
  9
$DIMASZ
 40
0.125
  9
$DIMEXO
 40
0.125
  9
$DIMDLI
 40
0.375
  9
$DIMRND
 40
0.0
  9
$DIMDLE
 40
0.0
  9
$DIMEXE
 40
0.125
  9
$DIMTP
 40
0.0
  9
$DIMTM
 40
0.0
  9
$DIMTXT
 40
0.125
  9
$DIMCEN
 40
-0.125
  9
$DIMTSZ
 40
0.0
  9
$DIMTOL
 70
     0
  9
$DIMLIM
 70
     0
  9
$DIMTIH
 70
     1
  9
$DIMTOH
 70
     1
  9
$DIMSE1
 70
     0
  9
$DIMSE2
 70
     0
  9
$DIMTAD
 70
     0
  9
$DIMZIN
 70
     4
  9
$DIMBLK
  1

  9
$DIMASO
 70
     1
  9
$DIMSHO
 70
     1
  9
$DIMPOST
  1

  9
$DIMAPOST
  1

  9
$DIMALT
 70
     0
  9
$DIMALTD
 70
     2
  9
$DIMALTF
 40
25.4
  9
$DIMLFAC
 40
1.0
  9
$DIMTOFL
 70
     0
  9
$DIMTVP
 40
0.0
  9
$DIMTIX
 70
     1
  9
$DIMSOXD
 70
     0
  9
$DIMSAH
 70
     0
  9
$DIMBLK1
  1

  9
$DIMBLK2
  1

  9
$DIMSTYLE
  2
STANDARD
  9
$DIMCLRD
 70
     0
  9
$DIMCLRE
 70
     0
  9
$DIMCLRT
 70
     0
  9
$DIMTFAC
 40
1.0
  9
$DIMGAP
 40
0.09
  9
$DIMJUST
 70
     0
  9
$DIMSD1
 70
     0
  9
$DIMSD2
 70
     0
  9
$DIMTOLJ
 70
     1
  9
$DIMTZIN
 70
     4
  9
$DIMALTZ
 70
     0
  9
$DIMALTTZ
 70
     0
  9
$DIMFIT
 70
     3
  9
$DIMUPT
 70
     0
  9
$DIMUNIT
 70
     2
  9
$DIMDEC
 70
     3
  9
$DIMTDEC
 70
     3
  9
$DIMALTU
 70
     2
  9
$DIMALTTD
 70
     2
  9
$DIMTXSTY
  7
ROMANS
  9
$DIMAUNIT
 70
     0
  9
$LUNITS
 70
     2
  9
$LUPREC
 70
     3
  9
$SKETCHINC
 40
0.1
  9
$FILLETRAD
 40
0.03125
  9
$AUNITS
 70
     0
  9
$AUPREC
 70
     0
  9
$MENU
  1
ACAD
  9
$ELEVATION
 40
0.0
  9
$PELEVATION
 40
0.0
  9
$THICKNESS
 40
0.0
  9
$LIMCHECK
 70
     0
  9
$BLIPMODE
 70
     0
  9
$CHAMFERA
 40
0.0
  9
$CHAMFERB
 40
0.0
  9
$CHAMFERC
 40
0.0
  9
$CHAMFERD
 40
0.0
  9
$SKPOLY
 70
     0
  9
$TDCREATE
 40
2448994.565292593
  9
$TDUPDATE
 40
2452458.306191875
  9
$TDINDWG
 40
0.0004984375
  9
$TDUSRTIMER
 40
0.0004984375
  9
$USRTIMER
 70
     1
  9
$ANGBASE
 50
0.0
  9
$ANGDIR
 70
     0
  9
$PDMODE
 70
     0
  9
$PDSIZE
 40
0.0
  9
$PLINEWID
 40
0.0
  9
$COORDS
 70
     2
  9
$SPLFRAME
 70
     0
  9
$SPLINETYPE
 70
     6
  9
$SPLINESEGS
 70
     8
  9
$ATTDIA
 70
     0
  9
$ATTREQ
 70
     1
  9
$HANDLING
 70
 22529
  9
$HANDSEED
  5
7DE1B343D9E122C
  9
$SURFTAB1
 70
     6
  9
$SURFTAB2
 70
     6
  9
$SURFTYPE
 70
     6
  9
$SURFU
 70
     6
  9
$SURFV
 70
     6
  9
$UCSNAME
  2

  9
$UCSORG
 10
0.0
 20
0.0
 30
0.0
  9
$UCSXDIR
 10
1.0
 20
0.0
 30
0.0
  9
$UCSYDIR
 10
0.0
 20
1.0
 30
0.0
  9
$PUCSNAME
  2

  9
$PUCSORG
 10
0.0
 20
0.0
 30
0.0
  9
$PUCSXDIR
 10
1.0
 20
0.0
 30
0.0
  9
$PUCSYDIR
 10
0.0
 20
1.0
 30
0.0
  9
$USERI1
 70
     0
  9
$USERI2
 70
     0
  9
$USERI3
 70
     0
  9
$USERI4
 70
     0
  9
$USERI5
 70
     0
  9
$USERR1
 40
0.0
  9
$USERR2
 40
0.0
  9
$USERR3
 40
0.0
  9
$USERR4
 40
0.0
  9
$USERR5
 40
0.0
  9
$WORLDVIEW
 70
     1
  9
$SHADEDGE
 70
     3
  9
$SHADEDIF
 70
    70
  9
$TILEMODE
 70
     1
  9
$MAXACTVP
 70
    16
  9
$PINSBASE
 10
4.098015390290746
 20
50.00000000000001
 30
5.701753606977733
  9
$PLIMCHECK
 70
     0
  9
$PEXTMIN
 10
1.000000000000000E+20
 20
1.000000000000000E+20
 30
1.000000000000000E+20
  9
$PEXTMAX
 10
-1.000000000000000E+20
 20
-1.000000000000000E+20
 30
-1.000000000000000E+20
  9
$PLIMMIN
 10
0.0
 20
0.0
  9
$PLIMMAX
 10
12.0
 20
9.0
  9
$UNITMODE
 70
     0
  9
$VISRETAIN
 70
     0
  9
$PLINEGEN
 70
     1
  9
$PSLTSCALE
 70
     0
  9
$TREEDEPTH
 70
  3020
  9
$PICKSTYLE
 70
     1
  9
$CMLSTYLE
  2
STANDARD
  9
$CMLJUST
 70
     0
  9
$CMLSCALE
 40
1.0
  9
$PROXYGRAPHICS
 70
     1
  9
$MEASUREMENT
 70
     0
  0
ENDSEC
  0
SECTION
  2
CLASSES
  0
CLASS
  1
LWPOLYLINE
  2
AcDbPolyline
  3
AutoCAD 2000
 90
        0
280
     0
281
     1
  0
CLASS
  1
ACDBDICTIONARYWDFLT
  2
AcDbDictionaryWithDefault
  3
AutoCAD 2000
 90
        0
280
     0
281
     0
  0
CLASS
  1
ACDBPLACEHOLDER
  2
AcDbPlaceHolder
  3
AutoCAD 2000
 90
        0
280
     0
281
     0
  0
CLASS
  1
LAYOUT
  2
AcDbLayout
  3
AutoCAD 2000
 90
        0
280
     0
281
     0
  0
CLASS
  1
DICTIONARYVAR
  2
AcDbDictionaryVar
  3
AutoCAD 2000
 90
        0
280
     0
281
     0
  0
CLASS
  1
LONG_TRANSACTION
  2
AcDbLongTransaction
  3
AutoCAD 2000
 90
        0
280
     0
281
     0
  0
CLASS
  1
LWPOLYLINE
  2
AcDbPolyline
  3
AutoCAD 2000
 90
        0
280
     0
281
     1
  0
CLASS
  1
HATCH
  2
AcDbHatch
  3
AutoCAD 2000
 90
        0
280
     0
281
     1
  0
CLASS
  1
XRECORD
  2
AcDbXrecord
  3
AutoCAD 2000
 90
        0
280
     0
281
     0
  0
ENDSEC
  0
SECTION
  2
TABLES
  0
TABLE
  2
VPORT
  5
7DE1B343D9E11D3
330
0
100
AcDbSymbolTable
 70
     2
  0
VPORT
  5
7DE1B343D9E1207
330
7DE1B343D9E11D3
100
AcDbSymbolTableRecord
100
AcDbViewportTableRecord
  2
*ACTIVE
 70
     0
 10
0.0
 20
0.0
 11
1.0
 21
1.0
 12
11.24232321855448
 22
5.734497097943091
 13
0.0
 23
0.0
 14
0.015625
 24
0.015625
 15
0.0
 25
0.0
 16
0.0
 26
0.0
 36
1.0
 17
0.0
 27
0.0
 37
0.0
 40
3.805612698942232
 41
4.320930232558139
 42
50.0
 43
0.0
 44
0.0
 50
0.0
 51
0.0
 71
     0
 72
  2000
 73
     1
 74
     0
 75
     0
 76
     0
 77
     0
 78
     0
  0
ENDTAB
  0
TABLE
  2
LTYPE
  5
7DE1B343D9E11D0
330
0
100
AcDbSymbolTable
 70
     1
  0
LTYPE
  5
7DE1B343D9E11DD
330
7DE1B343D9E11D0
100
AcDbSymbolTableRecord
100
AcDbLinetypeTableRecord
  2
BYBLOCK
 70
     0
  3

 72
    65
 73
     0
 40
0.0
  0
LTYPE
  5
7DE1B343D9E11DE
330
7DE1B343D9E11D0
100
AcDbSymbolTableRecord
100
AcDbLinetypeTableRecord
  2
BYLAYER
 70
     0
  3

 72
    65
 73
     0
 40
0.0
  0
LTYPE
  5
7DE1B343D9E11DF
330
7DE1B343D9E11D0
100
AcDbSymbolTableRecord
100
AcDbLinetypeTableRecord
  2
CONTINUOUS
 70
     0
  3
Solid line
 72
    65
 73
     0
 40
0.0
  0
ENDTAB
  0
TABLE
  2
LAYER
  5
7DE1B343D9E11CD
330
0
100
AcDbSymbolTable
 70
     2
  0
LAYER
  5
7DE1B343D9E11DA
330
7DE1B343D9E11CD
100
AcDbSymbolTableRecord
100
AcDbLayerTableRecord
  2
0
 70
     0
 62
     7
  6
CONTINUOUS
  0
LAYER
  5
7DE1B343D9E11EA
330
7DE1B343D9E11CD
100
AcDbSymbolTableRecord
100
AcDbLayerTableRecord
  2
TEXT
 70
     0
 62
     3
  6
CONTINUOUS
  0
ENDTAB
  0
TABLE
  2
STYLE
  5
7DE1B343D9E11CE
330
0
100
AcDbSymbolTable
 70
     3
  0
STYLE
  5
7DE1B343D9E11DB
330
7DE1B343D9E11CE
100
AcDbSymbolTableRecord
100
AcDbTextStyleTableRecord
  2
STANDARD
 70
     0
 40
0.0
 41
1.0
 50
0.0
 71
     0
 42
0.3125
  3
txt
  4

  0
STYLE
  5
7DE1B343D9E11E7
330
7DE1B343D9E11CE
100
AcDbSymbolTableRecord
100
AcDbTextStyleTableRecord
  2
ITALICC
 70
     0
 40
0.0
 41
1.0
 50
0.0
 71
     0
 42
0.125
  3
italicc
  4

  0
STYLE
  5
7DE1B343D9E11F7
330
7DE1B343D9E11CE
100
AcDbSymbolTableRecord
100
AcDbTextStyleTableRecord
  2
ROMANS
 70
     0
 40
0.0
 41
1.0
 50
0.0
 71
     0
 42
0.125
  3
romans.shx
  4

  0
ENDTAB
  0
TABLE
  2
VIEW
  5
7DE1B343D9E11D1
330
0
100
AcDbSymbolTable
 70
     0
  0
ENDTAB
  0
TABLE
  2
UCS
  5
7DE1B343D9E11D2
330
0
100
AcDbSymbolTable
 70
     0
  0
ENDTAB
  0
TABLE
  2
APPID
  5
7DE1B343D9E11D4
330
0
100
AcDbSymbolTable
 70
     1
  0
APPID
  5
7DE1B343D9E11DC
330
7DE1B343D9E11D4
100
AcDbSymbolTableRecord
100
AcDbRegAppTableRecord
  2
ACAD
 70
     0
  0
ENDTAB
  0
TABLE
  2
DIMSTYLE
  5
7DE1B343D9E11D5
330
0
100
AcDbSymbolTable
 70
     1
  0
DIMSTYLE
105
7DE1B343D9E11EF
330
7DE1B343D9E11D5
100
AcDbSymbolTableRecord
100
AcDbDimStyleTableRecord
  2
STANDARD
 70
     0
  3

  4

  5

  6

  7

 40
1.0
 41
0.125
 42
0.125
 43
0.375
 44
0.125
 45
0.0
 46
0.0
 47
0.0
 48
0.0
140
0.125
141
-0.125
142
0.0
143
25.4
144
1.0
145
0.0
146
1.0
147
0.09
 71
     0
 72
     0
 73
     1
 74
     1
 75
     0
 76
     0
 77
     0
 78
     4
170
     0
171
     2
172
     0
173
     0
174
     1
175
     0
176
     0
177
     0
178
     0
270
     2
271
     3
272
     3
273
     2
274
     2
340
7DE1B343D9E11F7
275
     0
280
     0
281
     0
282
     0
283
     1
284
     4
285
     0
286
     0
287
     3
288
     0
  0
ENDTAB
  0
TABLE
  2
BLOCK_RECORD
  5
7DE1B343D9E11CC
330
0
100
AcDbSymbolTable
 70
     0
  0
BLOCK_RECORD
  5
7DE1B343D9E11E3
102
{ACAD_XDICTIONARY
360
7DE1B343D9E122A
102
}
330
7DE1B343D9E11CC
100
AcDbSymbolTableRecord
100
AcDbBlockTableRecord
  2
*MODEL_SPACE
  0
BLOCK_RECORD
  5
7DE1B343D9E11E0
102
{ACAD_XDICTIONARY
360
7DE1B343D9E1228
102
}
330
7DE1B343D9E11CC
100
AcDbSymbolTableRecord
100
AcDbBlockTableRecord
  2
*PAPER_SPACE
  0
ENDTAB
  0
ENDSEC
  0
SECTION
  2
BLOCKS
  0
BLOCK
  5
7DE1B343D9E11ED
330
7DE1B343D9E11E3
100
AcDbEntity
  8
0
100
AcDbBlockBegin
  2
*MODEL_SPACE
 70
     0
 10
0.0
 20
0.0
 30
0.0
  3
*MODEL_SPACE
  1

  0
ENDBLK
  5
7DE1B343D9E11EE
330
7DE1B343D9E11E3
100
AcDbEntity
  8
0
100
AcDbBlockEnd
  0
BLOCK
  5
7DE1B343D9E11EB
330
7DE1B343D9E11E0
100
AcDbEntity
 67
     1
  8
0
100
AcDbBlockBegin
  2
*PAPER_SPACE
 70
     0
 10
0.0
 20
0.0
 30
0.0
  3
*PAPER_SPACE
  1

  0
ENDBLK
  5
7DE1B343D9E11EC
330
7DE1B343D9E11E0
100
AcDbEntity
 67
     1
  8
0
100
AcDbBlockEnd
  0
ENDSEC
  0
SECTION
  2
ENTITIES
  0
LWPOLYLINE
  5
7DE1B343D9DFC7E
330
7DE1B343D9E11E3
100
AcDbEntity
  8
0
100
AcDbPolyline
 90
        6
 70
     1
 43
0.0
 10
5.875198708096174
 20
7.419139099670797
 10
5.875198708096174
 20
5.970915794967433
 10
6.899247227524313
 20
4.946867275539292
 10
6.810858879875995
 20
4.858478927890974
 10
5.750198708096172
 20
5.919139099670797
 10
5.750198708096174
 20
7.419139099670797
  0
TEXT
  5
7DE1B343D9E108E
330
7DE1B343D9E11E3
100
AcDbEntity
  8
TEXT
100
AcDbText
 10
5.527552603509893
 20
4.507874350983461
 30
0.0
 40
0.125
  1
PART #110306
  7
ITALICC
 72
     1
 11
6.280528793986084
 21
4.507874350983461
 31
0.0
100
AcDbText
  0
TEXT
  5
7DE1B343D9E108F
330
7DE1B343D9E11E3
100
AcDbEntity
  8
TEXT
100
AcDbText
 10
6.693833952236404
 20
4.060951708311085
 30
0.0
 40
0.0522247191011236
  1
Phone  1-800-328-2495
 41
1.272321428571429
 72
     5
 11
8.022766536506068
 21
4.060951708311085
 31
0.0
100
AcDbText
  0
TEXT
  5
7DE1B343D9E1090
330
7DE1B343D9E11E3
100
AcDbEntity
  8
TEXT
100
AcDbText
 10
6.693833952236404
 20
4.340726989209962
 30
0.0
 40
0.0522247191011236
  1
Stylmark  Incorporated
 41
1.221428571428573
 72
     5
 11
8.022766536506068
 21
4.340726989209962
 31
0.0
100
AcDbText
  0
TEXT
  5
7DE1B343D9E1091
330
7DE1B343D9E11E3
100
AcDbEntity
  8
TEXT
100
AcDbText
 10
6.693833952236404
 20
4.247468562243669
 30
0.0
 40
0.0522247191011236
  1
6536 Main St. N.E. * P.O. Box 32008
 41
0.8388932496075366
 72
     5
 11
8.022766536506068
 21
4.247468562243669
 31
0.0
100
AcDbText
  0
TEXT
  5
7DE1B343D9E1092
330
7DE1B343D9E11E3
100
AcDbEntity
  8
TEXT
100
AcDbText
 10
6.693833952236404
 20
4.154210135277377
 30
0.0
 40
0.0522247191011236
  1
Minneapolis, MN 55432-0008
 41
1.11444212721585
 72
     5
 11
8.022766536506068
 21
4.154210135277377
 31
0.0
100
AcDbText
  0
LWPOLYLINE
  5
7DE1B343D9E1093
330
7DE1B343D9E11E3
100
AcDbEntity
  8
TEXT
100
AcDbPolyline
 90
        3
 70
     0
 43
0.0006660908203125
 10
4.537880260169097
 20
4.17459647094852
 10
4.537880260169097
 20
4.061361031495392
 10
4.651115699622219
 20
4.061361031495392
  0
LWPOLYLINE
  5
7DE1B343D9E1098
330
7DE1B343D9E11E3
100
AcDbEntity
  8
TEXT
100
AcDbPolyline
 90
        3
 70
     0
 43
0.0006660908203125
 10
4.564523892981594
 20
4.17459647094852
 10
4.564523892981594
 20
4.088004664307893
 10
4.651115699622219
 20
4.088004664307893
  0
LWPOLYLINE
  5
7DE1B343D9E109D
330
7DE1B343D9E11E3
100
AcDbEntity
  8
TEXT
100
AcDbPolyline
 90
        2
 70
     0
 43
0.0001332181640625
 10
4.611150250403471
 20
4.184587833253205
 10
4.537880260169097
 20
4.17459647094852
  0
LWPOLYLINE
  5
7DE1B343D9E10A1
330
7DE1B343D9E11E3
100
AcDbEntity
  8
TEXT
100
AcDbPolyline
 90
        2
 70
     0
 43
0.0001332181640625
 10
4.564523892981594
 20
4.17459647094852
 10
4.624472066809722
 20
4.184587833253205
  0
LWPOLYLINE
  5
7DE1B343D9E10A5
330
7DE1B343D9E11E3
100
AcDbEntity
  8
TEXT
100
AcDbPolyline
 90
        2
 70
     0
 43
0.0001332181640625
 10
4.564523892981594
 20
4.088004664307893
 10
4.624472066809722
 20
4.147952838136019
  0
LWPOLYLINE
  5
7DE1B343D9E10A9
330
7DE1B343D9E11E3
100
AcDbEntity
  8
TEXT
100
AcDbPolyline
 90
        3
 70
     0
 43
0.0006660908203125
 10
4.651115699622219
 20
4.327797359620396
 10
4.537880260169097
 20
4.327797359620396
 10
4.537880260169097
 20
4.214561920167268
  0
LWPOLYLINE
  5
7DE1B343D9E10AE
330
7DE1B343D9E11E3
100
AcDbEntity
  8
TEXT
100
AcDbPolyline
 90
        3
 70
     0
 43
0.0006660908203125
 10
4.651115699622219
 20
4.301153726807894
 10
4.564523892981594
 20
4.301153726807894
 10
4.564523892981594
 20
4.214561920167268
  0
LWPOLYLINE
  5
7DE1B343D9E10B3
330
7DE1B343D9E11E3
100
AcDbEntity
  8
TEXT
100
AcDbPolyline
 90
        2
 70
     0
 43
0.0001332181640625
 10
4.564523892981594
 20
4.301153726807894
 10
4.62447206680972
 20
4.241205552979769
  0
LWPOLYLINE
  5
7DE1B343D9E10B7
330
7DE1B343D9E11E3
100
AcDbEntity
  8
TEXT
100
AcDbPolyline
 90
        2
 70
     0
 43
0.0001332181640625
 10
4.564523892981594
 20
4.214561920167268
 10
4.62447206680972
 20
4.204570557862579
  0
LWPOLYLINE
  5
7DE1B343D9E10BB
330
7DE1B343D9E11E3
100
AcDbEntity
  8
TEXT
100
AcDbPolyline
 90
        2
 70
     0
 43
0.0001332181640625
 10
4.537880260169097
 20
4.214561920167268
 10
4.611150250403471
 20
4.204570557862579
  0
LWPOLYLINE
  5
7DE1B343D9E10BF
330
7DE1B343D9E11E3
100
AcDbEntity
  8
TEXT
100
AcDbPolyline
 90
        2
 70
     0
 43
0.0006660908203125
 10
4.564523892981594
 20
4.17459647094852
 10
4.537880260169097
 20
4.17459647094852
  0
LWPOLYLINE
  5
7DE1B343D9E10C3
330
7DE1B343D9E11E3
100
AcDbEntity
  8
TEXT
100
AcDbPolyline
 90
        2
 70
     0
 43
0.0006660908203125
 10
4.564523892981594
 20
4.214561920167268
 10
4.537880260169097
 20
4.214561920167268
  0
LINE
  5
7DE1B343D9E10C7
330
7DE1B343D9E11E3
100
AcDbEntity
  8
TEXT
100
AcDbLine
 10
6.053070689295594
 20
4.263520664963627
 30
0.0
 11
5.945864415908305
 21
4.263520664963627
 31
0.0
  0
LINE
  5
7DE1B343D9E10C8
330
7DE1B343D9E11E3
100
AcDbEntity
  8
TEXT
100
AcDbLine
 10
6.082101587640073
 20
4.327797359620392
 30
0.0
 11
5.947269678423014
 21
4.327797359620392
 31
0.0
  0
ARC
  5
7DE1B343D9E10C9
330
7DE1B343D9E11E3
100
AcDbEntity
  8
TEXT
100
AcDbCircle
 10
6.006583774816331
 20
4.158560110357376
 30
0.0
 40
0.0676855811441166
100
AcDbArc
 50
90.0
 51
153.7768192527749
  0
LWPOLYLINE
  5
7DE1B343D9E10CA
330
7DE1B343D9E11E3
100
AcDbEntity
  8
TEXT
100
AcDbPolyline
 90
        2
 70
     0
 43
0.0
 10
5.944831920453495
 20
4.104815271582319
 42
0.2901071551932823
 10
5.98790785332113
 20
4.061324326631881
 42
5.328517124445801
  0
ARC
  5
7DE1B343D9E10CE
330
7DE1B343D9E11E3
100
AcDbEntity
  8
TEXT
100
AcDbCircle
 10
5.301452397144845
 20
4.121116717969931
 30
0.0
 40
0.0601160179737537
100
AcDbArc
 50
180.0000000000003
 51
264.0521544866073
  0
LINE
  5
7DE1B343D9E10CF
330
7DE1B343D9E11E3
100
AcDbEntity
  8
TEXT
100
AcDbLine
 10
5.304967752770393
 20
4.36218527721453
 30
0.0
 11
5.244925147926386
 21
4.36218527721453
 31
0.0
  0
ARC
  5
7DE1B343D9E10D0
330
7DE1B343D9E11E3
100
AcDbEntity
  8
TEXT
100
AcDbCircle
 10
5.069193395027874
 20
4.24570990017389
 30
0.0
 40
0.0820874594465043
100
AcDbArc
 50
90.0
 51
270.0
  0
LWPOLYLINE
  5
7DE1B343D9E10D1
330
7DE1B343D9E11E3
100
AcDbEntity
  8
TEXT
100
AcDbPolyline
 90
        2
 70
     0
 43
0.0001332181640625
 10
4.66110706192691
 20
4.254527369386016
 10
4.651115699622219
 20
4.327797359620396
  0
LWPOLYLINE
  5
7DE1B343D9E10D5
330
7DE1B343D9E11E3
100
AcDbEntity
  8
TEXT
100
AcDbPolyline
 90
        2
 70
     0
 43
0.0001332181640625
 10
4.651115699622219
 20
4.301153726807894
 10
4.66110706192691
 20
4.241205552979769
  0
LWPOLYLINE
  5
7DE1B343D9E10D9
330
7DE1B343D9E11E3
100
AcDbEntity
  8
TEXT
100
AcDbPolyline
 90
        3
 70
     0
 43
0.0006660908203125
 10
4.804316588294097
 20
4.214561920167268
 10
4.804316588294097
 20
4.327797359620396
 10
4.691081148840971
 20
4.327797359620396
  0
LWPOLYLINE
  5
7DE1B343D9E10DE
330
7DE1B343D9E11E3
100
AcDbEntity
  8
TEXT
100
AcDbPolyline
 90
        3
 70
     0
 43
0.0006660908203125
 10
4.777672955481595
 20
4.214561920167268
 10
4.777672955481595
 20
4.301153726807894
 10
4.691081148840971
 20
4.301153726807894
  0
LWPOLYLINE
  5
7DE1B343D9E10E3
330
7DE1B343D9E11E3
100
AcDbEntity
  8
TEXT
100
AcDbPolyline
 90
        2
 70
     0
 43
0.0001332181640625
 10
4.777672955481595
 20
4.301153726807894
 10
4.717724781653472
 20
4.241205552979769
  0
LWPOLYLINE
  5
7DE1B343D9E10E7
330
7DE1B343D9E11E3
100
AcDbEntity
  8
TEXT
100
AcDbPolyline
 90
        2
 70
     0
 43
0.0001332181640625
 10
4.691081148840971
 20
4.301153726807894
 10
4.681089786536282
 20
4.241205552979769
  0
LWPOLYLINE
  5
7DE1B343D9E10EB
330
7DE1B343D9E11E3
100
AcDbEntity
  8
TEXT
100
AcDbPolyline
 90
        2
 70
     0
 43
0.0001332181640625
 10
4.691081148840971
 20
4.327797359620396
 10
4.681089786536282
 20
4.254527369386016
  0
LWPOLYLINE
  5
7DE1B343D9E10EF
330
7DE1B343D9E11E3
100
AcDbEntity
  8
TEXT
100
AcDbPolyline
 90
        2
 70
     0
 43
0.0001332181640625
 10
4.73104659805972
 20
4.204570557862579
 10
4.804316588294097
 20
4.214561920167268
  0
LWPOLYLINE
  5
7DE1B343D9E10F3
330
7DE1B343D9E11E3
100
AcDbEntity
  8
TEXT
100
AcDbPolyline
 90
        2
 70
     0
 43
0.0001332181640625
 10
4.777672955481595
 20
4.214561920167268
 10
4.717724781653472
 20
4.204570557862579
  0
LWPOLYLINE
  5
7DE1B343D9E10F7
330
7DE1B343D9E11E3
100
AcDbEntity
  8
TEXT
100
AcDbPolyline
 90
        2
 70
     0
 43
0.0001332181640625
 10
4.804316588294097
 20
4.17459647094852
 10
4.73104659805972
 20
4.184587833253205
  0
LWPOLYLINE
  5
7DE1B343D9E10FB
330
7DE1B343D9E11E3
100
AcDbEntity
  8
TEXT
100
AcDbPolyline
 90
        2
 70
     0
 43
0.0001332181640625
 10
4.777672955481595
 20
4.17459647094852
 10
4.717724781653472
 20
4.184587833253205
  0
LWPOLYLINE
  5
7DE1B343D9E10FF
330
7DE1B343D9E11E3
100
AcDbEntity
  8
TEXT
100
AcDbPolyline
 90
        2
 70
     0
 43
0.0001332181640625
 10
4.777672955481595
 20
4.088004664307893
 10
4.717724781653472
 20
4.147952838136019
  0
LWPOLYLINE
  5
7DE1B343D9E1103
330
7DE1B343D9E11E3
100
AcDbEntity
  8
TEXT
100
AcDbPolyline
 90
        3
 70
     0
 43
0.0006660908203125
 10
4.691081148840971
 20
4.088004664307893
 10
4.777672955481595
 20
4.088004664307893
 10
4.777672955481595
 20
4.17459647094852
  0
LWPOLYLINE
  5
7DE1B343D9E1108
330
7DE1B343D9E11E3
100
AcDbEntity
  8
TEXT
100
AcDbPolyline
 90
        3
 70
     0
 43
0.0006660908203125
 10
4.691081148840971
 20
4.061361031495392
 10
4.804316588294097
 20
4.061361031495392
 10
4.804316588294097
 20
4.17459647094852
  0
LWPOLYLINE
  5
7DE1B343D9E110D
330
7DE1B343D9E11E3
100
AcDbEntity
  8
TEXT
100
AcDbPolyline
 90
        5
 70
     0
 43
0.0001332181640625
 10
4.66110706192691
 20
4.134631021729768
 10
4.66110706192691
 20
4.147952838136019
 10
4.624472066809722
 20
4.147952838136019
 10
4.624472066809722
 20
4.184587833253205
 10
4.611150250403471
 20
4.184587833253205
  0
LWPOLYLINE
  5
7DE1B343D9E1114
330
7DE1B343D9E11E3
100
AcDbEntity
  8
TEXT
100
AcDbPolyline
 90
        2
 70
     0
 43
0.0006660908203125
 10
4.651115699622219
 20
4.088004664307893
 10
4.651115699622219
 20
4.061361031495392
  0
LWPOLYLINE
  5
7DE1B343D9E1118
330
7DE1B343D9E11E3
100
AcDbEntity
  8
TEXT
100
AcDbPolyline
 90
        2
 70
     0
 43
0.0001332181640625
 10
4.651115699622219
 20
4.088004664307893
 10
4.66110706192691
 20
4.147952838136019
  0
LWPOLYLINE
  5
7DE1B343D9E111C
330
7DE1B343D9E11E3
100
AcDbEntity
  8
TEXT
100
AcDbPolyline
 90
        2
 70
     0
 43
0.0001332181640625
 10
4.651115699622219
 20
4.061361031495392
 10
4.66110706192691
 20
4.134631021729768
  0
LWPOLYLINE
  5
7DE1B343D9E1120
330
7DE1B343D9E11E3
100
AcDbEntity
  8
TEXT
100
AcDbPolyline
 90
        5
 70
     0
 43
0.0001332181640625
 10
4.611150250403471
 20
4.204570557862579
 10
4.62447206680972
 20
4.204570557862579
 10
4.62447206680972
 20
4.241205552979769
 10
4.66110706192691
 20
4.241205552979769
 10
4.66110706192691
 20
4.254527369386016
  0
LWPOLYLINE
  5
7DE1B343D9E1127
330
7DE1B343D9E11E3
100
AcDbEntity
  8
TEXT
100
AcDbPolyline
 90
        5
 70
     0
 43
0.0001332181640625
 10
4.681089786536282
 20
4.254527369386016
 10
4.681089786536282
 20
4.241205552979769
 10
4.717724781653472
 20
4.241205552979769
 10
4.717724781653472
 20
4.204570557862579
 10
4.73104659805972
 20
4.204570557862579
  0
LWPOLYLINE
  5
7DE1B343D9E112E
330
7DE1B343D9E11E3
100
AcDbEntity
  8
TEXT
100
AcDbPolyline
 90
        2
 70
     0
 43
0.0001332181640625
 10
4.691081148840971
 20
4.088004664307893
 10
4.681089786536282
 20
4.147952838136019
  0
LWPOLYLINE
  5
7DE1B343D9E1132
330
7DE1B343D9E11E3
100
AcDbEntity
  8
TEXT
100
AcDbPolyline
 90
        2
 70
     0
 43
0.0001332181640625
 10
4.681089786536282
 20
4.134631021729768
 10
4.691081148840971
 20
4.061361031495392
  0
LWPOLYLINE
  5
7DE1B343D9E1136
330
7DE1B343D9E11E3
100
AcDbEntity
  8
TEXT
100
AcDbPolyline
 90
        2
 70
     0
 43
0.0006660908203125
 10
4.691081148840971
 20
4.088004664307893
 10
4.691081148840971
 20
4.061361031495392
  0
LWPOLYLINE
  5
7DE1B343D9E113A
330
7DE1B343D9E11E3
100
AcDbEntity
  8
TEXT
100
AcDbPolyline
 90
        5
 70
     0
 43
0.0001332181640625
 10
4.73104659805972
 20
4.184587833253205
 10
4.717724781653472
 20
4.184587833253205
 10
4.717724781653472
 20
4.147952838136019
 10
4.681089786536282
 20
4.147952838136019
 10
4.681089786536282
 20
4.134631021729768
  0
LWPOLYLINE
  5
7DE1B343D9E1141
330
7DE1B343D9E11E3
100
AcDbEntity
  8
TEXT
100
AcDbPolyline
 90
        2
 70
     0
 43
0.0006660908203125
 10
4.777672955481595
 20
4.214561920167268
 10
4.804316588294097
 20
4.214561920167268
  0
LWPOLYLINE
  5
7DE1B343D9E1145
330
7DE1B343D9E11E3
100
AcDbEntity
  8
TEXT
100
AcDbPolyline
 90
        2
 70
     0
 43
0.0006660908203125
 10
4.777672955481595
 20
4.17459647094852
 10
4.804316588294097
 20
4.17459647094852
  0
LINE
  5
7DE1B343D9E1149
330
7DE1B343D9E11E3
100
AcDbEntity
  8
TEXT
100
AcDbLine
 10
5.074430725142121
 20
4.263520664963627
 30
0.0
 11
5.241336379171093
 21
4.263520664963627
 31
0.0
  0
LINE
  5
7DE1B343D9E114A
330
7DE1B343D9E11E3
100
AcDbEntity
  8
TEXT
100
AcDbLine
 10
5.140030861386422
 20
4.227715943352999
 30
0.0
 11
5.074430725142121
 21
4.227715943352999
 31
0.0
  0
LINE
  5
7DE1B343D9E114B
330
7DE1B343D9E11E3
100
AcDbEntity
  8
TEXT
100
AcDbLine
 10
4.98710593558137
 20
4.061324326631881
 30
0.0
 11
5.140030861386422
 21
4.061324326631881
 31
0.0
  0
LINE
  5
7DE1B343D9E114C
330
7DE1B343D9E11E3
100
AcDbEntity
  8
TEXT
100
AcDbLine
 10
5.144971235292702
 20
4.12968133296532
 30
0.0
 11
4.987105935581368
 21
4.12968133296532
 31
0.0
  0
LINE
  5
7DE1B343D9E114D
330
7DE1B343D9E11E3
100
AcDbEntity
  8
TEXT
100
AcDbLine
 10
5.069193395027873
 20
4.163622440727385
 30
0.0
 11
5.144971235292702
 21
4.163622440727385
 31
0.0
  0
ARC
  5
7DE1B343D9E114E
330
7DE1B343D9E11E3
100
AcDbEntity
  8
TEXT
100
AcDbCircle
 10
5.074430725142122
 20
4.245618304158314
 30
0.0
 40
0.017902360805315
100
AcDbArc
 50
90.0
 51
270.0
  0
LINE
  5
7DE1B343D9E114F
330
7DE1B343D9E11E3
100
AcDbEntity
  8
TEXT
100
AcDbLine
 10
4.987105935581368
 20
4.12968133296532
 30
0.0
 11
4.98710593558137
 21
4.061324326631881
 31
0.0
  0
LINE
  5
7DE1B343D9E1150
330
7DE1B343D9E11E3
100
AcDbEntity
  8
TEXT
100
AcDbLine
 10
5.241336379171093
 20
4.263520664963627
 30
0.0
 11
5.241336379171093
 21
4.121116717969931
 31
0.0
  0
ARC
  5
7DE1B343D9E1151
330
7DE1B343D9E11E3
100
AcDbEntity
  8
TEXT
100
AcDbCircle
 10
5.140030861386423
 20
4.144520134992438
 30
0.0
 40
0.0831958083605586
100
AcDbArc
 50
270.0
 51
90.0
  0
ARC
  5
7DE1B343D9E1152
330
7DE1B343D9E11E3
100
AcDbEntity
  8
TEXT
100
AcDbCircle
 10
5.144971235292703
 20
4.146651886846354
 30
0.0
 40
0.0169705538810321
100
AcDbArc
 50
270.0
 51
90.0
  0
LWPOLYLINE
  5
7DE1B343D9E1153
330
7DE1B343D9E11E3
100
AcDbEntity
  8
TEXT
100
AcDbPolyline
 90
        2
 70
     0
 43
0.0006660908203125
 10
4.651115699622219
 20
4.301153726807894
 10
4.651115699622219
 20
4.327797359620396
  0
LWPOLYLINE
  5
7DE1B343D9E1157
330
7DE1B343D9E11E3
100
AcDbEntity
  8
TEXT
100
AcDbPolyline
 90
        2
 70
     0
 43
0.0006660908203125
 10
4.691081148840971
 20
4.301153726807894
 10
4.691081148840971
 20
4.327797359620396
  0
LINE
  5
7DE1B343D9E115B
330
7DE1B343D9E11E3
100
AcDbEntity
  8
TEXT
100
AcDbLine
 10
5.244925147926386
 20
4.327797359620392
 30
0.0
 11
5.069193395027873
 21
4.327797359620392
 31
0.0
  0
LINE
  5
7DE1B343D9E115C
330
7DE1B343D9E11E3
100
AcDbEntity
  8
TEXT
100
AcDbLine
 10
5.244925147926386
 20
4.36218527721453
 30
0.0
 11
5.244925147926386
 21
4.327797359620392
 31
0.0
  0
LINE
  5
7DE1B343D9E115D
330
7DE1B343D9E11E3
100
AcDbEntity
  8
TEXT
100
AcDbLine
 10
5.435397039946238
 20
4.226925363507271
 30
0.0
 11
5.3767667189143
 21
4.327797359620392
 31
0.0
  0
LINE
  5
7DE1B343D9E115E
330
7DE1B343D9E11E3
100
AcDbEntity
  8
TEXT
100
AcDbLine
 10
5.494145602752103
 20
4.327797359620392
 30
0.0
 11
5.435397039946238
 21
4.226925363507271
 31
0.0
  0
LINE
  5
7DE1B343D9E115F
330
7DE1B343D9E11E3
100
AcDbEntity
  8
TEXT
100
AcDbLine
 10
5.591076228111845
 20
4.14371216473488
 30
0.0
 11
5.591076228111845
 21
4.395808837359203
 31
0.0
  0
LINE
  5
7DE1B343D9E1160
330
7DE1B343D9E11E3
100
AcDbEntity
  8
TEXT
100
AcDbLine
 10
5.623388082249505
 20
4.327797359620392
 30
0.0
 11
5.623388082249505
 21
4.126933152887984
 31
0.0
  0
LINE
  5
7DE1B343D9E1161
330
7DE1B343D9E11E3
100
AcDbEntity
  8
TEXT
100
AcDbLine
 10
5.623388082249505
 20
4.126933152887984
 30
0.0
 11
5.606394445364903
 21
4.126933152887984
 31
0.0
  0
LINE
  5
7DE1B343D9E1162
330
7DE1B343D9E11E3
100
AcDbEntity
  8
TEXT
100
AcDbLine
 10
5.592215801608039
 20
4.061324326631881
 30
0.0
 11
5.690219135307474
 21
4.061324326631881
 31
0.0
  0
LINE
  5
7DE1B343D9E1163
330
7DE1B343D9E11E3
100
AcDbEntity
  8
TEXT
100
AcDbLine
 10
5.425796802949284
 20
4.081282832736894
 30
0.0
 11
5.523096509042728
 21
4.245633043672162
 31
0.0
  0
ARC
  5
7DE1B343D9E1164
330
7DE1B343D9E11E3
100
AcDbEntity
  8
TEXT
100
AcDbCircle
 10
5.39175324303707
 20
4.100872048905577
 30
0.0
 40
0.0392772371940762
100
AcDbArc
 50
270.1604552698595
 51
330.0831797321295
  0
LINE
  5
7DE1B343D9E1165
330
7DE1B343D9E11E3
100
AcDbEntity
  8
TEXT
100
AcDbLine
 10
5.295222986651198
 20
4.061324326631881
 30
0.0
 11
5.391863237726193
 21
4.061594965730163
 31
0.0
  0
LWPOLYLINE
  5
7DE1B343D9E1166
330
7DE1B343D9E11E3
100
AcDbEntity
  8
TEXT
100
AcDbPolyline
 90
        6
 70
     1
 43
0.0
 10
5.337746790226348
 20
4.263520664963627
 10
5.30743019600614
 20
4.263520664963627
 10
5.30743019600614
 20
4.140409666908732
 42
0.407328721240804
 10
5.318973847167616
 20
4.128590752232346
 10
5.379595546212347
 20
4.128590752232346
 10
5.397060886619665
 20
4.161402981275825
  0
LINE
  5
7DE1B343D9E116E
330
7DE1B343D9E11E3
100
AcDbEntity
  8
TEXT
100
AcDbLine
 10
5.523096509042728
 20
4.245633043672162
 30
0.0
 11
5.523096509042728
 21
4.112875668846806
 31
0.0
  0
ARC
  5
7DE1B343D9E116F
330
7DE1B343D9E11E3
100
AcDbEntity
  8
TEXT
100
AcDbCircle
 10
5.606394445364902
 20
4.142314959131409
 30
0.0
 40
0.0153818062434269
100
AcDbArc
 50
174.7883570302258
 51
270.0
  0
LWPOLYLINE
  5
7DE1B343D9E1170
330
7DE1B343D9E11E3
100
AcDbEntity
  8
TEXT
100
AcDbPolyline
 90
        2
 70
     0
 43
0.0
 10
5.523096509042726
 20
4.112875668846809
 42
0.3318488747599744
 10
5.592215801608039
 20
4.061324326631881
 42
-6.868794160588311
  0
LINE
  5
7DE1B343D9E1174
330
7DE1B343D9E11E3
100
AcDbEntity
  8
TEXT
100
AcDbLine
 10
5.747608204296735
 20
4.061324326631881
 30
0.0
 11
5.814666251078575
 21
4.061324326631881
 31
0.0
  0
LINE
  5
7DE1B343D9E1175
330
7DE1B343D9E11E3
100
AcDbEntity
  8
TEXT
100
AcDbLine
 10
5.747608204296735
 20
4.255966875797517
 30
0.0
 11
5.747608204296735
 21
4.061324326631881
 31
0.0
  0
LINE
  5
7DE1B343D9E1176
330
7DE1B343D9E11E3
100
AcDbEntity
  8
TEXT
100
AcDbLine
 10
5.690219135307474
 20
4.263520664963627
 30
0.0
 11
5.740054415130622
 21
4.263520664963627
 31
0.0
  0
LINE
  5
7DE1B343D9E1177
330
7DE1B343D9E11E3
100
AcDbEntity
  8
TEXT
100
AcDbLine
 10
5.690219135307474
 20
4.061324326631881
 30
0.0
 11
5.690219135307474
 21
4.263520664963627
 31
0.0
  0
LWPOLYLINE
  5
7DE1B343D9E1178
330
7DE1B343D9E11E3
100
AcDbEntity
  8
TEXT
100
AcDbPolyline
 90
        2
 70
     0
 43
0.0
 10
5.74005441513062
 20
4.263520664963627
 42
-0.4142135623731017
 10
5.747608204296733
 20
4.255966875797517
 42
-0.9999999999999998
  0
LINE
  5
7DE1B343D9E117C
330
7DE1B343D9E11E3
100
AcDbEntity
  8
TEXT
100
AcDbLine
 10
5.945864415908305
 20
4.263520664963627
 30
0.0
 11
5.945864415908305
 21
4.18846825888942
 31
0.0
  0
LINE
  5
7DE1B343D9E117D
330
7DE1B343D9E11E3
100
AcDbEntity
  8
TEXT
100
AcDbLine
 10
5.814666251078575
 20
4.263520664963627
 30
0.0
 11
5.868799847999525
 21
4.263520664963627
 31
0.0
  0
LINE
  5
7DE1B343D9E117E
330
7DE1B343D9E11E3
100
AcDbEntity
  8
TEXT
100
AcDbLine
 10
5.814666251078575
 20
4.061324326631881
 30
0.0
 11
5.814666251078575
 21
4.263520664963627
 31
0.0
  0
LWPOLYLINE
  5
7DE1B343D9E117F
330
7DE1B343D9E11E3
100
AcDbEntity
  8
TEXT
100
AcDbPolyline
 90
        2
 70
     0
 43
0.0
 10
5.868799847999524
 20
4.263520664963627
 42
-0.4142135623731017
 10
5.876353637165637
 20
4.255966875797517
 42
-0.9999999999999998
  0
LWPOLYLINE
  5
7DE1B343D9E1183
330
7DE1B343D9E11E3
100
AcDbEntity
  8
TEXT
100
AcDbPolyline
 90
        4
 70
     0
 43
0.0
 10
5.876353637165637
 20
4.255966875797517
 10
5.876353637165637
 20
4.061324326631881
 10
5.944831920453495
 20
4.061324326631881
 10
5.944831920453495
 20
4.104815271582319
 42
-1.714843617202739
  0
LINE
  5
7DE1B343D9E1189
330
7DE1B343D9E11E3
100
AcDbEntity
  8
TEXT
100
AcDbLine
 10
5.304967752770393
 20
4.327797359620392
 30
0.0
 11
5.304967752770393
 21
4.36218527721453
 31
0.0
  0
LINE
  5
7DE1B343D9E118A
330
7DE1B343D9E11E3
100
AcDbEntity
  8
TEXT
100
AcDbLine
 10
5.3767667189143
 20
4.327797359620392
 30
0.0
 11
5.304967752770393
 21
4.327797359620392
 31
0.0
  0
LINE
  5
7DE1B343D9E118B
330
7DE1B343D9E11E3
100
AcDbEntity
  8
TEXT
100
AcDbLine
 10
5.52426751554548
 20
4.327797359620392
 30
0.0
 11
5.494145602752103
 21
4.327797359620392
 31
0.0
  0
LINE
  5
7DE1B343D9E118C
330
7DE1B343D9E11E3
100
AcDbEntity
  8
TEXT
100
AcDbLine
 10
5.52426751554548
 20
4.395808837359203
 30
0.0
 11
5.52426751554548
 21
4.327797359620392
 31
0.0
  0
LINE
  5
7DE1B343D9E118D
330
7DE1B343D9E11E3
100
AcDbEntity
  8
TEXT
100
AcDbLine
 10
5.591076228111845
 20
4.395808837359203
 30
0.0
 11
5.52426751554548
 21
4.395808837359203
 31
0.0
  0
LWPOLYLINE
  5
7DE1B343D9E118E
330
7DE1B343D9E11E3
100
AcDbEntity
  8
TEXT
100
AcDbPolyline
 90
        3
 70
     0
 43
0.0
 10
5.911487987709847
 20
4.327797359620396
 10
5.793187828893803
 20
4.327797359620396
 10
5.793187828893803
 20
4.3006298628595
 42
-1.960274751411753
  0
LINE
  5
7DE1B343D9E1193
330
7DE1B343D9E11E3
100
AcDbEntity
  8
TEXT
100
AcDbLine
 10
5.757406138180641
 20
4.327797359620392
 30
0.0
 11
5.623388082249505
 21
4.327797359620392
 31
0.0
  0
LWPOLYLINE
  5
7DE1B343D9E1194
330
7DE1B343D9E11E3
100
AcDbEntity
  8
TEXT
100
AcDbPolyline
 90
        2
 70
     0
 43
0.0
 10
5.757406138180641
 20
4.327797359620396
 42
-0.3328679258950098
 10
5.793187828893803
 20
4.3006298628595
 42
6.772930709997214
  0
LINE
  5
7DE1B343D9E1198
330
7DE1B343D9E11E3
100
AcDbEntity
  8
TEXT
100
AcDbLine
 10
5.947269678423014
 20
4.327797359620392
 30
0.0
 11
5.947269678423014
 21
4.299474813850748
 31
0.0
  0
LWPOLYLINE
  5
7DE1B343D9E1199
330
7DE1B343D9E11E3
100
AcDbEntity
  8
TEXT
100
AcDbPolyline
 90
        2
 70
     0
 43
0.0
 10
5.911487987709847
 20
4.327797359620396
 42
-0.3277054968067132
 10
5.947269678423012
 20
4.299474813850752
 42
6.667889725900311
  0
LINE
  5
7DE1B343D9E119D
330
7DE1B343D9E11E3
100
AcDbEntity
  8
TEXT
100
AcDbLine
 10
6.161061526515114
 20
4.222585381066965
 30
0.0
 11
6.117310755333212
 21
4.30483565706311
 31
0.0
  0
LINE
  5
7DE1B343D9E119E
330
7DE1B343D9E11E3
100
AcDbEntity
  8
TEXT
100
AcDbLine
 10
6.161061526515114
 20
4.327797359620392
 30
0.0
 11
6.161061526515114
 21
4.222585381066965
 31
0.0
  0
LINE
  5
7DE1B343D9E119F
330
7DE1B343D9E11E3
100
AcDbEntity
  8
TEXT
100
AcDbLine
 10
6.388745265453483
 20
4.251932033208854
 30
0.0
 11
6.388745265453483
 21
4.393261565387993
 31
0.0
  0
LINE
  5
7DE1B343D9E11A0
330
7DE1B343D9E11E3
100
AcDbEntity
  8
TEXT
100
AcDbLine
 10
6.435843424009467
 20
4.327797359620392
 30
0.0
 11
6.388745265453483
 21
4.251932033208854
 31
0.0
  0
LINE
  5
7DE1B343D9E11A1
330
7DE1B343D9E11E3
100
AcDbEntity
  8
TEXT
100
AcDbLine
 10
6.44627814077339
 20
4.217904116679418
 30
0.0
 11
6.510835256739095
 21
4.327797359620392
 31
0.0
  0
LINE
  5
7DE1B343D9E11A2
330
7DE1B343D9E11E3
100
AcDbEntity
  8
TEXT
100
AcDbLine
 10
6.32491027423071
 20
4.061324326631881
 30
0.0
 11
6.38928845854933
 21
4.061324326631881
 31
0.0
  0
LWPOLYLINE
  5
7DE1B343D9E11A3
330
7DE1B343D9E11E3
100
AcDbEntity
  8
TEXT
100
AcDbPolyline
 90
        2
 70
     0
 43
0.0
 10
6.165001203820152
 20
4.104815271582319
 42
-0.2901071551932486
 10
6.121925270952507
 20
4.061324326631881
 42
-5.328517124445184
  0
ARC
  5
7DE1B343D9E11A7
330
7DE1B343D9E11E3
100
AcDbEntity
  8
TEXT
100
AcDbCircle
 10
6.053070689295592
 20
4.235161289963629
 30
0.0
 40
0.028359375
100
AcDbArc
 50
25.78218179591245
 51
90.0
  0
LINE
  5
7DE1B343D9E11A8
330
7DE1B343D9E11E3
100
AcDbEntity
  8
TEXT
100
AcDbLine
 10
6.088871764599716
 20
4.226245691501494
 30
0.0
 11
6.078607004186151
 21
4.247496231074189
 31
0.0
  0
LINE
  5
7DE1B343D9E11A9
330
7DE1B343D9E11E3
100
AcDbEntity
  8
TEXT
100
AcDbLine
 10
6.006583774816332
 20
4.226245691501494
 30
0.0
 11
6.088871764599716
 21
4.226245691501494
 31
0.0
  0
LWPOLYLINE
  5
7DE1B343D9E11AA
330
7DE1B343D9E11E3
100
AcDbEntity
  8
TEXT
100
AcDbPolyline
 90
        4
 70
     1
 43
0.0
 10
6.101802805882615
 20
4.164288304615906
 10
6.013142487222756
 20
4.164288304615906
 42
0.9999999999999998
 10
6.013142487222756
 20
4.121889764112045
 10
6.101802805882615
 20
4.121889764112045
 42
1.0
  0
LWPOLYLINE
  5
7DE1B343D9E11B0
330
7DE1B343D9E11E3
100
AcDbEntity
  8
TEXT
100
AcDbPolyline
 90
        2
 70
     0
 43
0.0
 10
5.98790785332113
 20
4.061324326631881
 10
6.121925270952507
 20
4.061324326631881
 42
0.9999999999999998
  0
LINE
  5
7DE1B343D9E11B4
330
7DE1B343D9E11E3
100
AcDbEntity
  8
TEXT
100
AcDbLine
 10
6.248262292938147
 20
4.263520664963627
 30
0.0
 11
6.324910274230704
 21
4.263520664963627
 31
0.0
  0
LINE
  5
7DE1B343D9E11B5
330
7DE1B343D9E11E3
100
AcDbEntity
  8
TEXT
100
AcDbLine
 10
6.324910274230704
 20
4.263520664963627
 30
0.0
 11
6.32491027423071
 21
4.061324326631881
 31
0.0
  0
ARC
  5
7DE1B343D9E11B6
330
7DE1B343D9E11E3
100
AcDbEntity
  8
TEXT
100
AcDbCircle
 10
6.248262292938145
 20
4.238614789680964
 30
0.0
 40
0.0249058752826653
100
AcDbArc
 50
89.99971217465335
 51
179.9999999999985
  0
LINE
  5
7DE1B343D9E11B7
330
7DE1B343D9E11E3
100
AcDbEntity
  8
TEXT
100
AcDbLine
 10
6.223356417655487
 20
4.061324326631881
 30
0.0
 11
6.223356417655482
 21
4.238614832063349
 31
0.0
  0
LWPOLYLINE
  5
7DE1B343D9E11B8
330
7DE1B343D9E11E3
100
AcDbEntity
  8
TEXT
100
AcDbPolyline
 90
        2
 70
     0
 43
0.0
 10
6.165001203820152
 20
4.061324326631881
 10
6.223356417655486
 20
4.061324326631881
  0
LWPOLYLINE
  5
7DE1B343D9E11BC
330
7DE1B343D9E11E3
100
AcDbEntity
  8
TEXT
100
AcDbPolyline
 90
        2
 70
     0
 43
0.0
 10
6.165001203820152
 20
4.104815271582319
 10
6.165001203820152
 20
4.061324326631881
  0
LINE
  5
7DE1B343D9E11C0
330
7DE1B343D9E11E3
100
AcDbEntity
  8
TEXT
100
AcDbLine
 10
6.541770364137001
 20
4.061324326631881
 30
0.0
 11
6.44627814077339
 21
4.217904116679418
 31
0.0
  0
LINE
  5
7DE1B343D9E11C1
330
7DE1B343D9E11E3
100
AcDbEntity
  8
TEXT
100
AcDbLine
 10
6.465191991760795
 20
4.061324326631881
 30
0.0
 11
6.541770364137001
 21
4.061324326631881
 31
0.0
  0
LINE
  5
7DE1B343D9E11C2
330
7DE1B343D9E11E3
100
AcDbEntity
  8
TEXT
100
AcDbLine
 10
6.38928845854933
 20
4.192903895108061
 30
0.0
 11
6.465191991760795
 21
4.061324326631881
 31
0.0
  0
LINE
  5
7DE1B343D9E11C3
330
7DE1B343D9E11E3
100
AcDbEntity
  8
TEXT
100
AcDbLine
 10
6.38928845854933
 20
4.061324326631881
 30
0.0
 11
6.38928845854933
 21
4.192903895108061
 31
0.0
  0
LINE
  5
7DE1B343D9E11C4
330
7DE1B343D9E11E3
100
AcDbEntity
  8
TEXT
100
AcDbLine
 10
6.388745265453483
 20
4.393261565387993
 30
0.0
 11
6.320430386904209
 21
4.393261565387993
 31
0.0
  0
ARC
  5
7DE1B343D9E11C5
330
7DE1B343D9E11E3
100
AcDbEntity
  8
TEXT
100
AcDbCircle
 10
6.080074647863003
 20
4.28621379249949
 30
0.0
 40
0.0416329381542859
100
AcDbArc
 50
26.56974201007528
 51
87.20939649401342
  0
LINE
  5
7DE1B343D9E11C6
330
7DE1B343D9E11E3
100
AcDbEntity
  8
TEXT
100
AcDbLine
 10
6.224958432814615
 20
4.327797359620392
 30
0.0
 11
6.161061526515114
 21
4.327797359620392
 31
0.0
  0
LINE
  5
7DE1B343D9E11C7
330
7DE1B343D9E11E3
100
AcDbEntity
  8
TEXT
100
AcDbLine
 10
6.224958432814615
 20
4.300249709759517
 30
0.0
 11
6.224958432814615
 21
4.327797359620392
 31
0.0
  0
ARC
  5
7DE1B343D9E11C8
330
7DE1B343D9E11E3
100
AcDbEntity
  8
TEXT
100
AcDbCircle
 10
6.256151249877722
 20
4.296551632338127
 30
0.0
 40
0.0314112657011332
100
AcDbArc
 50
95.88484768694724
 51
173.2388340632136
  0
LINE
  5
7DE1B343D9E11C9
330
7DE1B343D9E11E3
100
AcDbEntity
  8
TEXT
100
AcDbLine
 10
6.320430386904204
 20
4.327797359620392
 30
0.0
 11
6.252930669254688
 21
4.327797359620392
 31
0.0
  0
LINE
  5
7DE1B343D9E11CA
330
7DE1B343D9E11E3
100
AcDbEntity
  8
TEXT
100
AcDbLine
 10
6.320430386904209
 20
4.393261565387993
 30
0.0
 11
6.320430386904204
 21
4.327797359620392
 31
0.0
  0
LINE
  5
7DE1B343D9E11CB
330
7DE1B343D9E11E3
100
AcDbEntity
  8
TEXT
100
AcDbLine
 10
6.510835256739095
 20
4.327797359620392
 30
0.0
 11
6.435843424009469
 21
4.327797359620392
 31
0.0
  0
ENDSEC
  0
SECTION
  2
OBJECTS
  0
DICTIONARY
  5
7DE1B343D9E11D7
330
0
100
AcDbDictionary
  3
ACAD_GROUP
350
7DE1B343D9E11D8
  3
ACAD_LAYOUT
350
7DE1B343D9E11FD
  3
ACAD_MLINESTYLE
350
7DE1B343D9E11D9
  3
ACAD_PLOTSETTINGS
350
7DE1B343D9E11FE
  3
ACAD_PLOTSTYLENAME
350
7DE1B343D9E11FB
  3
ACDBHEADERROUNDTRIPXREC
350
7DE1B343D9E1208
  3
ACDBVARIABLEDICTIONARY
350
7DE1B343D9E1205
  0
DICTIONARY
  5
7DE1B343D9E122A
330
7DE1B343D9E11E3
100
AcDbDictionary
280
     1
  3
ACAD_LAYOUTSELFREF
360
7DE1B343D9E122B
  0
DICTIONARY
  5
7DE1B343D9E1228
330
7DE1B343D9E11E0
100
AcDbDictionary
280
     1
  3
ACAD_LAYOUTSELFREF
360
7DE1B343D9E1229
  0
DICTIONARY
  5
7DE1B343D9E11D8
102
{ACAD_REACTORS
330
7DE1B343D9E11D7
102
}
330
7DE1B343D9E11D7
100
AcDbDictionary
  0
DICTIONARY
  5
7DE1B343D9E11FD
102
{ACAD_REACTORS
330
7DE1B343D9E11D7
102
}
330
7DE1B343D9E11D7
100
AcDbDictionary
  0
DICTIONARY
  5
7DE1B343D9E11D9
102
{ACAD_REACTORS
330
7DE1B343D9E11D7
102
}
330
7DE1B343D9E11D7
100
AcDbDictionary
  3
STANDARD
350
7DE1B343D9E11E6
  0
DICTIONARY
  5
7DE1B343D9E11FE
102
{ACAD_REACTORS
330
7DE1B343D9E11D7
102
}
330
7DE1B343D9E11D7
100
AcDbDictionary
  0
ACDBDICTIONARYWDFLT
  5
7DE1B343D9E11FB
102
{ACAD_REACTORS
330
7DE1B343D9E11D7
102
}
330
7DE1B343D9E11D7
100
AcDbDictionary
281
     1
  3
Normal
350
7DE1B343D9E11FC
100
AcDbDictionaryWithDefault
340
7DE1B343D9E11FC
  0
DICTIONARY
  5
7DE1B343D9E1208
102
{ACAD_REACTORS
330
7DE1B343D9E11D7
102
}
330
7DE1B343D9E11D7
100
AcDbDictionary
  3
CEPSNTYPE
350
7DE1B343D9E1212
  3
FINGERPRINTGUID
350
7DE1B343D9E1213
  3
HYPERLINKBASE
350
7DE1B343D9E120B
  3
INSUNITS
350
7DE1B343D9E1211
  3
LAYOUTDICT
350
7DE1B343D9E120D
  3
LWETCUNION
350
7DE1B343D9E1210
  3
PLOTSETDICT
350
7DE1B343D9E120E
  3
PLOTSTYLNAMDICT
350
7DE1B343D9E120F
  3
PSVPSCALE
350
7DE1B343D9E1215
  3
PUCSBASE
350
7DE1B343D9E1218
  3
PUCSORGBACK
350
7DE1B343D9E121E
  3
PUCSORGBOTTOM
350
7DE1B343D9E121A
  3
PUCSORGFRONT
350
7DE1B343D9E121D
  3
PUCSORGLEFT
350
7DE1B343D9E121B
  3
PUCSORGRIGHT
350
7DE1B343D9E121C
  3
PUCSORGTOP
350
7DE1B343D9E1219
  3
PUCSORTHOREF
350
7DE1B343D9E1216
  3
PUCSORTHOVIEW
350
7DE1B343D9E1217
  3
STYLESHEET
350
7DE1B343D9E120C
  3
TSTACKALIGN
350
7DE1B343D9E1209
  3
TSTACKSIZE
350
7DE1B343D9E120A
  3
UCSBASE
350
7DE1B343D9E1221
  3
UCSORGBACK
350
7DE1B343D9E1227
  3
UCSORGBOTTOM
350
7DE1B343D9E1223
  3
UCSORGFRONT
350
7DE1B343D9E1226
  3
UCSORGLEFT
350
7DE1B343D9E1224
  3
UCSORGRIGHT
350
7DE1B343D9E1225
  3
UCSORGTOP
350
7DE1B343D9E1222
  3
UCSORTHOREF
350
7DE1B343D9E121F
  3
UCSORTHOVIEW
350
7DE1B343D9E1220
  3
VERSIONGUID
350
7DE1B343D9E1214
  0
DICTIONARY
  5
7DE1B343D9E1205
102
{ACAD_REACTORS
330
7DE1B343D9E11D7
102
}
330
7DE1B343D9E11D7
100
AcDbDictionary
  3
DIMASSOC
350
7DE1B343D9E1206
  0
XRECORD
  5
7DE1B343D9E122B
102
{ACAD_REACTORS
330
7DE1B343D9E122A
102
}
330
7DE1B343D9E122A
100
AcDbXrecord
340
7DE1B343D9E11E3
  0
XRECORD
  5
7DE1B343D9E1229
102
{ACAD_REACTORS
330
7DE1B343D9E1228
102
}
330
7DE1B343D9E1228
100
AcDbXrecord
340
7DE1B343D9E11E0
  0
MLINESTYLE
  5
7DE1B343D9E11E6
102
{ACAD_REACTORS
330
7DE1B343D9E11D9
102
}
330
7DE1B343D9E11D9
100
AcDbMlineStyle
  2
STANDARD
 70
     0
  3

 62
     0
 51
90.0
 52
90.0
 71
     2
 49
0.5
 62
   256
  6
BYLAYER
 49
-0.5
 62
   256
  6
BYLAYER
  0
ACDBPLACEHOLDER
  5
7DE1B343D9E11FC
102
{ACAD_REACTORS
330
7DE1B343D9E11FB
102
}
330
7DE1B343D9E11FB
100
AcDbPlaceHolder
280
     0
  0
XRECORD
  5
7DE1B343D9E1212
102
{ACAD_REACTORS
330
7DE1B343D9E1208
102
}
330
7DE1B343D9E1208
100
AcDbXrecord
 90
        0
  0
XRECORD
  5
7DE1B343D9E1213
102
{ACAD_REACTORS
330
7DE1B343D9E1208
102
}
330
7DE1B343D9E1208
100
AcDbXrecord
  1
{26795F00-8DB6-11D6-88E6-0090279574E7}
  0
XRECORD
  5
7DE1B343D9E120B
102
{ACAD_REACTORS
330
7DE1B343D9E1208
102
}
330
7DE1B343D9E1208
100
AcDbXrecord
  1

  0
XRECORD
  5
7DE1B343D9E1211
102
{ACAD_REACTORS
330
7DE1B343D9E1208
102
}
330
7DE1B343D9E1208
100
AcDbXrecord
 90
        0
  0
XRECORD
  5
7DE1B343D9E120D
102
{ACAD_REACTORS
330
7DE1B343D9E1208
102
}
330
7DE1B343D9E1208
100
AcDbXrecord
340
7DE1B343D9E11FD
  0
XRECORD
  5
7DE1B343D9E1210
102
{ACAD_REACTORS
330
7DE1B343D9E1208
102
}
330
7DE1B343D9E1208
100
AcDbXrecord
 90
    14877
  0
XRECORD
  5
7DE1B343D9E120E
102
{ACAD_REACTORS
330
7DE1B343D9E1208
102
}
330
7DE1B343D9E1208
100
AcDbXrecord
340
7DE1B343D9E11FE
  0
XRECORD
  5
7DE1B343D9E120F
102
{ACAD_REACTORS
330
7DE1B343D9E1208
102
}
330
7DE1B343D9E1208
100
AcDbXrecord
340
7DE1B343D9E11FB
  0
XRECORD
  5
7DE1B343D9E1215
102
{ACAD_REACTORS
330
7DE1B343D9E1208
102
}
330
7DE1B343D9E1208
100
AcDbXrecord
 40
0.0
  0
XRECORD
  5
7DE1B343D9E1218
102
{ACAD_REACTORS
330
7DE1B343D9E1208
102
}
330
7DE1B343D9E1208
100
AcDbXrecord
340
0
  0
XRECORD
  5
7DE1B343D9E121E
102
{ACAD_REACTORS
330
7DE1B343D9E1208
102
}
330
7DE1B343D9E1208
100
AcDbXrecord
 10
0.0
 20
0.0
 30
0.0
  0
XRECORD
  5
7DE1B343D9E121A
102
{ACAD_REACTORS
330
7DE1B343D9E1208
102
}
330
7DE1B343D9E1208
100
AcDbXrecord
 10
0.0
 20
0.0
 30
0.0
  0
XRECORD
  5
7DE1B343D9E121D
102
{ACAD_REACTORS
330
7DE1B343D9E1208
102
}
330
7DE1B343D9E1208
100
AcDbXrecord
 10
0.0
 20
0.0
 30
0.0
  0
XRECORD
  5
7DE1B343D9E121B
102
{ACAD_REACTORS
330
7DE1B343D9E1208
102
}
330
7DE1B343D9E1208
100
AcDbXrecord
 10
0.0
 20
0.0
 30
0.0
  0
XRECORD
  5
7DE1B343D9E121C
102
{ACAD_REACTORS
330
7DE1B343D9E1208
102
}
330
7DE1B343D9E1208
100
AcDbXrecord
 10
0.0
 20
0.0
 30
0.0
  0
XRECORD
  5
7DE1B343D9E1219
102
{ACAD_REACTORS
330
7DE1B343D9E1208
102
}
330
7DE1B343D9E1208
100
AcDbXrecord
 10
0.0
 20
0.0
 30
0.0
  0
XRECORD
  5
7DE1B343D9E1216
102
{ACAD_REACTORS
330
7DE1B343D9E1208
102
}
330
7DE1B343D9E1208
100
AcDbXrecord
340
0
  0
XRECORD
  5
7DE1B343D9E1217
102
{ACAD_REACTORS
330
7DE1B343D9E1208
102
}
330
7DE1B343D9E1208
100
AcDbXrecord
 70
     0
  0
XRECORD
  5
7DE1B343D9E120C
102
{ACAD_REACTORS
330
7DE1B343D9E1208
102
}
330
7DE1B343D9E1208
100
AcDbXrecord
  1

  0
XRECORD
  5
7DE1B343D9E1209
102
{ACAD_REACTORS
330
7DE1B343D9E1208
102
}
330
7DE1B343D9E1208
100
AcDbXrecord
 90
        1
  0
XRECORD
  5
7DE1B343D9E120A
102
{ACAD_REACTORS
330
7DE1B343D9E1208
102
}
330
7DE1B343D9E1208
100
AcDbXrecord
 90
       70
  0
XRECORD
  5
7DE1B343D9E1221
102
{ACAD_REACTORS
330
7DE1B343D9E1208
102
}
330
7DE1B343D9E1208
100
AcDbXrecord
340
0
  0
XRECORD
  5
7DE1B343D9E1227
102
{ACAD_REACTORS
330
7DE1B343D9E1208
102
}
330
7DE1B343D9E1208
100
AcDbXrecord
 10
0.0
 20
0.0
 30
0.0
  0
XRECORD
  5
7DE1B343D9E1223
102
{ACAD_REACTORS
330
7DE1B343D9E1208
102
}
330
7DE1B343D9E1208
100
AcDbXrecord
 10
0.0
 20
0.0
 30
0.0
  0
XRECORD
  5
7DE1B343D9E1226
102
{ACAD_REACTORS
330
7DE1B343D9E1208
102
}
330
7DE1B343D9E1208
100
AcDbXrecord
 10
0.0
 20
0.0
 30
0.0
  0
XRECORD
  5
7DE1B343D9E1224
102
{ACAD_REACTORS
330
7DE1B343D9E1208
102
}
330
7DE1B343D9E1208
100
AcDbXrecord
 10
0.0
 20
0.0
 30
0.0
  0
XRECORD
  5
7DE1B343D9E1225
102
{ACAD_REACTORS
330
7DE1B343D9E1208
102
}
330
7DE1B343D9E1208
100
AcDbXrecord
 10
0.0
 20
0.0
 30
0.0
  0
XRECORD
  5
7DE1B343D9E1222
102
{ACAD_REACTORS
330
7DE1B343D9E1208
102
}
330
7DE1B343D9E1208
100
AcDbXrecord
 10
0.0
 20
0.0
 30
0.0
  0
XRECORD
  5
7DE1B343D9E121F
102
{ACAD_REACTORS
330
7DE1B343D9E1208
102
}
330
7DE1B343D9E1208
100
AcDbXrecord
340
0
  0
XRECORD
  5
7DE1B343D9E1220
102
{ACAD_REACTORS
330
7DE1B343D9E1208
102
}
330
7DE1B343D9E1208
100
AcDbXrecord
 70
     0
  0
XRECORD
  5
7DE1B343D9E1214
102
{ACAD_REACTORS
330
7DE1B343D9E1208
102
}
330
7DE1B343D9E1208
100
AcDbXrecord
  1
{26795F02-8DB6-11D6-88E6-0090279574E7}
  0
DICTIONARYVAR
  5
7DE1B343D9E1206
102
{ACAD_REACTORS
330
7DE1B343D9E1205
102
}
330
7DE1B343D9E1205
100
DictionaryVariables
280
     0
  1
1
  0
ENDSEC
  0
EOF
