  0
SECTION
  2
HEADER
  9
$ACADVER
  1
AC1014
  9
$ACADMAINTVER
 70
     9
  9
$DWGCODEPAGE
  3
ANSI_1252
  9
$INSBASE
 10
5.719077739294093
 20
4.722826224373134
 30
0.0
  9
$EXTMIN
 10
2.226890239294092
 20
3.865543830785605
 30
0.0
  9
$EXTMAX
 10
9.211265239294093
 20
4.792826224373134
 30
0.0
  9
$LIMMIN
 10
0.0
 20
0.0
  9
$LIMMAX
 10
18.0
 20
12.0
  9
$ORTHOMODE
 70
     1
  9
$REGENMODE
 70
     1
  9
$FILLMODE
 70
     1
  9
$QTEXTMODE
 70
     0
  9
$MIRRTEXT
 70
     0
  9
$DRAGMODE
 70
     2
  9
$LTSCALE
 40
1.0
  9
$OSMODE
 70
    39
  9
$ATTMODE
 70
     1
  9
$TEXTSIZE
 40
0.125
  9
$TRACEWID
 40
0.05
  9
$TEXTSTYLE
  7
ROMANS
  9
$CLAYER
  8
0
  9
$CELTYPE
  6
BYLAYER
  9
$CECOLOR
 62
   256
  9
$CELTSCALE
 40
1.0
  9
$DELOBJ
 70
     1
  9
$DISPSILH
 70
     1
  9
$DIMSCALE
 40
1.0
  9
$DIMASZ
 40
0.125
  9
$DIMEXO
 40
0.125
  9
$DIMDLI
 40
0.375
  9
$DIMRND
 40
0.0
  9
$DIMDLE
 40
0.0
  9
$DIMEXE
 40
0.125
  9
$DIMTP
 40
0.0
  9
$DIMTM
 40
0.0
  9
$DIMTXT
 40
0.125
  9
$DIMCEN
 40
-0.125
  9
$DIMTSZ
 40
0.0
  9
$DIMTOL
 70
     0
  9
$DIMLIM
 70
     0
  9
$DIMTIH
 70
     1
  9
$DIMTOH
 70
     1
  9
$DIMSE1
 70
     0
  9
$DIMSE2
 70
     0
  9
$DIMTAD
 70
     0
  9
$DIMZIN
 70
     4
  9
$DIMBLK
  1

  9
$DIMASO
 70
     1
  9
$DIMSHO
 70
     1
  9
$DIMPOST
  1

  9
$DIMAPOST
  1

  9
$DIMALT
 70
     0
  9
$DIMALTD
 70
     2
  9
$DIMALTF
 40
25.4
  9
$DIMLFAC
 40
1.0
  9
$DIMTOFL
 70
     0
  9
$DIMTVP
 40
0.0
  9
$DIMTIX
 70
     1
  9
$DIMSOXD
 70
     0
  9
$DIMSAH
 70
     0
  9
$DIMBLK1
  1

  9
$DIMBLK2
  1

  9
$DIMSTYLE
  2
STANDARD
  9
$DIMCLRD
 70
     0
  9
$DIMCLRE
 70
     0
  9
$DIMCLRT
 70
     0
  9
$DIMTFAC
 40
1.0
  9
$DIMGAP
 40
0.09
  9
$DIMJUST
 70
     0
  9
$DIMSD1
 70
     0
  9
$DIMSD2
 70
     0
  9
$DIMTOLJ
 70
     1
  9
$DIMTZIN
 70
     4
  9
$DIMALTZ
 70
     0
  9
$DIMALTTZ
 70
     0
  9
$DIMFIT
 70
     3
  9
$DIMUPT
 70
     0
  9
$DIMUNIT
 70
     2
  9
$DIMDEC
 70
     3
  9
$DIMTDEC
 70
     3
  9
$DIMALTU
 70
     2
  9
$DIMALTTD
 70
     2
  9
$DIMTXSTY
  7
ROMANS
  9
$DIMAUNIT
 70
     0
  9
$LUNITS
 70
     2
  9
$LUPREC
 70
     3
  9
$SKETCHINC
 40
0.1
  9
$FILLETRAD
 40
0.03125
  9
$AUNITS
 70
     0
  9
$AUPREC
 70
     0
  9
$MENU
  1
ACAD
  9
$ELEVATION
 40
0.0
  9
$PELEVATION
 40
0.0
  9
$THICKNESS
 40
0.0
  9
$LIMCHECK
 70
     0
  9
$BLIPMODE
 70
     0
  9
$CHAMFERA
 40
0.0
  9
$CHAMFERB
 40
0.0
  9
$CHAMFERC
 40
0.0
  9
$CHAMFERD
 40
0.0
  9
$SKPOLY
 70
     0
  9
$TDCREATE
 40
2448994.564600926
  9
$TDUPDATE
 40
2452458.306108542
  9
$TDINDWG
 40
0.0005371296
  9
$TDUSRTIMER
 40
0.0005371296
  9
$USRTIMER
 70
     1
  9
$ANGBASE
 50
0.0
  9
$ANGDIR
 70
     0
  9
$PDMODE
 70
     0
  9
$PDSIZE
 40
0.0
  9
$PLINEWID
 40
0.0
  9
$COORDS
 70
     2
  9
$SPLFRAME
 70
     0
  9
$SPLINETYPE
 70
     6
  9
$SPLINESEGS
 70
     8
  9
$ATTDIA
 70
     0
  9
$ATTREQ
 70
     1
  9
$HANDLING
 70
 22529
  9
$HANDSEED
  5
7DE1B343D9E0EB9
  9
$SURFTAB1
 70
     6
  9
$SURFTAB2
 70
     6
  9
$SURFTYPE
 70
     6
  9
$SURFU
 70
     6
  9
$SURFV
 70
     6
  9
$UCSNAME
  2

  9
$UCSORG
 10
0.0
 20
0.0
 30
0.0
  9
$UCSXDIR
 10
1.0
 20
0.0
 30
0.0
  9
$UCSYDIR
 10
0.0
 20
1.0
 30
0.0
  9
$PUCSNAME
  2

  9
$PUCSORG
 10
0.0
 20
0.0
 30
0.0
  9
$PUCSXDIR
 10
1.0
 20
0.0
 30
0.0
  9
$PUCSYDIR
 10
0.0
 20
1.0
 30
0.0
  9
$USERI1
 70
     0
  9
$USERI2
 70
     0
  9
$USERI3
 70
     0
  9
$USERI4
 70
     0
  9
$USERI5
 70
     0
  9
$USERR1
 40
0.0
  9
$USERR2
 40
0.0
  9
$USERR3
 40
0.0
  9
$USERR4
 40
0.0
  9
$USERR5
 40
0.0
  9
$WORLDVIEW
 70
     1
  9
$SHADEDGE
 70
     3
  9
$SHADEDIF
 70
    70
  9
$TILEMODE
 70
     1
  9
$MAXACTVP
 70
    16
  9
$PINSBASE
 10
3.212164655629492
 20
50.00000000000001
 30
4.8235338649131
  9
$PLIMCHECK
 70
     0
  9
$PEXTMIN
 10
1.000000000000000E+20
 20
1.000000000000000E+20
 30
1.000000000000000E+20
  9
$PEXTMAX
 10
-1.000000000000000E+20
 20
-1.000000000000000E+20
 30
-1.000000000000000E+20
  9
$PLIMMIN
 10
0.0
 20
0.0
  9
$PLIMMAX
 10
12.0
 20
9.0
  9
$UNITMODE
 70
     0
  9
$VISRETAIN
 70
     0
  9
$PLINEGEN
 70
     1
  9
$PSLTSCALE
 70
     0
  9
$TREEDEPTH
 70
  3020
  9
$PICKSTYLE
 70
     1
  9
$CMLSTYLE
  2
STANDARD
  9
$CMLJUST
 70
     0
  9
$CMLSCALE
 40
1.0
  9
$PROXYGRAPHICS
 70
     1
  9
$MEASUREMENT
 70
     0
  0
ENDSEC
  0
SECTION
  2
CLASSES
  0
CLASS
  1
LWPOLYLINE
  2
AcDbPolyline
  3
AutoCAD 2000
 90
        0
280
     0
281
     1
  0
CLASS
  1
ACDBDICTIONARYWDFLT
  2
AcDbDictionaryWithDefault
  3
AutoCAD 2000
 90
        0
280
     0
281
     0
  0
CLASS
  1
ACDBPLACEHOLDER
  2
AcDbPlaceHolder
  3
AutoCAD 2000
 90
        0
280
     0
281
     0
  0
CLASS
  1
LAYOUT
  2
AcDbLayout
  3
AutoCAD 2000
 90
        0
280
     0
281
     0
  0
CLASS
  1
DICTIONARYVAR
  2
AcDbDictionaryVar
  3
AutoCAD 2000
 90
        0
280
     0
281
     0
  0
CLASS
  1
LONG_TRANSACTION
  2
AcDbLongTransaction
  3
AutoCAD 2000
 90
        0
280
     0
281
     0
  0
CLASS
  1
LWPOLYLINE
  2
AcDbPolyline
  3
AutoCAD 2000
 90
        0
280
     0
281
     1
  0
CLASS
  1
HATCH
  2
AcDbHatch
  3
AutoCAD 2000
 90
        0
280
     0
281
     1
  0
CLASS
  1
XRECORD
  2
AcDbXrecord
  3
AutoCAD 2000
 90
        0
280
     0
281
     0
  0
ENDSEC
  0
SECTION
  2
TABLES
  0
TABLE
  2
VPORT
  5
7DE1B343D9E0E60
330
0
100
AcDbSymbolTable
 70
     2
  0
VPORT
  5
7DE1B343D9E0E94
330
7DE1B343D9E0E60
100
AcDbSymbolTableRecord
100
AcDbViewportTableRecord
  2
*ACTIVE
 70
     0
 10
0.0
 20
0.0
 11
1.0
 21
1.0
 12
11.68174397937894
 22
4.329162623650816
 13
0.0
 23
0.0
 14
0.015625
 24
0.015625
 15
0.0
 25
0.0
 16
0.0
 26
0.0
 36
1.0
 17
0.0
 27
0.0
 37
0.0
 40
4.573385749675326
 41
4.320930232558139
 42
50.0
 43
0.0
 44
0.0
 50
0.0
 51
0.0
 71
     0
 72
  2000
 73
     1
 74
     0
 75
     0
 76
     0
 77
     0
 78
     0
  0
ENDTAB
  0
TABLE
  2
LTYPE
  5
7DE1B343D9E0E5D
330
0
100
AcDbSymbolTable
 70
     1
  0
LTYPE
  5
7DE1B343D9E0E6A
330
7DE1B343D9E0E5D
100
AcDbSymbolTableRecord
100
AcDbLinetypeTableRecord
  2
BYBLOCK
 70
     0
  3

 72
    65
 73
     0
 40
0.0
  0
LTYPE
  5
7DE1B343D9E0E6B
330
7DE1B343D9E0E5D
100
AcDbSymbolTableRecord
100
AcDbLinetypeTableRecord
  2
BYLAYER
 70
     0
  3

 72
    65
 73
     0
 40
0.0
  0
LTYPE
  5
7DE1B343D9E0E6C
330
7DE1B343D9E0E5D
100
AcDbSymbolTableRecord
100
AcDbLinetypeTableRecord
  2
CONTINUOUS
 70
     0
  3
Solid line
 72
    65
 73
     0
 40
0.0
  0
ENDTAB
  0
TABLE
  2
LAYER
  5
7DE1B343D9E0E5A
330
0
100
AcDbSymbolTable
 70
     2
  0
LAYER
  5
7DE1B343D9E0E67
330
7DE1B343D9E0E5A
100
AcDbSymbolTableRecord
100
AcDbLayerTableRecord
  2
0
 70
     0
 62
     7
  6
CONTINUOUS
  0
LAYER
  5
7DE1B343D9E0E77
330
7DE1B343D9E0E5A
100
AcDbSymbolTableRecord
100
AcDbLayerTableRecord
  2
TEXT
 70
     0
 62
     3
  6
CONTINUOUS
  0
ENDTAB
  0
TABLE
  2
STYLE
  5
7DE1B343D9E0E5B
330
0
100
AcDbSymbolTable
 70
     3
  0
STYLE
  5
7DE1B343D9E0E68
330
7DE1B343D9E0E5B
100
AcDbSymbolTableRecord
100
AcDbTextStyleTableRecord
  2
STANDARD
 70
     0
 40
0.0
 41
1.0
 50
0.0
 71
     0
 42
0.3125
  3
txt
  4

  0
STYLE
  5
7DE1B343D9E0E74
330
7DE1B343D9E0E5B
100
AcDbSymbolTableRecord
100
AcDbTextStyleTableRecord
  2
ITALICC
 70
     0
 40
0.0
 41
1.0
 50
0.0
 71
     0
 42
0.125
  3
italicc
  4

  0
STYLE
  5
7DE1B343D9E0E84
330
7DE1B343D9E0E5B
100
AcDbSymbolTableRecord
100
AcDbTextStyleTableRecord
  2
ROMANS
 70
     0
 40
0.0
 41
1.0
 50
0.0
 71
     0
 42
0.125
  3
romans.shx
  4

  0
ENDTAB
  0
TABLE
  2
VIEW
  5
7DE1B343D9E0E5E
330
0
100
AcDbSymbolTable
 70
     0
  0
ENDTAB
  0
TABLE
  2
UCS
  5
7DE1B343D9E0E5F
330
0
100
AcDbSymbolTable
 70
     0
  0
ENDTAB
  0
TABLE
  2
APPID
  5
7DE1B343D9E0E61
330
0
100
AcDbSymbolTable
 70
     1
  0
APPID
  5
7DE1B343D9E0E69
330
7DE1B343D9E0E61
100
AcDbSymbolTableRecord
100
AcDbRegAppTableRecord
  2
ACAD
 70
     0
  0
ENDTAB
  0
TABLE
  2
DIMSTYLE
  5
7DE1B343D9E0E62
330
0
100
AcDbSymbolTable
 70
     1
  0
DIMSTYLE
105
7DE1B343D9E0E7C
330
7DE1B343D9E0E62
100
AcDbSymbolTableRecord
100
AcDbDimStyleTableRecord
  2
STANDARD
 70
     0
  3

  4

  5

  6

  7

 40
1.0
 41
0.125
 42
0.125
 43
0.375
 44
0.125
 45
0.0
 46
0.0
 47
0.0
 48
0.0
140
0.125
141
-0.125
142
0.0
143
25.4
144
1.0
145
0.0
146
1.0
147
0.09
 71
     0
 72
     0
 73
     1
 74
     1
 75
     0
 76
     0
 77
     0
 78
     4
170
     0
171
     2
172
     0
173
     0
174
     1
175
     0
176
     0
177
     0
178
     0
270
     2
271
     3
272
     3
273
     2
274
     2
340
7DE1B343D9E0E84
275
     0
280
     0
281
     0
282
     0
283
     1
284
     4
285
     0
286
     0
287
     3
288
     0
  0
ENDTAB
  0
TABLE
  2
BLOCK_RECORD
  5
7DE1B343D9E0E59
330
0
100
AcDbSymbolTable
 70
     0
  0
BLOCK_RECORD
  5
7DE1B343D9E0E70
102
{ACAD_XDICTIONARY
360
7DE1B343D9E0EB7
102
}
330
7DE1B343D9E0E59
100
AcDbSymbolTableRecord
100
AcDbBlockTableRecord
  2
*MODEL_SPACE
  0
BLOCK_RECORD
  5
7DE1B343D9E0E6D
102
{ACAD_XDICTIONARY
360
7DE1B343D9E0EB5
102
}
330
7DE1B343D9E0E59
100
AcDbSymbolTableRecord
100
AcDbBlockTableRecord
  2
*PAPER_SPACE
  0
ENDTAB
  0
ENDSEC
  0
SECTION
  2
BLOCKS
  0
BLOCK
  5
7DE1B343D9E0E7A
330
7DE1B343D9E0E70
100
AcDbEntity
  8
0
100
AcDbBlockBegin
  2
*MODEL_SPACE
 70
     0
 10
0.0
 20
0.0
 30
0.0
  3
*MODEL_SPACE
  1

  0
ENDBLK
  5
7DE1B343D9E0E7B
330
7DE1B343D9E0E70
100
AcDbEntity
  8
0
100
AcDbBlockEnd
  0
BLOCK
  5
7DE1B343D9E0E78
330
7DE1B343D9E0E6D
100
AcDbEntity
 67
     1
  8
0
100
AcDbBlockBegin
  2
*PAPER_SPACE
 70
     0
 10
0.0
 20
0.0
 30
0.0
  3
*PAPER_SPACE
  1

  0
ENDBLK
  5
7DE1B343D9E0E79
330
7DE1B343D9E0E6D
100
AcDbEntity
 67
     1
  8
0
100
AcDbBlockEnd
  0
ENDSEC
  0
SECTION
  2
ENTITIES
  0
LWPOLYLINE
  5
7DE1B343D9DF92D
330
7DE1B343D9E0E70
100
AcDbEntity
  8
0
100
AcDbPolyline
 90
        4
 70
     1
 43
0.0
 10
9.211265239294093
 20
4.792826224373134
 10
2.226890239294092
 20
4.792826224373134
 10
2.226890239294092
 20
4.722826224373134
 10
9.211265239294093
 20
4.722826224373134
  0
TEXT
  5
7DE1B343D9E0D1B
330
7DE1B343D9E0E70
100
AcDbEntity
  8
TEXT
100
AcDbText
 10
4.963125358341711
 20
4.323562434868186
 30
0.0
 40
0.125
  1
PART #110305
  7
ITALICC
 72
     1
 11
5.719077739294093
 21
4.323562434868186
 31
0.0
100
AcDbText
  0
TEXT
  5
7DE1B343D9E0D1C
330
7DE1B343D9E0E70
100
AcDbEntity
  8
TEXT
100
AcDbText
 10
6.132382897544413
 20
3.876639792195811
 30
0.0
 40
0.0522247191011236
  1
Phone  1-800-328-2495
 41
1.272321428571429
 72
     5
 11
7.461315481814077
 21
3.876639792195811
 31
0.0
100
AcDbText
  0
TEXT
  5
7DE1B343D9E0D1D
330
7DE1B343D9E0E70
100
AcDbEntity
  8
TEXT
100
AcDbText
 10
6.132382897544413
 20
4.156415073094688
 30
0.0
 40
0.0522247191011236
  1
Stylmark  Incorporated
 41
1.221428571428573
 72
     5
 11
7.461315481814077
 21
4.156415073094688
 31
0.0
100
AcDbText
  0
TEXT
  5
7DE1B343D9E0D1E
330
7DE1B343D9E0E70
100
AcDbEntity
  8
TEXT
100
AcDbText
 10
6.132382897544413
 20
4.063156646128396
 30
0.0
 40
0.0522247191011236
  1
6536 Main St. N.E. * P.O. Box 32008
 41
0.8388932496075366
 72
     5
 11
7.461315481814077
 21
4.063156646128396
 31
0.0
100
AcDbText
  0
TEXT
  5
7DE1B343D9E0D1F
330
7DE1B343D9E0E70
100
AcDbEntity
  8
TEXT
100
AcDbText
 10
6.132382897544413
 20
3.969898219162103
 30
0.0
 40
0.0522247191011236
  1
Minneapolis, MN 55432-0008
 41
1.11444212721585
 72
     5
 11
7.461315481814077
 21
3.969898219162103
 31
0.0
100
AcDbText
  0
LWPOLYLINE
  5
7DE1B343D9E0D20
330
7DE1B343D9E0E70
100
AcDbEntity
  8
TEXT
100
AcDbPolyline
 90
        3
 70
     0
 43
0.0006660908203125
 10
3.976429205477105
 20
3.990284554833246
 10
3.976429205477105
 20
3.877049115380118
 10
4.089664644930228
 20
3.877049115380118
  0
LWPOLYLINE
  5
7DE1B343D9E0D25
330
7DE1B343D9E0E70
100
AcDbEntity
  8
TEXT
100
AcDbPolyline
 90
        3
 70
     0
 43
0.0006660908203125
 10
4.003072838289603
 20
3.990284554833246
 10
4.003072838289603
 20
3.903692748192619
 10
4.089664644930228
 20
3.903692748192619
  0
LWPOLYLINE
  5
7DE1B343D9E0D2A
330
7DE1B343D9E0E70
100
AcDbEntity
  8
TEXT
100
AcDbPolyline
 90
        2
 70
     0
 43
0.0001332181640625
 10
4.04969919571148
 20
4.000275917137932
 10
3.976429205477105
 20
3.990284554833246
  0
LWPOLYLINE
  5
7DE1B343D9E0D2E
330
7DE1B343D9E0E70
100
AcDbEntity
  8
TEXT
100
AcDbPolyline
 90
        2
 70
     0
 43
0.0001332181640625
 10
4.003072838289603
 20
3.990284554833246
 10
4.06302101211773
 20
4.000275917137932
  0
LWPOLYLINE
  5
7DE1B343D9E0D32
330
7DE1B343D9E0E70
100
AcDbEntity
  8
TEXT
100
AcDbPolyline
 90
        2
 70
     0
 43
0.0001332181640625
 10
4.003072838289603
 20
3.903692748192619
 10
4.06302101211773
 20
3.963640922020745
  0
LWPOLYLINE
  5
7DE1B343D9E0D36
330
7DE1B343D9E0E70
100
AcDbEntity
  8
TEXT
100
AcDbPolyline
 90
        3
 70
     0
 43
0.0006660908203125
 10
4.089664644930228
 20
4.143485443505122
 10
3.976429205477105
 20
4.143485443505122
 10
3.976429205477105
 20
4.030250004051994
  0
LWPOLYLINE
  5
7DE1B343D9E0D3B
330
7DE1B343D9E0E70
100
AcDbEntity
  8
TEXT
100
AcDbPolyline
 90
        3
 70
     0
 43
0.0006660908203125
 10
4.089664644930228
 20
4.116841810692621
 10
4.003072838289603
 20
4.116841810692621
 10
4.003072838289603
 20
4.030250004051994
  0
LWPOLYLINE
  5
7DE1B343D9E0D40
330
7DE1B343D9E0E70
100
AcDbEntity
  8
TEXT
100
AcDbPolyline
 90
        2
 70
     0
 43
0.0001332181640625
 10
4.003072838289603
 20
4.116841810692621
 10
4.063021012117729
 20
4.056893636864495
  0
LWPOLYLINE
  5
7DE1B343D9E0D44
330
7DE1B343D9E0E70
100
AcDbEntity
  8
TEXT
100
AcDbPolyline
 90
        2
 70
     0
 43
0.0001332181640625
 10
4.003072838289603
 20
4.030250004051994
 10
4.063021012117729
 20
4.020258641747306
  0
LWPOLYLINE
  5
7DE1B343D9E0D48
330
7DE1B343D9E0E70
100
AcDbEntity
  8
TEXT
100
AcDbPolyline
 90
        2
 70
     0
 43
0.0001332181640625
 10
3.976429205477105
 20
4.030250004051994
 10
4.04969919571148
 20
4.020258641747306
  0
LWPOLYLINE
  5
7DE1B343D9E0D4C
330
7DE1B343D9E0E70
100
AcDbEntity
  8
TEXT
100
AcDbPolyline
 90
        2
 70
     0
 43
0.0006660908203125
 10
4.003072838289603
 20
3.990284554833246
 10
3.976429205477105
 20
3.990284554833246
  0
LWPOLYLINE
  5
7DE1B343D9E0D50
330
7DE1B343D9E0E70
100
AcDbEntity
  8
TEXT
100
AcDbPolyline
 90
        2
 70
     0
 43
0.0006660908203125
 10
4.003072838289603
 20
4.030250004051994
 10
3.976429205477105
 20
4.030250004051994
  0
LINE
  5
7DE1B343D9E0D54
330
7DE1B343D9E0E70
100
AcDbEntity
  8
TEXT
100
AcDbLine
 10
5.491619634603603
 20
4.079208748848353
 30
0.0
 11
5.384413361216314
 21
4.079208748848353
 31
0.0
  0
LINE
  5
7DE1B343D9E0D55
330
7DE1B343D9E0E70
100
AcDbEntity
  8
TEXT
100
AcDbLine
 10
5.520650532948081
 20
4.143485443505118
 30
0.0
 11
5.385818623731022
 21
4.143485443505118
 31
0.0
  0
ARC
  5
7DE1B343D9E0D56
330
7DE1B343D9E0E70
100
AcDbEntity
  8
TEXT
100
AcDbCircle
 10
5.445132720124339
 20
3.974248194242102
 30
0.0
 40
0.0676855811441166
100
AcDbArc
 50
90.0
 51
153.7768192527749
  0
LWPOLYLINE
  5
7DE1B343D9E0D57
330
7DE1B343D9E0E70
100
AcDbEntity
  8
TEXT
100
AcDbPolyline
 90
        2
 70
     0
 43
0.0
 10
5.383380865761504
 20
3.920503355467045
 42
0.2901071551932823
 10
5.426456798629139
 20
3.877012410516607
 42
5.328517124445801
  0
ARC
  5
7DE1B343D9E0D5B
330
7DE1B343D9E0E70
100
AcDbEntity
  8
TEXT
100
AcDbCircle
 10
4.740001342452853
 20
3.936804801854657
 30
0.0
 40
0.0601160179737537
100
AcDbArc
 50
180.0000000000003
 51
264.0521544866073
  0
LINE
  5
7DE1B343D9E0D5C
330
7DE1B343D9E0E70
100
AcDbEntity
  8
TEXT
100
AcDbLine
 10
4.743516698078401
 20
4.177873361099257
 30
0.0
 11
4.683474093234394
 21
4.177873361099257
 31
0.0
  0
ARC
  5
7DE1B343D9E0D5D
330
7DE1B343D9E0E70
100
AcDbEntity
  8
TEXT
100
AcDbCircle
 10
4.507742340335883
 20
4.061397984058617
 30
0.0
 40
0.0820874594465043
100
AcDbArc
 50
90.0
 51
270.0
  0
LWPOLYLINE
  5
7DE1B343D9E0D5E
330
7DE1B343D9E0E70
100
AcDbEntity
  8
TEXT
100
AcDbPolyline
 90
        2
 70
     0
 43
0.0001332181640625
 10
4.099656007234918
 20
4.070215453270742
 10
4.089664644930228
 20
4.143485443505122
  0
LWPOLYLINE
  5
7DE1B343D9E0D62
330
7DE1B343D9E0E70
100
AcDbEntity
  8
TEXT
100
AcDbPolyline
 90
        2
 70
     0
 43
0.0001332181640625
 10
4.089664644930228
 20
4.116841810692621
 10
4.099656007234918
 20
4.056893636864495
  0
LWPOLYLINE
  5
7DE1B343D9E0D66
330
7DE1B343D9E0E70
100
AcDbEntity
  8
TEXT
100
AcDbPolyline
 90
        3
 70
     0
 43
0.0006660908203125
 10
4.242865533602105
 20
4.030250004051994
 10
4.242865533602105
 20
4.143485443505122
 10
4.129630094148979
 20
4.143485443505122
  0
LWPOLYLINE
  5
7DE1B343D9E0D6B
330
7DE1B343D9E0E70
100
AcDbEntity
  8
TEXT
100
AcDbPolyline
 90
        3
 70
     0
 43
0.0006660908203125
 10
4.216221900789604
 20
4.030250004051994
 10
4.216221900789604
 20
4.116841810692621
 10
4.129630094148979
 20
4.116841810692621
  0
LWPOLYLINE
  5
7DE1B343D9E0D70
330
7DE1B343D9E0E70
100
AcDbEntity
  8
TEXT
100
AcDbPolyline
 90
        2
 70
     0
 43
0.0001332181640625
 10
4.216221900789604
 20
4.116841810692621
 10
4.15627372696148
 20
4.056893636864495
  0
LWPOLYLINE
  5
7DE1B343D9E0D74
330
7DE1B343D9E0E70
100
AcDbEntity
  8
TEXT
100
AcDbPolyline
 90
        2
 70
     0
 43
0.0001332181640625
 10
4.129630094148979
 20
4.116841810692621
 10
4.119638731844291
 20
4.056893636864495
  0
LWPOLYLINE
  5
7DE1B343D9E0D78
330
7DE1B343D9E0E70
100
AcDbEntity
  8
TEXT
100
AcDbPolyline
 90
        2
 70
     0
 43
0.0001332181640625
 10
4.129630094148979
 20
4.143485443505122
 10
4.119638731844291
 20
4.070215453270742
  0
LWPOLYLINE
  5
7DE1B343D9E0D7C
330
7DE1B343D9E0E70
100
AcDbEntity
  8
TEXT
100
AcDbPolyline
 90
        2
 70
     0
 43
0.0001332181640625
 10
4.169595543367729
 20
4.020258641747306
 10
4.242865533602105
 20
4.030250004051994
  0
LWPOLYLINE
  5
7DE1B343D9E0D80
330
7DE1B343D9E0E70
100
AcDbEntity
  8
TEXT
100
AcDbPolyline
 90
        2
 70
     0
 43
0.0001332181640625
 10
4.216221900789604
 20
4.030250004051994
 10
4.15627372696148
 20
4.020258641747306
  0
LWPOLYLINE
  5
7DE1B343D9E0D84
330
7DE1B343D9E0E70
100
AcDbEntity
  8
TEXT
100
AcDbPolyline
 90
        2
 70
     0
 43
0.0001332181640625
 10
4.242865533602105
 20
3.990284554833246
 10
4.169595543367729
 20
4.000275917137932
  0
LWPOLYLINE
  5
7DE1B343D9E0D88
330
7DE1B343D9E0E70
100
AcDbEntity
  8
TEXT
100
AcDbPolyline
 90
        2
 70
     0
 43
0.0001332181640625
 10
4.216221900789604
 20
3.990284554833246
 10
4.15627372696148
 20
4.000275917137932
  0
LWPOLYLINE
  5
7DE1B343D9E0D8C
330
7DE1B343D9E0E70
100
AcDbEntity
  8
TEXT
100
AcDbPolyline
 90
        2
 70
     0
 43
0.0001332181640625
 10
4.216221900789604
 20
3.903692748192619
 10
4.15627372696148
 20
3.963640922020745
  0
LWPOLYLINE
  5
7DE1B343D9E0D90
330
7DE1B343D9E0E70
100
AcDbEntity
  8
TEXT
100
AcDbPolyline
 90
        3
 70
     0
 43
0.0006660908203125
 10
4.129630094148979
 20
3.903692748192619
 10
4.216221900789604
 20
3.903692748192619
 10
4.216221900789604
 20
3.990284554833246
  0
LWPOLYLINE
  5
7DE1B343D9E0D95
330
7DE1B343D9E0E70
100
AcDbEntity
  8
TEXT
100
AcDbPolyline
 90
        3
 70
     0
 43
0.0006660908203125
 10
4.129630094148979
 20
3.877049115380118
 10
4.242865533602105
 20
3.877049115380118
 10
4.242865533602105
 20
3.990284554833246
  0
LWPOLYLINE
  5
7DE1B343D9E0D9A
330
7DE1B343D9E0E70
100
AcDbEntity
  8
TEXT
100
AcDbPolyline
 90
        5
 70
     0
 43
0.0001332181640625
 10
4.099656007234918
 20
3.950319105614494
 10
4.099656007234918
 20
3.963640922020745
 10
4.06302101211773
 20
3.963640922020745
 10
4.06302101211773
 20
4.000275917137932
 10
4.04969919571148
 20
4.000275917137932
  0
LWPOLYLINE
  5
7DE1B343D9E0DA1
330
7DE1B343D9E0E70
100
AcDbEntity
  8
TEXT
100
AcDbPolyline
 90
        2
 70
     0
 43
0.0006660908203125
 10
4.089664644930228
 20
3.903692748192619
 10
4.089664644930228
 20
3.877049115380118
  0
LWPOLYLINE
  5
7DE1B343D9E0DA5
330
7DE1B343D9E0E70
100
AcDbEntity
  8
TEXT
100
AcDbPolyline
 90
        2
 70
     0
 43
0.0001332181640625
 10
4.089664644930228
 20
3.903692748192619
 10
4.099656007234918
 20
3.963640922020745
  0
LWPOLYLINE
  5
7DE1B343D9E0DA9
330
7DE1B343D9E0E70
100
AcDbEntity
  8
TEXT
100
AcDbPolyline
 90
        2
 70
     0
 43
0.0001332181640625
 10
4.089664644930228
 20
3.877049115380118
 10
4.099656007234918
 20
3.950319105614494
  0
LWPOLYLINE
  5
7DE1B343D9E0DAD
330
7DE1B343D9E0E70
100
AcDbEntity
  8
TEXT
100
AcDbPolyline
 90
        5
 70
     0
 43
0.0001332181640625
 10
4.04969919571148
 20
4.020258641747306
 10
4.063021012117729
 20
4.020258641747306
 10
4.063021012117729
 20
4.056893636864495
 10
4.099656007234918
 20
4.056893636864495
 10
4.099656007234918
 20
4.070215453270742
  0
LWPOLYLINE
  5
7DE1B343D9E0DB4
330
7DE1B343D9E0E70
100
AcDbEntity
  8
TEXT
100
AcDbPolyline
 90
        5
 70
     0
 43
0.0001332181640625
 10
4.119638731844291
 20
4.070215453270742
 10
4.119638731844291
 20
4.056893636864495
 10
4.15627372696148
 20
4.056893636864495
 10
4.15627372696148
 20
4.020258641747306
 10
4.169595543367729
 20
4.020258641747306
  0
LWPOLYLINE
  5
7DE1B343D9E0DBB
330
7DE1B343D9E0E70
100
AcDbEntity
  8
TEXT
100
AcDbPolyline
 90
        2
 70
     0
 43
0.0001332181640625
 10
4.129630094148979
 20
3.903692748192619
 10
4.119638731844291
 20
3.963640922020745
  0
LWPOLYLINE
  5
7DE1B343D9E0DBF
330
7DE1B343D9E0E70
100
AcDbEntity
  8
TEXT
100
AcDbPolyline
 90
        2
 70
     0
 43
0.0001332181640625
 10
4.119638731844291
 20
3.950319105614494
 10
4.129630094148979
 20
3.877049115380118
  0
LWPOLYLINE
  5
7DE1B343D9E0DC3
330
7DE1B343D9E0E70
100
AcDbEntity
  8
TEXT
100
AcDbPolyline
 90
        2
 70
     0
 43
0.0006660908203125
 10
4.129630094148979
 20
3.903692748192619
 10
4.129630094148979
 20
3.877049115380118
  0
LWPOLYLINE
  5
7DE1B343D9E0DC7
330
7DE1B343D9E0E70
100
AcDbEntity
  8
TEXT
100
AcDbPolyline
 90
        5
 70
     0
 43
0.0001332181640625
 10
4.169595543367729
 20
4.000275917137932
 10
4.15627372696148
 20
4.000275917137932
 10
4.15627372696148
 20
3.963640922020745
 10
4.119638731844291
 20
3.963640922020745
 10
4.119638731844291
 20
3.950319105614494
  0
LWPOLYLINE
  5
7DE1B343D9E0DCE
330
7DE1B343D9E0E70
100
AcDbEntity
  8
TEXT
100
AcDbPolyline
 90
        2
 70
     0
 43
0.0006660908203125
 10
4.216221900789604
 20
4.030250004051994
 10
4.242865533602105
 20
4.030250004051994
  0
LWPOLYLINE
  5
7DE1B343D9E0DD2
330
7DE1B343D9E0E70
100
AcDbEntity
  8
TEXT
100
AcDbPolyline
 90
        2
 70
     0
 43
0.0006660908203125
 10
4.216221900789604
 20
3.990284554833246
 10
4.242865533602105
 20
3.990284554833246
  0
LINE
  5
7DE1B343D9E0DD6
330
7DE1B343D9E0E70
100
AcDbEntity
  8
TEXT
100
AcDbLine
 10
4.51297967045013
 20
4.079208748848353
 30
0.0
 11
4.679885324479101
 21
4.079208748848353
 31
0.0
  0
LINE
  5
7DE1B343D9E0DD7
330
7DE1B343D9E0E70
100
AcDbEntity
  8
TEXT
100
AcDbLine
 10
4.578579806694431
 20
4.043404027237725
 30
0.0
 11
4.51297967045013
 21
4.043404027237725
 31
0.0
  0
LINE
  5
7DE1B343D9E0DD8
330
7DE1B343D9E0E70
100
AcDbEntity
  8
TEXT
100
AcDbLine
 10
4.425654880889378
 20
3.877012410516607
 30
0.0
 11
4.578579806694431
 21
3.877012410516607
 31
0.0
  0
LINE
  5
7DE1B343D9E0DD9
330
7DE1B343D9E0E70
100
AcDbEntity
  8
TEXT
100
AcDbLine
 10
4.583520180600711
 20
3.945369416850046
 30
0.0
 11
4.425654880889377
 21
3.945369416850046
 31
0.0
  0
LINE
  5
7DE1B343D9E0DDA
330
7DE1B343D9E0E70
100
AcDbEntity
  8
TEXT
100
AcDbLine
 10
4.507742340335882
 20
3.979310524612111
 30
0.0
 11
4.583520180600711
 21
3.979310524612111
 31
0.0
  0
ARC
  5
7DE1B343D9E0DDB
330
7DE1B343D9E0E70
100
AcDbEntity
  8
TEXT
100
AcDbCircle
 10
4.512979670450131
 20
4.061306388043041
 30
0.0
 40
0.017902360805315
100
AcDbArc
 50
90.0
 51
270.0
  0
LINE
  5
7DE1B343D9E0DDC
330
7DE1B343D9E0E70
100
AcDbEntity
  8
TEXT
100
AcDbLine
 10
4.425654880889377
 20
3.945369416850046
 30
0.0
 11
4.425654880889378
 21
3.877012410516607
 31
0.0
  0
LINE
  5
7DE1B343D9E0DDD
330
7DE1B343D9E0E70
100
AcDbEntity
  8
TEXT
100
AcDbLine
 10
4.679885324479101
 20
4.079208748848353
 30
0.0
 11
4.679885324479101
 21
3.936804801854657
 31
0.0
  0
ARC
  5
7DE1B343D9E0DDE
330
7DE1B343D9E0E70
100
AcDbEntity
  8
TEXT
100
AcDbCircle
 10
4.578579806694432
 20
3.960208218877164
 30
0.0
 40
0.0831958083605586
100
AcDbArc
 50
270.0
 51
90.0
  0
ARC
  5
7DE1B343D9E0DDF
330
7DE1B343D9E0E70
100
AcDbEntity
  8
TEXT
100
AcDbCircle
 10
4.583520180600712
 20
3.96233997073108
 30
0.0
 40
0.0169705538810321
100
AcDbArc
 50
270.0
 51
90.0
  0
LWPOLYLINE
  5
7DE1B343D9E0DE0
330
7DE1B343D9E0E70
100
AcDbEntity
  8
TEXT
100
AcDbPolyline
 90
        2
 70
     0
 43
0.0006660908203125
 10
4.089664644930228
 20
4.116841810692621
 10
4.089664644930228
 20
4.143485443505122
  0
LWPOLYLINE
  5
7DE1B343D9E0DE4
330
7DE1B343D9E0E70
100
AcDbEntity
  8
TEXT
100
AcDbPolyline
 90
        2
 70
     0
 43
0.0006660908203125
 10
4.129630094148979
 20
4.116841810692621
 10
4.129630094148979
 20
4.143485443505122
  0
LINE
  5
7DE1B343D9E0DE8
330
7DE1B343D9E0E70
100
AcDbEntity
  8
TEXT
100
AcDbLine
 10
4.683474093234394
 20
4.143485443505118
 30
0.0
 11
4.507742340335882
 21
4.143485443505118
 31
0.0
  0
LINE
  5
7DE1B343D9E0DE9
330
7DE1B343D9E0E70
100
AcDbEntity
  8
TEXT
100
AcDbLine
 10
4.683474093234394
 20
4.177873361099257
 30
0.0
 11
4.683474093234394
 21
4.143485443505118
 31
0.0
  0
LINE
  5
7DE1B343D9E0DEA
330
7DE1B343D9E0E70
100
AcDbEntity
  8
TEXT
100
AcDbLine
 10
4.873945985254247
 20
4.042613447391998
 30
0.0
 11
4.815315664222309
 21
4.143485443505118
 31
0.0
  0
LINE
  5
7DE1B343D9E0DEB
330
7DE1B343D9E0E70
100
AcDbEntity
  8
TEXT
100
AcDbLine
 10
4.932694548060112
 20
4.143485443505118
 30
0.0
 11
4.873945985254247
 21
4.042613447391998
 31
0.0
  0
LINE
  5
7DE1B343D9E0DEC
330
7DE1B343D9E0E70
100
AcDbEntity
  8
TEXT
100
AcDbLine
 10
5.029625173419853
 20
3.959400248619606
 30
0.0
 11
5.029625173419853
 21
4.211496921243929
 31
0.0
  0
LINE
  5
7DE1B343D9E0DED
330
7DE1B343D9E0E70
100
AcDbEntity
  8
TEXT
100
AcDbLine
 10
5.061937027557513
 20
4.143485443505118
 30
0.0
 11
5.061937027557513
 21
3.94262123677271
 31
0.0
  0
LINE
  5
7DE1B343D9E0DEE
330
7DE1B343D9E0E70
100
AcDbEntity
  8
TEXT
100
AcDbLine
 10
5.061937027557513
 20
3.94262123677271
 30
0.0
 11
5.044943390672912
 21
3.94262123677271
 31
0.0
  0
LINE
  5
7DE1B343D9E0DEF
330
7DE1B343D9E0E70
100
AcDbEntity
  8
TEXT
100
AcDbLine
 10
5.030764746916048
 20
3.877012410516607
 30
0.0
 11
5.128768080615483
 21
3.877012410516607
 31
0.0
  0
LINE
  5
7DE1B343D9E0DF0
330
7DE1B343D9E0E70
100
AcDbEntity
  8
TEXT
100
AcDbLine
 10
4.864345748257292
 20
3.89697091662162
 30
0.0
 11
4.961645454350737
 21
4.061321127556889
 31
0.0
  0
ARC
  5
7DE1B343D9E0DF1
330
7DE1B343D9E0E70
100
AcDbEntity
  8
TEXT
100
AcDbCircle
 10
4.830302188345078
 20
3.916560132790303
 30
0.0
 40
0.0392772371940762
100
AcDbArc
 50
270.1604552698595
 51
330.0831797321295
  0
LINE
  5
7DE1B343D9E0DF2
330
7DE1B343D9E0E70
100
AcDbEntity
  8
TEXT
100
AcDbLine
 10
4.733771931959207
 20
3.877012410516607
 30
0.0
 11
4.830412183034201
 21
3.877283049614889
 31
0.0
  0
LWPOLYLINE
  5
7DE1B343D9E0DF3
330
7DE1B343D9E0E70
100
AcDbEntity
  8
TEXT
100
AcDbPolyline
 90
        6
 70
     1
 43
0.0
 10
4.776295735534357
 20
4.079208748848353
 10
4.745979141314148
 20
4.079208748848353
 10
4.745979141314148
 20
3.956097750793458
 42
0.407328721240804
 10
4.757522792475625
 20
3.944278836117072
 10
4.818144491520356
 20
3.944278836117072
 10
4.835609831927674
 20
3.977091065160551
  0
LINE
  5
7DE1B343D9E0DFB
330
7DE1B343D9E0E70
100
AcDbEntity
  8
TEXT
100
AcDbLine
 10
4.961645454350737
 20
4.061321127556889
 30
0.0
 11
4.961645454350737
 21
3.928563752731532
 31
0.0
  0
ARC
  5
7DE1B343D9E0DFC
330
7DE1B343D9E0E70
100
AcDbEntity
  8
TEXT
100
AcDbCircle
 10
5.04494339067291
 20
3.958003043016135
 30
0.0
 40
0.0153818062434269
100
AcDbArc
 50
174.7883570302258
 51
270.0
  0
LWPOLYLINE
  5
7DE1B343D9E0DFD
330
7DE1B343D9E0E70
100
AcDbEntity
  8
TEXT
100
AcDbPolyline
 90
        2
 70
     0
 43
0.0
 10
4.961645454350735
 20
3.928563752731535
 42
0.3318488747599744
 10
5.030764746916048
 20
3.877012410516607
 42
-6.868794160588311
  0
LINE
  5
7DE1B343D9E0E01
330
7DE1B343D9E0E70
100
AcDbEntity
  8
TEXT
100
AcDbLine
 10
5.186157149604744
 20
3.877012410516607
 30
0.0
 11
5.253215196386584
 21
3.877012410516607
 31
0.0
  0
LINE
  5
7DE1B343D9E0E02
330
7DE1B343D9E0E70
100
AcDbEntity
  8
TEXT
100
AcDbLine
 10
5.186157149604744
 20
4.071654959682243
 30
0.0
 11
5.186157149604744
 21
3.877012410516607
 31
0.0
  0
LINE
  5
7DE1B343D9E0E03
330
7DE1B343D9E0E70
100
AcDbEntity
  8
TEXT
100
AcDbLine
 10
5.128768080615483
 20
4.079208748848353
 30
0.0
 11
5.17860336043863
 21
4.079208748848353
 31
0.0
  0
LINE
  5
7DE1B343D9E0E04
330
7DE1B343D9E0E70
100
AcDbEntity
  8
TEXT
100
AcDbLine
 10
5.128768080615483
 20
3.877012410516607
 30
0.0
 11
5.128768080615483
 21
4.079208748848353
 31
0.0
  0
LWPOLYLINE
  5
7DE1B343D9E0E05
330
7DE1B343D9E0E70
100
AcDbEntity
  8
TEXT
100
AcDbPolyline
 90
        2
 70
     0
 43
0.0
 10
5.178603360438629
 20
4.079208748848353
 42
-0.4142135623731017
 10
5.186157149604742
 20
4.071654959682243
 42
-0.9999999999999998
  0
LINE
  5
7DE1B343D9E0E09
330
7DE1B343D9E0E70
100
AcDbEntity
  8
TEXT
100
AcDbLine
 10
5.384413361216314
 20
4.079208748848353
 30
0.0
 11
5.384413361216314
 21
4.004156342774146
 31
0.0
  0
LINE
  5
7DE1B343D9E0E0A
330
7DE1B343D9E0E70
100
AcDbEntity
  8
TEXT
100
AcDbLine
 10
5.253215196386584
 20
4.079208748848353
 30
0.0
 11
5.307348793307534
 21
4.079208748848353
 31
0.0
  0
LINE
  5
7DE1B343D9E0E0B
330
7DE1B343D9E0E70
100
AcDbEntity
  8
TEXT
100
AcDbLine
 10
5.253215196386584
 20
3.877012410516607
 30
0.0
 11
5.253215196386584
 21
4.079208748848353
 31
0.0
  0
LWPOLYLINE
  5
7DE1B343D9E0E0C
330
7DE1B343D9E0E70
100
AcDbEntity
  8
TEXT
100
AcDbPolyline
 90
        2
 70
     0
 43
0.0
 10
5.307348793307532
 20
4.079208748848353
 42
-0.4142135623731017
 10
5.314902582473646
 20
4.071654959682243
 42
-0.9999999999999998
  0
LWPOLYLINE
  5
7DE1B343D9E0E10
330
7DE1B343D9E0E70
100
AcDbEntity
  8
TEXT
100
AcDbPolyline
 90
        4
 70
     0
 43
0.0
 10
5.314902582473646
 20
4.071654959682243
 10
5.314902582473646
 20
3.877012410516607
 10
5.383380865761504
 20
3.877012410516607
 10
5.383380865761504
 20
3.920503355467045
 42
-1.714843617202739
  0
LINE
  5
7DE1B343D9E0E16
330
7DE1B343D9E0E70
100
AcDbEntity
  8
TEXT
100
AcDbLine
 10
4.743516698078401
 20
4.143485443505118
 30
0.0
 11
4.743516698078401
 21
4.177873361099257
 31
0.0
  0
LINE
  5
7DE1B343D9E0E17
330
7DE1B343D9E0E70
100
AcDbEntity
  8
TEXT
100
AcDbLine
 10
4.815315664222309
 20
4.143485443505118
 30
0.0
 11
4.743516698078401
 21
4.143485443505118
 31
0.0
  0
LINE
  5
7DE1B343D9E0E18
330
7DE1B343D9E0E70
100
AcDbEntity
  8
TEXT
100
AcDbLine
 10
4.962816460853488
 20
4.143485443505118
 30
0.0
 11
4.932694548060112
 21
4.143485443505118
 31
0.0
  0
LINE
  5
7DE1B343D9E0E19
330
7DE1B343D9E0E70
100
AcDbEntity
  8
TEXT
100
AcDbLine
 10
4.962816460853488
 20
4.211496921243929
 30
0.0
 11
4.962816460853488
 21
4.143485443505118
 31
0.0
  0
LINE
  5
7DE1B343D9E0E1A
330
7DE1B343D9E0E70
100
AcDbEntity
  8
TEXT
100
AcDbLine
 10
5.029625173419853
 20
4.211496921243929
 30
0.0
 11
4.962816460853488
 21
4.211496921243929
 31
0.0
  0
LWPOLYLINE
  5
7DE1B343D9E0E1B
330
7DE1B343D9E0E70
100
AcDbEntity
  8
TEXT
100
AcDbPolyline
 90
        3
 70
     0
 43
0.0
 10
5.350036933017856
 20
4.143485443505122
 10
5.231736774201811
 20
4.143485443505122
 10
5.231736774201811
 20
4.116317946744226
 42
-1.960274751411753
  0
LINE
  5
7DE1B343D9E0E20
330
7DE1B343D9E0E70
100
AcDbEntity
  8
TEXT
100
AcDbLine
 10
5.19595508348865
 20
4.143485443505118
 30
0.0
 11
5.061937027557513
 21
4.143485443505118
 31
0.0
  0
LWPOLYLINE
  5
7DE1B343D9E0E21
330
7DE1B343D9E0E70
100
AcDbEntity
  8
TEXT
100
AcDbPolyline
 90
        2
 70
     0
 43
0.0
 10
5.19595508348865
 20
4.143485443505122
 42
-0.3328679258950098
 10
5.231736774201811
 20
4.116317946744226
 42
6.772930709997214
  0
LINE
  5
7DE1B343D9E0E25
330
7DE1B343D9E0E70
100
AcDbEntity
  8
TEXT
100
AcDbLine
 10
5.385818623731022
 20
4.143485443505118
 30
0.0
 11
5.385818623731022
 21
4.115162897735475
 31
0.0
  0
LWPOLYLINE
  5
7DE1B343D9E0E26
330
7DE1B343D9E0E70
100
AcDbEntity
  8
TEXT
100
AcDbPolyline
 90
        2
 70
     0
 43
0.0
 10
5.350036933017856
 20
4.143485443505122
 42
-0.3277054968067132
 10
5.385818623731021
 20
4.115162897735478
 42
6.667889725900311
  0
LINE
  5
7DE1B343D9E0E2A
330
7DE1B343D9E0E70
100
AcDbEntity
  8
TEXT
100
AcDbLine
 10
5.599610471823122
 20
4.038273464951691
 30
0.0
 11
5.555859700641221
 21
4.120523740947836
 31
0.0
  0
LINE
  5
7DE1B343D9E0E2B
330
7DE1B343D9E0E70
100
AcDbEntity
  8
TEXT
100
AcDbLine
 10
5.599610471823122
 20
4.143485443505118
 30
0.0
 11
5.599610471823122
 21
4.038273464951691
 31
0.0
  0
LINE
  5
7DE1B343D9E0E2C
330
7DE1B343D9E0E70
100
AcDbEntity
  8
TEXT
100
AcDbLine
 10
5.827294210761492
 20
4.06762011709358
 30
0.0
 11
5.827294210761492
 21
4.208949649272719
 31
0.0
  0
LINE
  5
7DE1B343D9E0E2D
330
7DE1B343D9E0E70
100
AcDbEntity
  8
TEXT
100
AcDbLine
 10
5.874392369317476
 20
4.143485443505118
 30
0.0
 11
5.827294210761492
 21
4.06762011709358
 31
0.0
  0
LINE
  5
7DE1B343D9E0E2E
330
7DE1B343D9E0E70
100
AcDbEntity
  8
TEXT
100
AcDbLine
 10
5.884827086081399
 20
4.033592200564145
 30
0.0
 11
5.949384202047104
 21
4.143485443505118
 31
0.0
  0
LINE
  5
7DE1B343D9E0E2F
330
7DE1B343D9E0E70
100
AcDbEntity
  8
TEXT
100
AcDbLine
 10
5.763459219538718
 20
3.877012410516607
 30
0.0
 11
5.827837403857339
 21
3.877012410516607
 31
0.0
  0
LWPOLYLINE
  5
7DE1B343D9E0E30
330
7DE1B343D9E0E70
100
AcDbEntity
  8
TEXT
100
AcDbPolyline
 90
        2
 70
     0
 43
0.0
 10
5.60355014912816
 20
3.920503355467045
 42
-0.2901071551932486
 10
5.560474216260516
 20
3.877012410516607
 42
-5.328517124445184
  0
ARC
  5
7DE1B343D9E0E34
330
7DE1B343D9E0E70
100
AcDbEntity
  8
TEXT
100
AcDbCircle
 10
5.491619634603601
 20
4.050849373848356
 30
0.0
 40
0.028359375
100
AcDbArc
 50
25.78218179591245
 51
90.0
  0
LINE
  5
7DE1B343D9E0E35
330
7DE1B343D9E0E70
100
AcDbEntity
  8
TEXT
100
AcDbLine
 10
5.527420709907724
 20
4.041933775386221
 30
0.0
 11
5.51715594949416
 21
4.063184314958915
 31
0.0
  0
LINE
  5
7DE1B343D9E0E36
330
7DE1B343D9E0E70
100
AcDbEntity
  8
TEXT
100
AcDbLine
 10
5.445132720124341
 20
4.041933775386221
 30
0.0
 11
5.527420709907724
 21
4.041933775386221
 31
0.0
  0
LWPOLYLINE
  5
7DE1B343D9E0E37
330
7DE1B343D9E0E70
100
AcDbEntity
  8
TEXT
100
AcDbPolyline
 90
        4
 70
     1
 43
0.0
 10
5.540351751190623
 20
3.979976388500632
 10
5.451691432530765
 20
3.979976388500632
 42
0.9999999999999998
 10
5.451691432530765
 20
3.937577847996772
 10
5.540351751190623
 20
3.937577847996772
 42
1.0
  0
LWPOLYLINE
  5
7DE1B343D9E0E3D
330
7DE1B343D9E0E70
100
AcDbEntity
  8
TEXT
100
AcDbPolyline
 90
        2
 70
     0
 43
0.0
 10
5.426456798629139
 20
3.877012410516607
 10
5.560474216260516
 20
3.877012410516607
 42
0.9999999999999998
  0
LINE
  5
7DE1B343D9E0E41
330
7DE1B343D9E0E70
100
AcDbEntity
  8
TEXT
100
AcDbLine
 10
5.686811238246155
 20
4.079208748848353
 30
0.0
 11
5.763459219538713
 21
4.079208748848353
 31
0.0
  0
LINE
  5
7DE1B343D9E0E42
330
7DE1B343D9E0E70
100
AcDbEntity
  8
TEXT
100
AcDbLine
 10
5.763459219538713
 20
4.079208748848353
 30
0.0
 11
5.763459219538718
 21
3.877012410516607
 31
0.0
  0
ARC
  5
7DE1B343D9E0E43
330
7DE1B343D9E0E70
100
AcDbEntity
  8
TEXT
100
AcDbCircle
 10
5.686811238246153
 20
4.05430287356569
 30
0.0
 40
0.0249058752826653
100
AcDbArc
 50
89.99971217465335
 51
179.9999999999985
  0
LINE
  5
7DE1B343D9E0E44
330
7DE1B343D9E0E70
100
AcDbEntity
  8
TEXT
100
AcDbLine
 10
5.661905362963496
 20
3.877012410516607
 30
0.0
 11
5.661905362963491
 21
4.054302915948076
 31
0.0
  0
LWPOLYLINE
  5
7DE1B343D9E0E45
330
7DE1B343D9E0E70
100
AcDbEntity
  8
TEXT
100
AcDbPolyline
 90
        2
 70
     0
 43
0.0
 10
5.60355014912816
 20
3.877012410516607
 10
5.661905362963494
 20
3.877012410516607
  0
LWPOLYLINE
  5
7DE1B343D9E0E49
330
7DE1B343D9E0E70
100
AcDbEntity
  8
TEXT
100
AcDbPolyline
 90
        2
 70
     0
 43
0.0
 10
5.60355014912816
 20
3.920503355467045
 10
5.60355014912816
 20
3.877012410516607
  0
LINE
  5
7DE1B343D9E0E4D
330
7DE1B343D9E0E70
100
AcDbEntity
  8
TEXT
100
AcDbLine
 10
5.980319309445009
 20
3.877012410516607
 30
0.0
 11
5.884827086081399
 21
4.033592200564145
 31
0.0
  0
LINE
  5
7DE1B343D9E0E4E
330
7DE1B343D9E0E70
100
AcDbEntity
  8
TEXT
100
AcDbLine
 10
5.903740937068803
 20
3.877012410516607
 30
0.0
 11
5.980319309445009
 21
3.877012410516607
 31
0.0
  0
LINE
  5
7DE1B343D9E0E4F
330
7DE1B343D9E0E70
100
AcDbEntity
  8
TEXT
100
AcDbLine
 10
5.827837403857339
 20
4.008591978992788
 30
0.0
 11
5.903740937068803
 21
3.877012410516607
 31
0.0
  0
LINE
  5
7DE1B343D9E0E50
330
7DE1B343D9E0E70
100
AcDbEntity
  8
TEXT
100
AcDbLine
 10
5.827837403857339
 20
3.877012410516607
 30
0.0
 11
5.827837403857339
 21
4.008591978992788
 31
0.0
  0
LINE
  5
7DE1B343D9E0E51
330
7DE1B343D9E0E70
100
AcDbEntity
  8
TEXT
100
AcDbLine
 10
5.827294210761492
 20
4.208949649272719
 30
0.0
 11
5.758979332212218
 21
4.208949649272719
 31
0.0
  0
ARC
  5
7DE1B343D9E0E52
330
7DE1B343D9E0E70
100
AcDbEntity
  8
TEXT
100
AcDbCircle
 10
5.518623593171012
 20
4.101901876384216
 30
0.0
 40
0.0416329381542859
100
AcDbArc
 50
26.56974201007528
 51
87.20939649401342
  0
LINE
  5
7DE1B343D9E0E53
330
7DE1B343D9E0E70
100
AcDbEntity
  8
TEXT
100
AcDbLine
 10
5.663507378122623
 20
4.143485443505118
 30
0.0
 11
5.599610471823122
 21
4.143485443505118
 31
0.0
  0
LINE
  5
7DE1B343D9E0E54
330
7DE1B343D9E0E70
100
AcDbEntity
  8
TEXT
100
AcDbLine
 10
5.663507378122623
 20
4.115937793644244
 30
0.0
 11
5.663507378122623
 21
4.143485443505118
 31
0.0
  0
ARC
  5
7DE1B343D9E0E55
330
7DE1B343D9E0E70
100
AcDbEntity
  8
TEXT
100
AcDbCircle
 10
5.694700195185731
 20
4.112239716222854
 30
0.0
 40
0.0314112657011332
100
AcDbArc
 50
95.88484768694724
 51
173.2388340632136
  0
LINE
  5
7DE1B343D9E0E56
330
7DE1B343D9E0E70
100
AcDbEntity
  8
TEXT
100
AcDbLine
 10
5.758979332212213
 20
4.143485443505118
 30
0.0
 11
5.691479614562696
 21
4.143485443505118
 31
0.0
  0
LINE
  5
7DE1B343D9E0E57
330
7DE1B343D9E0E70
100
AcDbEntity
  8
TEXT
100
AcDbLine
 10
5.758979332212218
 20
4.208949649272719
 30
0.0
 11
5.758979332212213
 21
4.143485443505118
 31
0.0
  0
LINE
  5
7DE1B343D9E0E58
330
7DE1B343D9E0E70
100
AcDbEntity
  8
TEXT
100
AcDbLine
 10
5.949384202047104
 20
4.143485443505118
 30
0.0
 11
5.874392369317478
 21
4.143485443505118
 31
0.0
  0
ENDSEC
  0
SECTION
  2
OBJECTS
  0
DICTIONARY
  5
7DE1B343D9E0E64
330
0
100
AcDbDictionary
  3
ACAD_GROUP
350
7DE1B343D9E0E65
  3
ACAD_LAYOUT
350
7DE1B343D9E0E8A
  3
ACAD_MLINESTYLE
350
7DE1B343D9E0E66
  3
ACAD_PLOTSETTINGS
350
7DE1B343D9E0E8B
  3
ACAD_PLOTSTYLENAME
350
7DE1B343D9E0E88
  3
ACDBHEADERROUNDTRIPXREC
350
7DE1B343D9E0E95
  3
ACDBVARIABLEDICTIONARY
350
7DE1B343D9E0E92
  0
DICTIONARY
  5
7DE1B343D9E0EB7
330
7DE1B343D9E0E70
100
AcDbDictionary
280
     1
  3
ACAD_LAYOUTSELFREF
360
7DE1B343D9E0EB8
  0
DICTIONARY
  5
7DE1B343D9E0EB5
330
7DE1B343D9E0E6D
100
AcDbDictionary
280
     1
  3
ACAD_LAYOUTSELFREF
360
7DE1B343D9E0EB6
  0
DICTIONARY
  5
7DE1B343D9E0E65
102
{ACAD_REACTORS
330
7DE1B343D9E0E64
102
}
330
7DE1B343D9E0E64
100
AcDbDictionary
  0
DICTIONARY
  5
7DE1B343D9E0E8A
102
{ACAD_REACTORS
330
7DE1B343D9E0E64
102
}
330
7DE1B343D9E0E64
100
AcDbDictionary
  0
DICTIONARY
  5
7DE1B343D9E0E66
102
{ACAD_REACTORS
330
7DE1B343D9E0E64
102
}
330
7DE1B343D9E0E64
100
AcDbDictionary
  3
STANDARD
350
7DE1B343D9E0E73
  0
DICTIONARY
  5
7DE1B343D9E0E8B
102
{ACAD_REACTORS
330
7DE1B343D9E0E64
102
}
330
7DE1B343D9E0E64
100
AcDbDictionary
  0
ACDBDICTIONARYWDFLT
  5
7DE1B343D9E0E88
102
{ACAD_REACTORS
330
7DE1B343D9E0E64
102
}
330
7DE1B343D9E0E64
100
AcDbDictionary
281
     1
  3
Normal
350
7DE1B343D9E0E89
100
AcDbDictionaryWithDefault
340
7DE1B343D9E0E89
  0
DICTIONARY
  5
7DE1B343D9E0E95
102
{ACAD_REACTORS
330
7DE1B343D9E0E64
102
}
330
7DE1B343D9E0E64
100
AcDbDictionary
  3
CEPSNTYPE
350
7DE1B343D9E0E9F
  3
FINGERPRINTGUID
350
7DE1B343D9E0EA0
  3
HYPERLINKBASE
350
7DE1B343D9E0E98
  3
INSUNITS
350
7DE1B343D9E0E9E
  3
LAYOUTDICT
350
7DE1B343D9E0E9A
  3
LWETCUNION
350
7DE1B343D9E0E9D
  3
PLOTSETDICT
350
7DE1B343D9E0E9B
  3
PLOTSTYLNAMDICT
350
7DE1B343D9E0E9C
  3
PSVPSCALE
350
7DE1B343D9E0EA2
  3
PUCSBASE
350
7DE1B343D9E0EA5
  3
PUCSORGBACK
350
7DE1B343D9E0EAB
  3
PUCSORGBOTTOM
350
7DE1B343D9E0EA7
  3
PUCSORGFRONT
350
7DE1B343D9E0EAA
  3
PUCSORGLEFT
350
7DE1B343D9E0EA8
  3
PUCSORGRIGHT
350
7DE1B343D9E0EA9
  3
PUCSORGTOP
350
7DE1B343D9E0EA6
  3
PUCSORTHOREF
350
7DE1B343D9E0EA3
  3
PUCSORTHOVIEW
350
7DE1B343D9E0EA4
  3
STYLESHEET
350
7DE1B343D9E0E99
  3
TSTACKALIGN
350
7DE1B343D9E0E96
  3
TSTACKSIZE
350
7DE1B343D9E0E97
  3
UCSBASE
350
7DE1B343D9E0EAE
  3
UCSORGBACK
350
7DE1B343D9E0EB4
  3
UCSORGBOTTOM
350
7DE1B343D9E0EB0
  3
UCSORGFRONT
350
7DE1B343D9E0EB3
  3
UCSORGLEFT
350
7DE1B343D9E0EB1
  3
UCSORGRIGHT
350
7DE1B343D9E0EB2
  3
UCSORGTOP
350
7DE1B343D9E0EAF
  3
UCSORTHOREF
350
7DE1B343D9E0EAC
  3
UCSORTHOVIEW
350
7DE1B343D9E0EAD
  3
VERSIONGUID
350
7DE1B343D9E0EA1
  0
DICTIONARY
  5
7DE1B343D9E0E92
102
{ACAD_REACTORS
330
7DE1B343D9E0E64
102
}
330
7DE1B343D9E0E64
100
AcDbDictionary
  3
DIMASSOC
350
7DE1B343D9E0E93
  0
XRECORD
  5
7DE1B343D9E0EB8
102
{ACAD_REACTORS
330
7DE1B343D9E0EB7
102
}
330
7DE1B343D9E0EB7
100
AcDbXrecord
340
7DE1B343D9E0E70
  0
XRECORD
  5
7DE1B343D9E0EB6
102
{ACAD_REACTORS
330
7DE1B343D9E0EB5
102
}
330
7DE1B343D9E0EB5
100
AcDbXrecord
340
7DE1B343D9E0E6D
  0
MLINESTYLE
  5
7DE1B343D9E0E73
102
{ACAD_REACTORS
330
7DE1B343D9E0E66
102
}
330
7DE1B343D9E0E66
100
AcDbMlineStyle
  2
STANDARD
 70
     0
  3

 62
     0
 51
90.0
 52
90.0
 71
     2
 49
0.5
 62
   256
  6
BYLAYER
 49
-0.5
 62
   256
  6
BYLAYER
  0
ACDBPLACEHOLDER
  5
7DE1B343D9E0E89
102
{ACAD_REACTORS
330
7DE1B343D9E0E88
102
}
330
7DE1B343D9E0E88
100
AcDbPlaceHolder
280
     0
  0
XRECORD
  5
7DE1B343D9E0E9F
102
{ACAD_REACTORS
330
7DE1B343D9E0E95
102
}
330
7DE1B343D9E0E95
100
AcDbXrecord
 90
        0
  0
XRECORD
  5
7DE1B343D9E0EA0
102
{ACAD_REACTORS
330
7DE1B343D9E0E95
102
}
330
7DE1B343D9E0E95
100
AcDbXrecord
  1
{22396180-8DB6-11D6-88E6-0090279574E7}
  0
XRECORD
  5
7DE1B343D9E0E98
102
{ACAD_REACTORS
330
7DE1B343D9E0E95
102
}
330
7DE1B343D9E0E95
100
AcDbXrecord
  1

  0
XRECORD
  5
7DE1B343D9E0E9E
102
{ACAD_REACTORS
330
7DE1B343D9E0E95
102
}
330
7DE1B343D9E0E95
100
AcDbXrecord
 90
        0
  0
XRECORD
  5
7DE1B343D9E0E9A
102
{ACAD_REACTORS
330
7DE1B343D9E0E95
102
}
330
7DE1B343D9E0E95
100
AcDbXrecord
340
7DE1B343D9E0E8A
  0
XRECORD
  5
7DE1B343D9E0E9D
102
{ACAD_REACTORS
330
7DE1B343D9E0E95
102
}
330
7DE1B343D9E0E95
100
AcDbXrecord
 90
    14877
  0
XRECORD
  5
7DE1B343D9E0E9B
102
{ACAD_REACTORS
330
7DE1B343D9E0E95
102
}
330
7DE1B343D9E0E95
100
AcDbXrecord
340
7DE1B343D9E0E8B
  0
XRECORD
  5
7DE1B343D9E0E9C
102
{ACAD_REACTORS
330
7DE1B343D9E0E95
102
}
330
7DE1B343D9E0E95
100
AcDbXrecord
340
7DE1B343D9E0E88
  0
XRECORD
  5
7DE1B343D9E0EA2
102
{ACAD_REACTORS
330
7DE1B343D9E0E95
102
}
330
7DE1B343D9E0E95
100
AcDbXrecord
 40
0.0
  0
XRECORD
  5
7DE1B343D9E0EA5
102
{ACAD_REACTORS
330
7DE1B343D9E0E95
102
}
330
7DE1B343D9E0E95
100
AcDbXrecord
340
0
  0
XRECORD
  5
7DE1B343D9E0EAB
102
{ACAD_REACTORS
330
7DE1B343D9E0E95
102
}
330
7DE1B343D9E0E95
100
AcDbXrecord
 10
0.0
 20
0.0
 30
0.0
  0
XRECORD
  5
7DE1B343D9E0EA7
102
{ACAD_REACTORS
330
7DE1B343D9E0E95
102
}
330
7DE1B343D9E0E95
100
AcDbXrecord
 10
0.0
 20
0.0
 30
0.0
  0
XRECORD
  5
7DE1B343D9E0EAA
102
{ACAD_REACTORS
330
7DE1B343D9E0E95
102
}
330
7DE1B343D9E0E95
100
AcDbXrecord
 10
0.0
 20
0.0
 30
0.0
  0
XRECORD
  5
7DE1B343D9E0EA8
102
{ACAD_REACTORS
330
7DE1B343D9E0E95
102
}
330
7DE1B343D9E0E95
100
AcDbXrecord
 10
0.0
 20
0.0
 30
0.0
  0
XRECORD
  5
7DE1B343D9E0EA9
102
{ACAD_REACTORS
330
7DE1B343D9E0E95
102
}
330
7DE1B343D9E0E95
100
AcDbXrecord
 10
0.0
 20
0.0
 30
0.0
  0
XRECORD
  5
7DE1B343D9E0EA6
102
{ACAD_REACTORS
330
7DE1B343D9E0E95
102
}
330
7DE1B343D9E0E95
100
AcDbXrecord
 10
0.0
 20
0.0
 30
0.0
  0
XRECORD
  5
7DE1B343D9E0EA3
102
{ACAD_REACTORS
330
7DE1B343D9E0E95
102
}
330
7DE1B343D9E0E95
100
AcDbXrecord
340
0
  0
XRECORD
  5
7DE1B343D9E0EA4
102
{ACAD_REACTORS
330
7DE1B343D9E0E95
102
}
330
7DE1B343D9E0E95
100
AcDbXrecord
 70
     0
  0
XRECORD
  5
7DE1B343D9E0E99
102
{ACAD_REACTORS
330
7DE1B343D9E0E95
102
}
330
7DE1B343D9E0E95
100
AcDbXrecord
  1

  0
XRECORD
  5
7DE1B343D9E0E96
102
{ACAD_REACTORS
330
7DE1B343D9E0E95
102
}
330
7DE1B343D9E0E95
100
AcDbXrecord
 90
        1
  0
XRECORD
  5
7DE1B343D9E0E97
102
{ACAD_REACTORS
330
7DE1B343D9E0E95
102
}
330
7DE1B343D9E0E95
100
AcDbXrecord
 90
       70
  0
XRECORD
  5
7DE1B343D9E0EAE
102
{ACAD_REACTORS
330
7DE1B343D9E0E95
102
}
330
7DE1B343D9E0E95
100
AcDbXrecord
340
0
  0
XRECORD
  5
7DE1B343D9E0EB4
102
{ACAD_REACTORS
330
7DE1B343D9E0E95
102
}
330
7DE1B343D9E0E95
100
AcDbXrecord
 10
0.0
 20
0.0
 30
0.0
  0
XRECORD
  5
7DE1B343D9E0EB0
102
{ACAD_REACTORS
330
7DE1B343D9E0E95
102
}
330
7DE1B343D9E0E95
100
AcDbXrecord
 10
0.0
 20
0.0
 30
0.0
  0
XRECORD
  5
7DE1B343D9E0EB3
102
{ACAD_REACTORS
330
7DE1B343D9E0E95
102
}
330
7DE1B343D9E0E95
100
AcDbXrecord
 10
0.0
 20
0.0
 30
0.0
  0
XRECORD
  5
7DE1B343D9E0EB1
102
{ACAD_REACTORS
330
7DE1B343D9E0E95
102
}
330
7DE1B343D9E0E95
100
AcDbXrecord
 10
0.0
 20
0.0
 30
0.0
  0
XRECORD
  5
7DE1B343D9E0EB2
102
{ACAD_REACTORS
330
7DE1B343D9E0E95
102
}
330
7DE1B343D9E0E95
100
AcDbXrecord
 10
0.0
 20
0.0
 30
0.0
  0
XRECORD
  5
7DE1B343D9E0EAF
102
{ACAD_REACTORS
330
7DE1B343D9E0E95
102
}
330
7DE1B343D9E0E95
100
AcDbXrecord
 10
0.0
 20
0.0
 30
0.0
  0
XRECORD
  5
7DE1B343D9E0EAC
102
{ACAD_REACTORS
330
7DE1B343D9E0E95
102
}
330
7DE1B343D9E0E95
100
AcDbXrecord
340
0
  0
XRECORD
  5
7DE1B343D9E0EAD
102
{ACAD_REACTORS
330
7DE1B343D9E0E95
102
}
330
7DE1B343D9E0E95
100
AcDbXrecord
 70
     0
  0
XRECORD
  5
7DE1B343D9E0EA1
102
{ACAD_REACTORS
330
7DE1B343D9E0E95
102
}
330
7DE1B343D9E0E95
100
AcDbXrecord
  1
{22396182-8DB6-11D6-88E6-0090279574E7}
  0
DICTIONARYVAR
  5
7DE1B343D9E0E93
102
{ACAD_REACTORS
330
7DE1B343D9E0E92
102
}
330
7DE1B343D9E0E92
100
DictionaryVariables
280
     0
  1
1
  0
ENDSEC
  0
EOF
