  0
SECTION
  2
HEADER
  9
$ACADVER
  1
AC1014
  9
$ACADMAINTVER
 70
     9
  9
$DWGCODEPAGE
  3
ANSI_1252
  9
$INSBASE
 10
5.515008687732811
 20
5.244738905290808
 30
0.0
  9
$EXTMIN
 10
3.765021464929185
 20
4.314980220652252
 30
0.0
  9
$EXTMAX
 10
7.25024078667632
 20
5.602901413379363
 30
0.0
  9
$LIMMIN
 10
0.0
 20
0.0
  9
$LIMMAX
 10
18.0
 20
12.0
  9
$ORTHOMODE
 70
     1
  9
$REGENMODE
 70
     1
  9
$FILLMODE
 70
     1
  9
$QTEXTMODE
 70
     0
  9
$MIRRTEXT
 70
     0
  9
$DRAGMODE
 70
     2
  9
$LTSCALE
 40
1.0
  9
$OSMODE
 70
    39
  9
$ATTMODE
 70
     1
  9
$TEXTSIZE
 40
0.125
  9
$TRACEWID
 40
0.05
  9
$TEXTSTYLE
  7
ROMANS
  9
$CLAYER
  8
0
  9
$CELTYPE
  6
BYLAYER
  9
$CECOLOR
 62
   256
  9
$CELTSCALE
 40
1.0
  9
$DELOBJ
 70
     1
  9
$DISPSILH
 70
     1
  9
$DIMSCALE
 40
1.0
  9
$DIMASZ
 40
0.125
  9
$DIMEXO
 40
0.125
  9
$DIMDLI
 40
0.375
  9
$DIMRND
 40
0.0
  9
$DIMDLE
 40
0.0
  9
$DIMEXE
 40
0.125
  9
$DIMTP
 40
0.0
  9
$DIMTM
 40
0.0
  9
$DIMTXT
 40
0.125
  9
$DIMCEN
 40
-0.125
  9
$DIMTSZ
 40
0.0
  9
$DIMTOL
 70
     0
  9
$DIMLIM
 70
     0
  9
$DIMTIH
 70
     1
  9
$DIMTOH
 70
     1
  9
$DIMSE1
 70
     0
  9
$DIMSE2
 70
     0
  9
$DIMTAD
 70
     0
  9
$DIMZIN
 70
     4
  9
$DIMBLK
  1

  9
$DIMASO
 70
     1
  9
$DIMSHO
 70
     1
  9
$DIMPOST
  1

  9
$DIMAPOST
  1

  9
$DIMALT
 70
     0
  9
$DIMALTD
 70
     2
  9
$DIMALTF
 40
25.4
  9
$DIMLFAC
 40
1.0
  9
$DIMTOFL
 70
     0
  9
$DIMTVP
 40
0.0
  9
$DIMTIX
 70
     1
  9
$DIMSOXD
 70
     0
  9
$DIMSAH
 70
     0
  9
$DIMBLK1
  1

  9
$DIMBLK2
  1

  9
$DIMSTYLE
  2
STANDARD
  9
$DIMCLRD
 70
     0
  9
$DIMCLRE
 70
     0
  9
$DIMCLRT
 70
     0
  9
$DIMTFAC
 40
1.0
  9
$DIMGAP
 40
0.09
  9
$DIMJUST
 70
     0
  9
$DIMSD1
 70
     0
  9
$DIMSD2
 70
     0
  9
$DIMTOLJ
 70
     1
  9
$DIMTZIN
 70
     4
  9
$DIMALTZ
 70
     0
  9
$DIMALTTZ
 70
     0
  9
$DIMFIT
 70
     3
  9
$DIMUPT
 70
     0
  9
$DIMUNIT
 70
     2
  9
$DIMDEC
 70
     3
  9
$DIMTDEC
 70
     3
  9
$DIMALTU
 70
     2
  9
$DIMALTTD
 70
     2
  9
$DIMTXSTY
  7
ROMANS
  9
$DIMAUNIT
 70
     0
  9
$LUNITS
 70
     2
  9
$LUPREC
 70
     3
  9
$SKETCHINC
 40
0.1
  9
$FILLETRAD
 40
0.03125
  9
$AUNITS
 70
     0
  9
$AUPREC
 70
     0
  9
$MENU
  1
ACAD
  9
$ELEVATION
 40
0.0
  9
$PELEVATION
 40
0.0
  9
$THICKNESS
 40
0.0
  9
$LIMCHECK
 70
     0
  9
$BLIPMODE
 70
     0
  9
$CHAMFERA
 40
0.0
  9
$CHAMFERB
 40
0.0
  9
$CHAMFERC
 40
0.0
  9
$CHAMFERD
 40
0.0
  9
$SKPOLY
 70
     0
  9
$TDCREATE
 40
2448994.563791667
  9
$TDUPDATE
 40
2452458.306012338
  9
$TDINDWG
 40
0.0007530787
  9
$TDUSRTIMER
 40
0.0007530787
  9
$USRTIMER
 70
     1
  9
$ANGBASE
 50
0.0
  9
$ANGDIR
 70
     0
  9
$PDMODE
 70
     0
  9
$PDSIZE
 40
0.0
  9
$PLINEWID
 40
0.0
  9
$COORDS
 70
     2
  9
$SPLFRAME
 70
     0
  9
$SPLINETYPE
 70
     6
  9
$SPLINESEGS
 70
     8
  9
$ATTDIA
 70
     0
  9
$ATTREQ
 70
     1
  9
$HANDLING
 70
 22529
  9
$HANDSEED
  5
7DE1B343D9E0BA5
  9
$SURFTAB1
 70
     6
  9
$SURFTAB2
 70
     6
  9
$SURFTYPE
 70
     6
  9
$SURFU
 70
     6
  9
$SURFV
 70
     6
  9
$UCSNAME
  2

  9
$UCSORG
 10
0.0
 20
0.0
 30
0.0
  9
$UCSXDIR
 10
1.0
 20
0.0
 30
0.0
  9
$UCSYDIR
 10
0.0
 20
1.0
 30
0.0
  9
$PUCSNAME
  2

  9
$PUCSORG
 10
0.0
 20
0.0
 30
0.0
  9
$PUCSXDIR
 10
1.0
 20
0.0
 30
0.0
  9
$PUCSYDIR
 10
0.0
 20
1.0
 30
0.0
  9
$USERI1
 70
     0
  9
$USERI2
 70
     0
  9
$USERI3
 70
     0
  9
$USERI4
 70
     0
  9
$USERI5
 70
     0
  9
$USERR1
 40
0.0
  9
$USERR2
 40
0.0
  9
$USERR3
 40
0.0
  9
$USERR4
 40
0.0
  9
$USERR5
 40
0.0
  9
$WORLDVIEW
 70
     1
  9
$SHADEDGE
 70
     3
  9
$SHADEDIF
 70
    70
  9
$TILEMODE
 70
     1
  9
$MAXACTVP
 70
    16
  9
$PINSBASE
 10
0.0
 20
0.0
 30
0.0
  9
$PLIMCHECK
 70
     0
  9
$PEXTMIN
 10
1.000000000000000E+20
 20
1.000000000000000E+20
 30
1.000000000000000E+20
  9
$PEXTMAX
 10
-1.000000000000000E+20
 20
-1.000000000000000E+20
 30
-1.000000000000000E+20
  9
$PLIMMIN
 10
0.0
 20
0.0
  9
$PLIMMAX
 10
12.0
 20
9.0
  9
$UNITMODE
 70
     0
  9
$VISRETAIN
 70
     0
  9
$PLINEGEN
 70
     1
  9
$PSLTSCALE
 70
     0
  9
$TREEDEPTH
 70
  3020
  9
$PICKSTYLE
 70
     1
  9
$CMLSTYLE
  2
STANDARD
  9
$CMLJUST
 70
     0
  9
$CMLSCALE
 40
1.0
  9
$PROXYGRAPHICS
 70
     1
  9
$MEASUREMENT
 70
     0
  0
ENDSEC
  0
SECTION
  2
CLASSES
  0
CLASS
  1
LWPOLYLINE
  2
AcDbPolyline
  3
AutoCAD 2000
 90
        0
280
     0
281
     1
  0
CLASS
  1
ACDBDICTIONARYWDFLT
  2
AcDbDictionaryWithDefault
  3
AutoCAD 2000
 90
        0
280
     0
281
     0
  0
CLASS
  1
ACDBPLACEHOLDER
  2
AcDbPlaceHolder
  3
AutoCAD 2000
 90
        0
280
     0
281
     0
  0
CLASS
  1
LAYOUT
  2
AcDbLayout
  3
AutoCAD 2000
 90
        0
280
     0
281
     0
  0
CLASS
  1
DICTIONARYVAR
  2
AcDbDictionaryVar
  3
AutoCAD 2000
 90
        0
280
     0
281
     0
  0
CLASS
  1
LONG_TRANSACTION
  2
AcDbLongTransaction
  3
AutoCAD 2000
 90
        0
280
     0
281
     0
  0
CLASS
  1
LWPOLYLINE
  2
AcDbPolyline
  3
AutoCAD 2000
 90
        0
280
     0
281
     1
  0
CLASS
  1
HATCH
  2
AcDbHatch
  3
AutoCAD 2000
 90
        0
280
     0
281
     1
  0
CLASS
  1
XRECORD
  2
AcDbXrecord
  3
AutoCAD 2000
 90
        0
280
     0
281
     0
  0
ENDSEC
  0
SECTION
  2
TABLES
  0
TABLE
  2
VPORT
  5
7DE1B343D9E0B31
330
0
100
AcDbSymbolTable
 70
     2
  0
VPORT
  5
7DE1B343D9E0B80
330
7DE1B343D9E0B31
100
AcDbSymbolTableRecord
100
AcDbViewportTableRecord
  2
*ACTIVE
 70
     0
 10
0.0
 20
0.0
 11
1.0
 21
1.0
 12
8.482885026685842
 22
4.959045436884096
 13
0.0
 23
0.0
 14
0.015625
 24
0.015625
 15
0.0
 25
0.0
 16
0.0
 26
0.0
 36
1.0
 17
0.0
 27
0.0
 37
0.0
 40
2.281748181188984
 41
4.320930232558139
 42
50.0
 43
0.0
 44
0.0
 50
0.0
 51
0.0
 71
     0
 72
  2000
 73
     1
 74
     0
 75
     0
 76
     0
 77
     0
 78
     0
  0
ENDTAB
  0
TABLE
  2
LTYPE
  5
7DE1B343D9E0B2E
330
0
100
AcDbSymbolTable
 70
     1
  0
LTYPE
  5
7DE1B343D9E0B3B
330
7DE1B343D9E0B2E
100
AcDbSymbolTableRecord
100
AcDbLinetypeTableRecord
  2
BYBLOCK
 70
     0
  3

 72
    65
 73
     0
 40
0.0
  0
LTYPE
  5
7DE1B343D9E0B3C
330
7DE1B343D9E0B2E
100
AcDbSymbolTableRecord
100
AcDbLinetypeTableRecord
  2
BYLAYER
 70
     0
  3

 72
    65
 73
     0
 40
0.0
  0
LTYPE
  5
7DE1B343D9E0B3D
330
7DE1B343D9E0B2E
100
AcDbSymbolTableRecord
100
AcDbLinetypeTableRecord
  2
CONTINUOUS
 70
     0
  3
Solid line
 72
    65
 73
     0
 40
0.0
  0
ENDTAB
  0
TABLE
  2
LAYER
  5
7DE1B343D9E0B2B
330
0
100
AcDbSymbolTable
 70
     3
  0
LAYER
  5
7DE1B343D9E0B38
330
7DE1B343D9E0B2B
100
AcDbSymbolTableRecord
100
AcDbLayerTableRecord
  2
0
 70
     0
 62
     7
  6
CONTINUOUS
  0
LAYER
  5
7DE1B343D9E0B48
330
7DE1B343D9E0B2B
100
AcDbSymbolTableRecord
100
AcDbLayerTableRecord
  2
TEXT
 70
     0
 62
     3
  6
CONTINUOUS
  0
LAYER
  5
7DE1B343D9E0B58
330
7DE1B343D9E0B2B
100
AcDbSymbolTableRecord
100
AcDbLayerTableRecord
  2
ASHADE
 70
     4
 62
     7
  6
CONTINUOUS
  0
ENDTAB
  0
TABLE
  2
STYLE
  5
7DE1B343D9E0B2C
330
0
100
AcDbSymbolTable
 70
     4
  0
STYLE
  5
7DE1B343D9E0B39
330
7DE1B343D9E0B2C
100
AcDbSymbolTableRecord
100
AcDbTextStyleTableRecord
  2
STANDARD
 70
     0
 40
0.0
 41
1.0
 50
0.0
 71
     0
 42
0.3125
  3
txt
  4

  0
STYLE
  5
7DE1B343D9E0B45
330
7DE1B343D9E0B2C
100
AcDbSymbolTableRecord
100
AcDbTextStyleTableRecord
  2
ITALICC
 70
     0
 40
0.0
 41
1.0
 50
0.0
 71
     0
 42
0.125
  3
italicc
  4

  0
STYLE
  5
7DE1B343D9E0B55
330
7DE1B343D9E0B2C
100
AcDbSymbolTableRecord
100
AcDbTextStyleTableRecord
  2
ASHADE
 70
     0
 40
0.2
 41
1.0
 50
0.0
 71
     0
 42
0.3125
  3
simplex
  4

  0
STYLE
  5
7DE1B343D9E0B70
330
7DE1B343D9E0B2C
100
AcDbSymbolTableRecord
100
AcDbTextStyleTableRecord
  2
ROMANS
 70
     0
 40
0.0
 41
1.0
 50
0.0
 71
     0
 42
0.125
  3
romans.shx
  4

  0
ENDTAB
  0
TABLE
  2
VIEW
  5
7DE1B343D9E0B2F
330
0
100
AcDbSymbolTable
 70
     0
  0
ENDTAB
  0
TABLE
  2
UCS
  5
7DE1B343D9E0B30
330
0
100
AcDbSymbolTable
 70
     0
  0
ENDTAB
  0
TABLE
  2
APPID
  5
7DE1B343D9E0B32
330
0
100
AcDbSymbolTable
 70
     6
  0
APPID
  5
7DE1B343D9E0B3A
330
7DE1B343D9E0B32
100
AcDbSymbolTableRecord
100
AcDbRegAppTableRecord
  2
ACAD
 70
     0
  0
APPID
  5
7DE1B343D9E0B56
330
7DE1B343D9E0B32
100
AcDbSymbolTableRecord
100
AcDbRegAppTableRecord
  2
AVE_RENDER
 70
     0
  0
APPID
  5
7DE1B343D9E0B57
330
7DE1B343D9E0B32
100
AcDbSymbolTableRecord
100
AcDbRegAppTableRecord
  2
AVE_ENTITY_MATERIAL
 70
     0
  0
APPID
  5
7DE1B343D9E0B64
330
7DE1B343D9E0B32
100
AcDbSymbolTableRecord
100
AcDbRegAppTableRecord
  2
AVE_FINISH
 70
     0
  0
APPID
  5
7DE1B343D9E0B65
330
7DE1B343D9E0B32
100
AcDbSymbolTableRecord
100
AcDbRegAppTableRecord
  2
AVE_MATERIAL
 70
     0
  0
APPID
  5
7DE1B343D9E0B66
330
7DE1B343D9E0B32
100
AcDbSymbolTableRecord
100
AcDbRegAppTableRecord
  2
AVE_GLOBAL
 70
     0
  0
ENDTAB
  0
TABLE
  2
DIMSTYLE
  5
7DE1B343D9E0B33
330
0
100
AcDbSymbolTable
 70
     1
  0
DIMSTYLE
105
7DE1B343D9E0B4D
330
7DE1B343D9E0B33
100
AcDbSymbolTableRecord
100
AcDbDimStyleTableRecord
  2
STANDARD
 70
     0
  3

  4

  5

  6

  7

 40
1.0
 41
0.125
 42
0.125
 43
0.375
 44
0.125
 45
0.0
 46
0.0
 47
0.0
 48
0.0
140
0.125
141
-0.125
142
0.0
143
25.4
144
1.0
145
0.0
146
1.0
147
0.09
 71
     0
 72
     0
 73
     1
 74
     1
 75
     0
 76
     0
 77
     0
 78
     4
170
     0
171
     2
172
     0
173
     0
174
     1
175
     0
176
     0
177
     0
178
     0
270
     2
271
     3
272
     3
273
     2
274
     2
340
7DE1B343D9E0B70
275
     0
280
     0
281
     0
282
     0
283
     1
284
     4
285
     0
286
     0
287
     3
288
     0
  0
ENDTAB
  0
TABLE
  2
BLOCK_RECORD
  5
7DE1B343D9E0B2A
330
0
100
AcDbSymbolTable
 70
     2
  0
BLOCK_RECORD
  5
7DE1B343D9E0B41
102
{ACAD_XDICTIONARY
360
7DE1B343D9E0BA3
102
}
330
7DE1B343D9E0B2A
100
AcDbSymbolTableRecord
100
AcDbBlockTableRecord
  2
*MODEL_SPACE
  0
BLOCK_RECORD
  5
7DE1B343D9E0B3E
102
{ACAD_XDICTIONARY
360
7DE1B343D9E0BA1
102
}
330
7DE1B343D9E0B2A
100
AcDbSymbolTableRecord
100
AcDbBlockTableRecord
  2
*PAPER_SPACE
  0
BLOCK_RECORD
  5
7DE1B343D9E0B59
330
7DE1B343D9E0B2A
100
AcDbSymbolTableRecord
100
AcDbBlockTableRecord
  2
AVE_RENDER
  0
BLOCK_RECORD
  5
7DE1B343D9E0B67
330
7DE1B343D9E0B2A
100
AcDbSymbolTableRecord
100
AcDbBlockTableRecord
  2
AVE_GLOBAL
  0
ENDTAB
  0
ENDSEC
  0
SECTION
  2
BLOCKS
  0
BLOCK
  5
7DE1B343D9E0B4B
330
7DE1B343D9E0B41
100
AcDbEntity
  8
0
100
AcDbBlockBegin
  2
*MODEL_SPACE
 70
     0
 10
0.0
 20
0.0
 30
0.0
  3
*MODEL_SPACE
  1

  0
ENDBLK
  5
7DE1B343D9E0B4C
330
7DE1B343D9E0B41
100
AcDbEntity
  8
0
100
AcDbBlockEnd
  0
BLOCK
  5
7DE1B343D9E0B49
330
7DE1B343D9E0B3E
100
AcDbEntity
 67
     1
  8
0
100
AcDbBlockBegin
  2
*PAPER_SPACE
 70
     0
 10
0.0
 20
0.0
 30
0.0
  3
*PAPER_SPACE
  1

  0
ENDBLK
  5
7DE1B343D9E0B4A
330
7DE1B343D9E0B3E
100
AcDbEntity
 67
     1
  8
0
100
AcDbBlockEnd
  0
BLOCK
  5
7DE1B343D9E0B5A
330
7DE1B343D9E0B59
100
AcDbEntity
  8
0
100
AcDbBlockBegin
  2
AVE_RENDER
 70
     0
 10
0.0
 20
0.0
 30
0.0
  3
AVE_RENDER
  1
AVE_RENDER
  0
ENDBLK
  5
7DE1B343D9E0B5B
330
7DE1B343D9E0B59
100
AcDbEntity
  8
0
100
AcDbBlockEnd
  0
BLOCK
  5
7DE1B343D9E0B68
330
7DE1B343D9E0B67
100
AcDbEntity
  8
0
100
AcDbBlockBegin
  2
AVE_GLOBAL
 70
     0
 10
0.0
 20
0.0
 30
0.0
  3
AVE_GLOBAL
  1
AVE_GLOBAL
  0
ENDBLK
  5
7DE1B343D9E0B69
330
7DE1B343D9E0B67
100
AcDbEntity
  8
0
100
AcDbBlockEnd
  0
ENDSEC
  0
SECTION
  2
ENTITIES
  0
LWPOLYLINE
  5
7DE1B343D9DF5A8
330
7DE1B343D9E0B41
100
AcDbEntity
  8
0
100
AcDbPolyline
 90
       28
 70
     1
 43
0.0
 10
6.133003044156328
 20
5.158929326467283
 10
6.133003044156328
 20
5.533929326467283
 10
6.570503044156328
 20
5.533929326467283
 10
6.570503044156328
 20
5.158929326467283
 10
6.383003044156328
 20
5.158929326467283
 10
6.383003044156328
 20
5.096429326467283
 10
6.633003044156328
 20
5.096429326467283
 10
6.633003044156328
 20
5.565179326467283
 42
0.4142135623730951
 10
6.601753044156328
 20
5.596429326467283
 10
4.414253044156328
 20
5.596429326467283
 42
0.4142135623730951
 10
4.383003044156328
 20
5.565179326467283
 10
4.383003044156328
 20
5.096429326467283
 10
4.633003044156328
 20
5.096429326467283
 10
4.633003044156328
 20
5.158929326467283
 10
4.445503044156328
 20
5.158929326467283
 10
4.445503044156328
 20
5.533929326467283
 10
4.883003044156328
 20
5.533929326467283
 10
4.883003044156328
 20
5.158929326467283
 10
4.953876456419801
 20
5.158929326467283
 42
0.2679491924311233
 10
4.980939750288065
 20
5.174554326467283
 10
5.008003044156328
 20
5.221429326467283
 10
4.945503044156328
 20
5.221429326467283
 10
4.945503044156328
 20
5.533929326467283
 10
6.070503044156328
 20
5.533929326467283
 10
6.070503044156328
 20
5.221429326467283
 10
6.008003044156328
 20
5.221429326467283
 10
6.035066338024591
 20
5.174554326467283
 42
0.2679491924311231
 10
6.062129631892855
 20
5.158929326467283
  0
TEXT
  5
7DE1B343D9E09EC
330
7DE1B343D9E0B41
100
AcDbEntity
  8
TEXT
100
AcDbText
 10
4.755026853680138
 20
4.772998824734832
 30
0.0
 40
0.125
  1
PART #110304
  7
ITALICC
 72
     1
 11
5.508003044156328
 21
4.772998824734832
 31
0.0
100
AcDbText
  0
TEXT
  5
7DE1B343D9E09ED
330
7DE1B343D9E0B41
100
AcDbEntity
  8
TEXT
100
AcDbText
 10
5.921308202406649
 20
4.326076182062458
 30
0.0
 40
0.0522247191011236
  1
Phone  1-800-328-2495
 41
1.272321428571429
 72
     5
 11
7.250240786676313
 21
4.326076182062458
 31
0.0
100
AcDbText
  0
TEXT
  5
7DE1B343D9E09EE
330
7DE1B343D9E0B41
100
AcDbEntity
  8
TEXT
100
AcDbText
 10
5.921308202406649
 20
4.605851462961334
 30
0.0
 40
0.0522247191011236
  1
Stylmark  Incorporated
 41
1.221428571428573
 72
     5
 11
7.250240786676313
 21
4.605851462961334
 31
0.0
100
AcDbText
  0
TEXT
  5
7DE1B343D9E09EF
330
7DE1B343D9E0B41
100
AcDbEntity
  8
TEXT
100
AcDbText
 10
5.921308202406649
 20
4.512593035995042
 30
0.0
 40
0.0522247191011236
  1
6536 Main St. N.E. * P.O. Box 32008
 41
0.8388932496075366
 72
     5
 11
7.250240786676313
 21
4.512593035995042
 31
0.0
100
AcDbText
  0
TEXT
  5
7DE1B343D9E09F0
330
7DE1B343D9E0B41
100
AcDbEntity
  8
TEXT
100
AcDbText
 10
5.921308202406649
 20
4.41933460902875
 30
0.0
 40
0.0522247191011236
  1
Minneapolis, MN 55432-0008
 41
1.11444212721585
 72
     5
 11
7.250240786676313
 21
4.41933460902875
 31
0.0
100
AcDbText
  0
LWPOLYLINE
  5
7DE1B343D9E09F1
330
7DE1B343D9E0B41
100
AcDbEntity
  8
TEXT
100
AcDbPolyline
 90
        3
 70
     0
 43
0.0006660908203125
 10
3.765354510339341
 20
4.439720944699892
 10
3.765354510339341
 20
4.326485505246765
 10
3.878589949792464
 20
4.326485505246765
  0
LWPOLYLINE
  5
7DE1B343D9E09F6
330
7DE1B343D9E0B41
100
AcDbEntity
  8
TEXT
100
AcDbPolyline
 90
        3
 70
     0
 43
0.0006660908203125
 10
3.791998143151839
 20
4.439720944699892
 10
3.791998143151839
 20
4.353129138059266
 10
3.878589949792464
 20
4.353129138059266
  0
LWPOLYLINE
  5
7DE1B343D9E09FB
330
7DE1B343D9E0B41
100
AcDbEntity
  8
TEXT
100
AcDbPolyline
 90
        2
 70
     0
 43
0.0001332181640625
 10
3.838624500573716
 20
4.449712307004578
 10
3.765354510339341
 20
4.439720944699892
  0
LWPOLYLINE
  5
7DE1B343D9E09FF
330
7DE1B343D9E0B41
100
AcDbEntity
  8
TEXT
100
AcDbPolyline
 90
        2
 70
     0
 43
0.0001332181640625
 10
3.791998143151839
 20
4.439720944699892
 10
3.851946316979966
 20
4.449712307004578
  0
LWPOLYLINE
  5
7DE1B343D9E0A03
330
7DE1B343D9E0B41
100
AcDbEntity
  8
TEXT
100
AcDbPolyline
 90
        2
 70
     0
 43
0.0001332181640625
 10
3.791998143151839
 20
4.353129138059266
 10
3.851946316979966
 20
4.413077311887391
  0
LWPOLYLINE
  5
7DE1B343D9E0A07
330
7DE1B343D9E0B41
100
AcDbEntity
  8
TEXT
100
AcDbPolyline
 90
        3
 70
     0
 43
0.0006660908203125
 10
3.878589949792464
 20
4.592921833371768
 10
3.765354510339341
 20
4.592921833371768
 10
3.765354510339341
 20
4.47968639391864
  0
LWPOLYLINE
  5
7DE1B343D9E0A0C
330
7DE1B343D9E0B41
100
AcDbEntity
  8
TEXT
100
AcDbPolyline
 90
        3
 70
     0
 43
0.0006660908203125
 10
3.878589949792464
 20
4.566278200559267
 10
3.791998143151839
 20
4.566278200559267
 10
3.791998143151839
 20
4.47968639391864
  0
LWPOLYLINE
  5
7DE1B343D9E0A11
330
7DE1B343D9E0B41
100
AcDbEntity
  8
TEXT
100
AcDbPolyline
 90
        2
 70
     0
 43
0.0001332181640625
 10
3.791998143151839
 20
4.566278200559267
 10
3.851946316979964
 20
4.506330026731141
  0
LWPOLYLINE
  5
7DE1B343D9E0A15
330
7DE1B343D9E0B41
100
AcDbEntity
  8
TEXT
100
AcDbPolyline
 90
        2
 70
     0
 43
0.0001332181640625
 10
3.791998143151839
 20
4.47968639391864
 10
3.851946316979964
 20
4.469695031613952
  0
LWPOLYLINE
  5
7DE1B343D9E0A19
330
7DE1B343D9E0B41
100
AcDbEntity
  8
TEXT
100
AcDbPolyline
 90
        2
 70
     0
 43
0.0001332181640625
 10
3.765354510339341
 20
4.47968639391864
 10
3.838624500573716
 20
4.469695031613952
  0
LWPOLYLINE
  5
7DE1B343D9E0A1D
330
7DE1B343D9E0B41
100
AcDbEntity
  8
TEXT
100
AcDbPolyline
 90
        2
 70
     0
 43
0.0006660908203125
 10
3.791998143151839
 20
4.439720944699892
 10
3.765354510339341
 20
4.439720944699892
  0
LWPOLYLINE
  5
7DE1B343D9E0A21
330
7DE1B343D9E0B41
100
AcDbEntity
  8
TEXT
100
AcDbPolyline
 90
        2
 70
     0
 43
0.0006660908203125
 10
3.791998143151839
 20
4.47968639391864
 10
3.765354510339341
 20
4.47968639391864
  0
LINE
  5
7DE1B343D9E0A25
330
7DE1B343D9E0B41
100
AcDbEntity
  8
TEXT
100
AcDbLine
 10
5.280544939465839
 20
4.528645138714999
 30
0.0
 11
5.173338666078549
 21
4.528645138714999
 31
0.0
  0
LINE
  5
7DE1B343D9E0A26
330
7DE1B343D9E0B41
100
AcDbEntity
  8
TEXT
100
AcDbLine
 10
5.309575837810317
 20
4.592921833371764
 30
0.0
 11
5.174743928593258
 21
4.592921833371764
 31
0.0
  0
ARC
  5
7DE1B343D9E0A27
330
7DE1B343D9E0B41
100
AcDbEntity
  8
TEXT
100
AcDbCircle
 10
5.234058024986575
 20
4.423684584108748
 30
0.0
 40
0.0676855811441166
100
AcDbArc
 50
90.0
 51
153.7768192527749
  0
LWPOLYLINE
  5
7DE1B343D9E0A28
330
7DE1B343D9E0B41
100
AcDbEntity
  8
TEXT
100
AcDbPolyline
 90
        2
 70
     0
 43
0.0
 10
5.172306170623739
 20
4.369939745333692
 42
0.2901071551932823
 10
5.215382103491375
 20
4.326448800383253
 42
5.328517124445801
  0
ARC
  5
7DE1B343D9E0A2C
330
7DE1B343D9E0B41
100
AcDbEntity
  8
TEXT
100
AcDbCircle
 10
4.528926647315089
 20
4.386241191721303
 30
0.0
 40
0.0601160179737537
100
AcDbArc
 50
180.0000000000003
 51
264.0521544866073
  0
LINE
  5
7DE1B343D9E0A2D
330
7DE1B343D9E0B41
100
AcDbEntity
  8
TEXT
100
AcDbLine
 10
4.532442002940637
 20
4.627309750965903
 30
0.0
 11
4.47239939809663
 21
4.627309750965903
 31
0.0
  0
ARC
  5
7DE1B343D9E0A2E
330
7DE1B343D9E0B41
100
AcDbEntity
  8
TEXT
100
AcDbCircle
 10
4.296667645198119
 20
4.510834373925263
 30
0.0
 40
0.0820874594465043
100
AcDbArc
 50
90.0
 51
270.0
  0
LWPOLYLINE
  5
7DE1B343D9E0A2F
330
7DE1B343D9E0B41
100
AcDbEntity
  8
TEXT
100
AcDbPolyline
 90
        2
 70
     0
 43
0.0001332181640625
 10
3.888581312097154
 20
4.519651843137388
 10
3.878589949792464
 20
4.592921833371768
  0
LWPOLYLINE
  5
7DE1B343D9E0A33
330
7DE1B343D9E0B41
100
AcDbEntity
  8
TEXT
100
AcDbPolyline
 90
        2
 70
     0
 43
0.0001332181640625
 10
3.878589949792464
 20
4.566278200559267
 10
3.888581312097154
 20
4.506330026731141
  0
LWPOLYLINE
  5
7DE1B343D9E0A37
330
7DE1B343D9E0B41
100
AcDbEntity
  8
TEXT
100
AcDbPolyline
 90
        3
 70
     0
 43
0.0006660908203125
 10
4.031790838464341
 20
4.47968639391864
 10
4.031790838464341
 20
4.592921833371768
 10
3.918555399011215
 20
4.592921833371768
  0
LWPOLYLINE
  5
7DE1B343D9E0A3C
330
7DE1B343D9E0B41
100
AcDbEntity
  8
TEXT
100
AcDbPolyline
 90
        3
 70
     0
 43
0.0006660908203125
 10
4.00514720565184
 20
4.47968639391864
 10
4.00514720565184
 20
4.566278200559267
 10
3.918555399011215
 20
4.566278200559267
  0
LWPOLYLINE
  5
7DE1B343D9E0A41
330
7DE1B343D9E0B41
100
AcDbEntity
  8
TEXT
100
AcDbPolyline
 90
        2
 70
     0
 43
0.0001332181640625
 10
4.00514720565184
 20
4.566278200559267
 10
3.945199031823716
 20
4.506330026731141
  0
LWPOLYLINE
  5
7DE1B343D9E0A45
330
7DE1B343D9E0B41
100
AcDbEntity
  8
TEXT
100
AcDbPolyline
 90
        2
 70
     0
 43
0.0001332181640625
 10
3.918555399011215
 20
4.566278200559267
 10
3.908564036706526
 20
4.506330026731141
  0
LWPOLYLINE
  5
7DE1B343D9E0A49
330
7DE1B343D9E0B41
100
AcDbEntity
  8
TEXT
100
AcDbPolyline
 90
        2
 70
     0
 43
0.0001332181640625
 10
3.918555399011215
 20
4.592921833371768
 10
3.908564036706526
 20
4.519651843137388
  0
LWPOLYLINE
  5
7DE1B343D9E0A4D
330
7DE1B343D9E0B41
100
AcDbEntity
  8
TEXT
100
AcDbPolyline
 90
        2
 70
     0
 43
0.0001332181640625
 10
3.958520848229965
 20
4.469695031613952
 10
4.031790838464341
 20
4.47968639391864
  0
LWPOLYLINE
  5
7DE1B343D9E0A51
330
7DE1B343D9E0B41
100
AcDbEntity
  8
TEXT
100
AcDbPolyline
 90
        2
 70
     0
 43
0.0001332181640625
 10
4.00514720565184
 20
4.47968639391864
 10
3.945199031823716
 20
4.469695031613952
  0
LWPOLYLINE
  5
7DE1B343D9E0A55
330
7DE1B343D9E0B41
100
AcDbEntity
  8
TEXT
100
AcDbPolyline
 90
        2
 70
     0
 43
0.0001332181640625
 10
4.031790838464341
 20
4.439720944699892
 10
3.958520848229965
 20
4.449712307004578
  0
LWPOLYLINE
  5
7DE1B343D9E0A59
330
7DE1B343D9E0B41
100
AcDbEntity
  8
TEXT
100
AcDbPolyline
 90
        2
 70
     0
 43
0.0001332181640625
 10
4.00514720565184
 20
4.439720944699892
 10
3.945199031823716
 20
4.449712307004578
  0
LWPOLYLINE
  5
7DE1B343D9E0A5D
330
7DE1B343D9E0B41
100
AcDbEntity
  8
TEXT
100
AcDbPolyline
 90
        2
 70
     0
 43
0.0001332181640625
 10
4.00514720565184
 20
4.353129138059266
 10
3.945199031823716
 20
4.413077311887391
  0
LWPOLYLINE
  5
7DE1B343D9E0A61
330
7DE1B343D9E0B41
100
AcDbEntity
  8
TEXT
100
AcDbPolyline
 90
        3
 70
     0
 43
0.0006660908203125
 10
3.918555399011215
 20
4.353129138059266
 10
4.00514720565184
 20
4.353129138059266
 10
4.00514720565184
 20
4.439720944699892
  0
LWPOLYLINE
  5
7DE1B343D9E0A66
330
7DE1B343D9E0B41
100
AcDbEntity
  8
TEXT
100
AcDbPolyline
 90
        3
 70
     0
 43
0.0006660908203125
 10
3.918555399011215
 20
4.326485505246765
 10
4.031790838464341
 20
4.326485505246765
 10
4.031790838464341
 20
4.439720944699892
  0
LWPOLYLINE
  5
7DE1B343D9E0A6B
330
7DE1B343D9E0B41
100
AcDbEntity
  8
TEXT
100
AcDbPolyline
 90
        5
 70
     0
 43
0.0001332181640625
 10
3.888581312097154
 20
4.399755495481141
 10
3.888581312097154
 20
4.413077311887391
 10
3.851946316979966
 20
4.413077311887391
 10
3.851946316979966
 20
4.449712307004578
 10
3.838624500573716
 20
4.449712307004578
  0
LWPOLYLINE
  5
7DE1B343D9E0A72
330
7DE1B343D9E0B41
100
AcDbEntity
  8
TEXT
100
AcDbPolyline
 90
        2
 70
     0
 43
0.0006660908203125
 10
3.878589949792464
 20
4.353129138059266
 10
3.878589949792464
 20
4.326485505246765
  0
LWPOLYLINE
  5
7DE1B343D9E0A76
330
7DE1B343D9E0B41
100
AcDbEntity
  8
TEXT
100
AcDbPolyline
 90
        2
 70
     0
 43
0.0001332181640625
 10
3.878589949792464
 20
4.353129138059266
 10
3.888581312097154
 20
4.413077311887391
  0
LWPOLYLINE
  5
7DE1B343D9E0A7A
330
7DE1B343D9E0B41
100
AcDbEntity
  8
TEXT
100
AcDbPolyline
 90
        2
 70
     0
 43
0.0001332181640625
 10
3.878589949792464
 20
4.326485505246765
 10
3.888581312097154
 20
4.399755495481141
  0
LWPOLYLINE
  5
7DE1B343D9E0A7E
330
7DE1B343D9E0B41
100
AcDbEntity
  8
TEXT
100
AcDbPolyline
 90
        5
 70
     0
 43
0.0001332181640625
 10
3.838624500573716
 20
4.469695031613952
 10
3.851946316979964
 20
4.469695031613952
 10
3.851946316979964
 20
4.506330026731141
 10
3.888581312097154
 20
4.506330026731141
 10
3.888581312097154
 20
4.519651843137388
  0
LWPOLYLINE
  5
7DE1B343D9E0A85
330
7DE1B343D9E0B41
100
AcDbEntity
  8
TEXT
100
AcDbPolyline
 90
        5
 70
     0
 43
0.0001332181640625
 10
3.908564036706526
 20
4.519651843137388
 10
3.908564036706526
 20
4.506330026731141
 10
3.945199031823716
 20
4.506330026731141
 10
3.945199031823716
 20
4.469695031613952
 10
3.958520848229965
 20
4.469695031613952
  0
LWPOLYLINE
  5
7DE1B343D9E0A8C
330
7DE1B343D9E0B41
100
AcDbEntity
  8
TEXT
100
AcDbPolyline
 90
        2
 70
     0
 43
0.0001332181640625
 10
3.918555399011215
 20
4.353129138059266
 10
3.908564036706526
 20
4.413077311887391
  0
LWPOLYLINE
  5
7DE1B343D9E0A90
330
7DE1B343D9E0B41
100
AcDbEntity
  8
TEXT
100
AcDbPolyline
 90
        2
 70
     0
 43
0.0001332181640625
 10
3.908564036706526
 20
4.399755495481141
 10
3.918555399011215
 20
4.326485505246765
  0
LWPOLYLINE
  5
7DE1B343D9E0A94
330
7DE1B343D9E0B41
100
AcDbEntity
  8
TEXT
100
AcDbPolyline
 90
        2
 70
     0
 43
0.0006660908203125
 10
3.918555399011215
 20
4.353129138059266
 10
3.918555399011215
 20
4.326485505246765
  0
LWPOLYLINE
  5
7DE1B343D9E0A98
330
7DE1B343D9E0B41
100
AcDbEntity
  8
TEXT
100
AcDbPolyline
 90
        5
 70
     0
 43
0.0001332181640625
 10
3.958520848229965
 20
4.449712307004578
 10
3.945199031823716
 20
4.449712307004578
 10
3.945199031823716
 20
4.413077311887391
 10
3.908564036706526
 20
4.413077311887391
 10
3.908564036706526
 20
4.399755495481141
  0
LWPOLYLINE
  5
7DE1B343D9E0A9F
330
7DE1B343D9E0B41
100
AcDbEntity
  8
TEXT
100
AcDbPolyline
 90
        2
 70
     0
 43
0.0006660908203125
 10
4.00514720565184
 20
4.47968639391864
 10
4.031790838464341
 20
4.47968639391864
  0
LWPOLYLINE
  5
7DE1B343D9E0AA3
330
7DE1B343D9E0B41
100
AcDbEntity
  8
TEXT
100
AcDbPolyline
 90
        2
 70
     0
 43
0.0006660908203125
 10
4.00514720565184
 20
4.439720944699892
 10
4.031790838464341
 20
4.439720944699892
  0
LINE
  5
7DE1B343D9E0AA7
330
7DE1B343D9E0B41
100
AcDbEntity
  8
TEXT
100
AcDbLine
 10
4.301904975312366
 20
4.528645138714999
 30
0.0
 11
4.468810629341337
 21
4.528645138714999
 31
0.0
  0
LINE
  5
7DE1B343D9E0AA8
330
7DE1B343D9E0B41
100
AcDbEntity
  8
TEXT
100
AcDbLine
 10
4.367505111556667
 20
4.492840417104371
 30
0.0
 11
4.301904975312366
 21
4.492840417104371
 31
0.0
  0
LINE
  5
7DE1B343D9E0AA9
330
7DE1B343D9E0B41
100
AcDbEntity
  8
TEXT
100
AcDbLine
 10
4.214580185751614
 20
4.326448800383253
 30
0.0
 11
4.367505111556667
 21
4.326448800383253
 31
0.0
  0
LINE
  5
7DE1B343D9E0AAA
330
7DE1B343D9E0B41
100
AcDbEntity
  8
TEXT
100
AcDbLine
 10
4.372445485462947
 20
4.394805806716693
 30
0.0
 11
4.214580185751612
 21
4.394805806716693
 31
0.0
  0
LINE
  5
7DE1B343D9E0AAB
330
7DE1B343D9E0B41
100
AcDbEntity
  8
TEXT
100
AcDbLine
 10
4.296667645198118
 20
4.428746914478757
 30
0.0
 11
4.372445485462947
 21
4.428746914478757
 31
0.0
  0
ARC
  5
7DE1B343D9E0AAC
330
7DE1B343D9E0B41
100
AcDbEntity
  8
TEXT
100
AcDbCircle
 10
4.301904975312367
 20
4.510742777909687
 30
0.0
 40
0.017902360805315
100
AcDbArc
 50
90.0
 51
270.0
  0
LINE
  5
7DE1B343D9E0AAD
330
7DE1B343D9E0B41
100
AcDbEntity
  8
TEXT
100
AcDbLine
 10
4.214580185751612
 20
4.394805806716693
 30
0.0
 11
4.214580185751614
 21
4.326448800383253
 31
0.0
  0
LINE
  5
7DE1B343D9E0AAE
330
7DE1B343D9E0B41
100
AcDbEntity
  8
TEXT
100
AcDbLine
 10
4.468810629341337
 20
4.528645138714999
 30
0.0
 11
4.468810629341337
 21
4.386241191721303
 31
0.0
  0
ARC
  5
7DE1B343D9E0AAF
330
7DE1B343D9E0B41
100
AcDbEntity
  8
TEXT
100
AcDbCircle
 10
4.367505111556668
 20
4.409644608743811
 30
0.0
 40
0.0831958083605586
100
AcDbArc
 50
270.0
 51
90.0
  0
ARC
  5
7DE1B343D9E0AB0
330
7DE1B343D9E0B41
100
AcDbEntity
  8
TEXT
100
AcDbCircle
 10
4.372445485462947
 20
4.411776360597727
 30
0.0
 40
0.0169705538810321
100
AcDbArc
 50
270.0
 51
90.0
  0
LWPOLYLINE
  5
7DE1B343D9E0AB1
330
7DE1B343D9E0B41
100
AcDbEntity
  8
TEXT
100
AcDbPolyline
 90
        2
 70
     0
 43
0.0006660908203125
 10
3.878589949792464
 20
4.566278200559267
 10
3.878589949792464
 20
4.592921833371768
  0
LWPOLYLINE
  5
7DE1B343D9E0AB5
330
7DE1B343D9E0B41
100
AcDbEntity
  8
TEXT
100
AcDbPolyline
 90
        2
 70
     0
 43
0.0006660908203125
 10
3.918555399011215
 20
4.566278200559267
 10
3.918555399011215
 20
4.592921833371768
  0
LINE
  5
7DE1B343D9E0AB9
330
7DE1B343D9E0B41
100
AcDbEntity
  8
TEXT
100
AcDbLine
 10
4.47239939809663
 20
4.592921833371764
 30
0.0
 11
4.296667645198118
 21
4.592921833371764
 31
0.0
  0
LINE
  5
7DE1B343D9E0ABA
330
7DE1B343D9E0B41
100
AcDbEntity
  8
TEXT
100
AcDbLine
 10
4.47239939809663
 20
4.627309750965903
 30
0.0
 11
4.47239939809663
 21
4.592921833371764
 31
0.0
  0
LINE
  5
7DE1B343D9E0ABB
330
7DE1B343D9E0B41
100
AcDbEntity
  8
TEXT
100
AcDbLine
 10
4.662871290116482
 20
4.492049837258644
 30
0.0
 11
4.604240969084544
 21
4.592921833371764
 31
0.0
  0
LINE
  5
7DE1B343D9E0ABC
330
7DE1B343D9E0B41
100
AcDbEntity
  8
TEXT
100
AcDbLine
 10
4.721619852922348
 20
4.592921833371764
 30
0.0
 11
4.662871290116482
 21
4.492049837258644
 31
0.0
  0
LINE
  5
7DE1B343D9E0ABD
330
7DE1B343D9E0B41
100
AcDbEntity
  8
TEXT
100
AcDbLine
 10
4.818550478282089
 20
4.408836638486253
 30
0.0
 11
4.818550478282089
 21
4.660933311110575
 31
0.0
  0
LINE
  5
7DE1B343D9E0ABE
330
7DE1B343D9E0B41
100
AcDbEntity
  8
TEXT
100
AcDbLine
 10
4.850862332419749
 20
4.592921833371764
 30
0.0
 11
4.850862332419749
 21
4.392057626639356
 31
0.0
  0
LINE
  5
7DE1B343D9E0ABF
330
7DE1B343D9E0B41
100
AcDbEntity
  8
TEXT
100
AcDbLine
 10
4.850862332419749
 20
4.392057626639356
 30
0.0
 11
4.833868695535148
 21
4.392057626639356
 31
0.0
  0
LINE
  5
7DE1B343D9E0AC0
330
7DE1B343D9E0B41
100
AcDbEntity
  8
TEXT
100
AcDbLine
 10
4.819690051778284
 20
4.326448800383253
 30
0.0
 11
4.917693385477718
 21
4.326448800383253
 31
0.0
  0
LINE
  5
7DE1B343D9E0AC1
330
7DE1B343D9E0B41
100
AcDbEntity
  8
TEXT
100
AcDbLine
 10
4.653271053119528
 20
4.346407306488266
 30
0.0
 11
4.750570759212973
 21
4.510757517423535
 31
0.0
  0
ARC
  5
7DE1B343D9E0AC2
330
7DE1B343D9E0B41
100
AcDbEntity
  8
TEXT
100
AcDbCircle
 10
4.619227493207314
 20
4.365996522656949
 30
0.0
 40
0.0392772371940762
100
AcDbArc
 50
270.1604552698595
 51
330.0831797321295
  0
LINE
  5
7DE1B343D9E0AC3
330
7DE1B343D9E0B41
100
AcDbEntity
  8
TEXT
100
AcDbLine
 10
4.522697236821443
 20
4.326448800383253
 30
0.0
 11
4.619337487896437
 21
4.326719439481536
 31
0.0
  0
LWPOLYLINE
  5
7DE1B343D9E0AC4
330
7DE1B343D9E0B41
100
AcDbEntity
  8
TEXT
100
AcDbPolyline
 90
        6
 70
     1
 43
0.0
 10
4.565221040396592
 20
4.528645138714999
 10
4.534904446176384
 20
4.528645138714999
 10
4.534904446176384
 20
4.405534140660105
 42
0.407328721240804
 10
4.546448097337861
 20
4.393715225983719
 10
4.607069796382591
 20
4.393715225983719
 10
4.624535136789909
 20
4.426527455027198
  0
LINE
  5
7DE1B343D9E0ACC
330
7DE1B343D9E0B41
100
AcDbEntity
  8
TEXT
100
AcDbLine
 10
4.750570759212973
 20
4.510757517423535
 30
0.0
 11
4.750570759212973
 21
4.378000142598178
 31
0.0
  0
ARC
  5
7DE1B343D9E0ACD
330
7DE1B343D9E0B41
100
AcDbEntity
  8
TEXT
100
AcDbCircle
 10
4.833868695535146
 20
4.407439432882782
 30
0.0
 40
0.0153818062434269
100
AcDbArc
 50
174.7883570302258
 51
270.0
  0
LWPOLYLINE
  5
7DE1B343D9E0ACE
330
7DE1B343D9E0B41
100
AcDbEntity
  8
TEXT
100
AcDbPolyline
 90
        2
 70
     0
 43
0.0
 10
4.750570759212971
 20
4.378000142598182
 42
0.3318488747599744
 10
4.819690051778284
 20
4.326448800383253
 42
-6.868794160588311
  0
LINE
  5
7DE1B343D9E0AD2
330
7DE1B343D9E0B41
100
AcDbEntity
  8
TEXT
100
AcDbLine
 10
4.97508245446698
 20
4.326448800383253
 30
0.0
 11
5.04214050124882
 21
4.326448800383253
 31
0.0
  0
LINE
  5
7DE1B343D9E0AD3
330
7DE1B343D9E0B41
100
AcDbEntity
  8
TEXT
100
AcDbLine
 10
4.97508245446698
 20
4.521091349548889
 30
0.0
 11
4.97508245446698
 21
4.326448800383253
 31
0.0
  0
LINE
  5
7DE1B343D9E0AD4
330
7DE1B343D9E0B41
100
AcDbEntity
  8
TEXT
100
AcDbLine
 10
4.917693385477718
 20
4.528645138714999
 30
0.0
 11
4.967528665300866
 21
4.528645138714999
 31
0.0
  0
LINE
  5
7DE1B343D9E0AD5
330
7DE1B343D9E0B41
100
AcDbEntity
  8
TEXT
100
AcDbLine
 10
4.917693385477718
 20
4.326448800383253
 30
0.0
 11
4.917693385477718
 21
4.528645138714999
 31
0.0
  0
LWPOLYLINE
  5
7DE1B343D9E0AD6
330
7DE1B343D9E0B41
100
AcDbEntity
  8
TEXT
100
AcDbPolyline
 90
        2
 70
     0
 43
0.0
 10
4.967528665300864
 20
4.528645138714999
 42
-0.4142135623731017
 10
4.975082454466978
 20
4.521091349548889
 42
-0.9999999999999998
  0
LINE
  5
7DE1B343D9E0ADA
330
7DE1B343D9E0B41
100
AcDbEntity
  8
TEXT
100
AcDbLine
 10
5.173338666078549
 20
4.528645138714999
 30
0.0
 11
5.173338666078549
 21
4.453592732640792
 31
0.0
  0
LINE
  5
7DE1B343D9E0ADB
330
7DE1B343D9E0B41
100
AcDbEntity
  8
TEXT
100
AcDbLine
 10
5.04214050124882
 20
4.528645138714999
 30
0.0
 11
5.09627409816977
 21
4.528645138714999
 31
0.0
  0
LINE
  5
7DE1B343D9E0ADC
330
7DE1B343D9E0B41
100
AcDbEntity
  8
TEXT
100
AcDbLine
 10
5.04214050124882
 20
4.326448800383253
 30
0.0
 11
5.04214050124882
 21
4.528645138714999
 31
0.0
  0
LWPOLYLINE
  5
7DE1B343D9E0ADD
330
7DE1B343D9E0B41
100
AcDbEntity
  8
TEXT
100
AcDbPolyline
 90
        2
 70
     0
 43
0.0
 10
5.096274098169768
 20
4.528645138714999
 42
-0.4142135623731017
 10
5.103827887335881
 20
4.521091349548889
 42
-0.9999999999999998
  0
LWPOLYLINE
  5
7DE1B343D9E0AE1
330
7DE1B343D9E0B41
100
AcDbEntity
  8
TEXT
100
AcDbPolyline
 90
        4
 70
     0
 43
0.0
 10
5.103827887335881
 20
4.521091349548889
 10
5.103827887335881
 20
4.326448800383253
 10
5.172306170623739
 20
4.326448800383253
 10
5.172306170623739
 20
4.369939745333692
 42
-1.714843617202739
  0
LINE
  5
7DE1B343D9E0AE7
330
7DE1B343D9E0B41
100
AcDbEntity
  8
TEXT
100
AcDbLine
 10
4.532442002940637
 20
4.592921833371764
 30
0.0
 11
4.532442002940637
 21
4.627309750965903
 31
0.0
  0
LINE
  5
7DE1B343D9E0AE8
330
7DE1B343D9E0B41
100
AcDbEntity
  8
TEXT
100
AcDbLine
 10
4.604240969084544
 20
4.592921833371764
 30
0.0
 11
4.532442002940637
 21
4.592921833371764
 31
0.0
  0
LINE
  5
7DE1B343D9E0AE9
330
7DE1B343D9E0B41
100
AcDbEntity
  8
TEXT
100
AcDbLine
 10
4.751741765715724
 20
4.592921833371764
 30
0.0
 11
4.721619852922348
 21
4.592921833371764
 31
0.0
  0
LINE
  5
7DE1B343D9E0AEA
330
7DE1B343D9E0B41
100
AcDbEntity
  8
TEXT
100
AcDbLine
 10
4.751741765715724
 20
4.660933311110575
 30
0.0
 11
4.751741765715724
 21
4.592921833371764
 31
0.0
  0
LINE
  5
7DE1B343D9E0AEB
330
7DE1B343D9E0B41
100
AcDbEntity
  8
TEXT
100
AcDbLine
 10
4.818550478282089
 20
4.660933311110575
 30
0.0
 11
4.751741765715724
 21
4.660933311110575
 31
0.0
  0
LWPOLYLINE
  5
7DE1B343D9E0AEC
330
7DE1B343D9E0B41
100
AcDbEntity
  8
TEXT
100
AcDbPolyline
 90
        3
 70
     0
 43
0.0
 10
5.138962237880091
 20
4.592921833371768
 10
5.020662079064047
 20
4.592921833371768
 10
5.020662079064047
 20
4.565754336610872
 42
-1.960274751411753
  0
LINE
  5
7DE1B343D9E0AF1
330
7DE1B343D9E0B41
100
AcDbEntity
  8
TEXT
100
AcDbLine
 10
4.984880388350886
 20
4.592921833371764
 30
0.0
 11
4.850862332419749
 21
4.592921833371764
 31
0.0
  0
LWPOLYLINE
  5
7DE1B343D9E0AF2
330
7DE1B343D9E0B41
100
AcDbEntity
  8
TEXT
100
AcDbPolyline
 90
        2
 70
     0
 43
0.0
 10
4.984880388350886
 20
4.592921833371768
 42
-0.3328679258950098
 10
5.020662079064047
 20
4.565754336610872
 42
6.772930709997214
  0
LINE
  5
7DE1B343D9E0AF6
330
7DE1B343D9E0B41
100
AcDbEntity
  8
TEXT
100
AcDbLine
 10
5.174743928593258
 20
4.592921833371764
 30
0.0
 11
5.174743928593258
 21
4.564599287602121
 31
0.0
  0
LWPOLYLINE
  5
7DE1B343D9E0AF7
330
7DE1B343D9E0B41
100
AcDbEntity
  8
TEXT
100
AcDbPolyline
 90
        2
 70
     0
 43
0.0
 10
5.138962237880091
 20
4.592921833371768
 42
-0.3277054968067132
 10
5.174743928593256
 20
4.564599287602124
 42
6.667889725900311
  0
LINE
  5
7DE1B343D9E0AFB
330
7DE1B343D9E0B41
100
AcDbEntity
  8
TEXT
100
AcDbLine
 10
5.388535776685358
 20
4.487709854818337
 30
0.0
 11
5.344785005503457
 21
4.569960130814482
 31
0.0
  0
LINE
  5
7DE1B343D9E0AFC
330
7DE1B343D9E0B41
100
AcDbEntity
  8
TEXT
100
AcDbLine
 10
5.388535776685358
 20
4.592921833371764
 30
0.0
 11
5.388535776685358
 21
4.487709854818337
 31
0.0
  0
LINE
  5
7DE1B343D9E0AFD
330
7DE1B343D9E0B41
100
AcDbEntity
  8
TEXT
100
AcDbLine
 10
5.616219515623727
 20
4.517056506960226
 30
0.0
 11
5.616219515623727
 21
4.658386039139365
 31
0.0
  0
LINE
  5
7DE1B343D9E0AFE
330
7DE1B343D9E0B41
100
AcDbEntity
  8
TEXT
100
AcDbLine
 10
5.663317674179712
 20
4.592921833371764
 30
0.0
 11
5.616219515623727
 21
4.517056506960226
 31
0.0
  0
LINE
  5
7DE1B343D9E0AFF
330
7DE1B343D9E0B41
100
AcDbEntity
  8
TEXT
100
AcDbLine
 10
5.673752390943635
 20
4.483028590430791
 30
0.0
 11
5.73830950690934
 21
4.592921833371764
 31
0.0
  0
LINE
  5
7DE1B343D9E0B00
330
7DE1B343D9E0B41
100
AcDbEntity
  8
TEXT
100
AcDbLine
 10
5.552384524400954
 20
4.326448800383253
 30
0.0
 11
5.616762708719575
 21
4.326448800383253
 31
0.0
  0
LWPOLYLINE
  5
7DE1B343D9E0B01
330
7DE1B343D9E0B41
100
AcDbEntity
  8
TEXT
100
AcDbPolyline
 90
        2
 70
     0
 43
0.0
 10
5.392475453990396
 20
4.369939745333692
 42
-0.2901071551932486
 10
5.349399521122752
 20
4.326448800383253
 42
-5.328517124445184
  0
ARC
  5
7DE1B343D9E0B05
330
7DE1B343D9E0B41
100
AcDbEntity
  8
TEXT
100
AcDbCircle
 10
5.280544939465837
 20
4.500285763715002
 30
0.0
 40
0.028359375
100
AcDbArc
 50
25.78218179591245
 51
90.0
  0
LINE
  5
7DE1B343D9E0B06
330
7DE1B343D9E0B41
100
AcDbEntity
  8
TEXT
100
AcDbLine
 10
5.31634601476996
 20
4.491370165252867
 30
0.0
 11
5.306081254356396
 21
4.512620704825561
 31
0.0
  0
LINE
  5
7DE1B343D9E0B07
330
7DE1B343D9E0B41
100
AcDbEntity
  8
TEXT
100
AcDbLine
 10
5.234058024986577
 20
4.491370165252867
 30
0.0
 11
5.31634601476996
 21
4.491370165252867
 31
0.0
  0
LWPOLYLINE
  5
7DE1B343D9E0B08
330
7DE1B343D9E0B41
100
AcDbEntity
  8
TEXT
100
AcDbPolyline
 90
        4
 70
     1
 43
0.0
 10
5.329277056052859
 20
4.429412778367279
 10
5.240616737393001
 20
4.429412778367279
 42
0.9999999999999998
 10
5.240616737393001
 20
4.387014237863418
 10
5.329277056052859
 20
4.387014237863418
 42
1.0
  0
LWPOLYLINE
  5
7DE1B343D9E0B0E
330
7DE1B343D9E0B41
100
AcDbEntity
  8
TEXT
100
AcDbPolyline
 90
        2
 70
     0
 43
0.0
 10
5.215382103491375
 20
4.326448800383253
 10
5.349399521122752
 20
4.326448800383253
 42
0.9999999999999998
  0
LINE
  5
7DE1B343D9E0B12
330
7DE1B343D9E0B41
100
AcDbEntity
  8
TEXT
100
AcDbLine
 10
5.475736543108391
 20
4.528645138714999
 30
0.0
 11
5.552384524400949
 21
4.528645138714999
 31
0.0
  0
LINE
  5
7DE1B343D9E0B13
330
7DE1B343D9E0B41
100
AcDbEntity
  8
TEXT
100
AcDbLine
 10
5.552384524400949
 20
4.528645138714999
 30
0.0
 11
5.552384524400954
 21
4.326448800383253
 31
0.0
  0
ARC
  5
7DE1B343D9E0B14
330
7DE1B343D9E0B41
100
AcDbEntity
  8
TEXT
100
AcDbCircle
 10
5.475736543108389
 20
4.503739263432336
 30
0.0
 40
0.0249058752826653
100
AcDbArc
 50
89.99971217465335
 51
179.9999999999985
  0
LINE
  5
7DE1B343D9E0B15
330
7DE1B343D9E0B41
100
AcDbEntity
  8
TEXT
100
AcDbLine
 10
5.450830667825732
 20
4.326448800383253
 30
0.0
 11
5.450830667825727
 21
4.503739305814722
 31
0.0
  0
LWPOLYLINE
  5
7DE1B343D9E0B16
330
7DE1B343D9E0B41
100
AcDbEntity
  8
TEXT
100
AcDbPolyline
 90
        2
 70
     0
 43
0.0
 10
5.392475453990396
 20
4.326448800383253
 10
5.45083066782573
 20
4.326448800383253
  0
LWPOLYLINE
  5
7DE1B343D9E0B1A
330
7DE1B343D9E0B41
100
AcDbEntity
  8
TEXT
100
AcDbPolyline
 90
        2
 70
     0
 43
0.0
 10
5.392475453990396
 20
4.369939745333692
 10
5.392475453990396
 20
4.326448800383253
  0
LINE
  5
7DE1B343D9E0B1E
330
7DE1B343D9E0B41
100
AcDbEntity
  8
TEXT
100
AcDbLine
 10
5.769244614307245
 20
4.326448800383253
 30
0.0
 11
5.673752390943635
 21
4.483028590430791
 31
0.0
  0
LINE
  5
7DE1B343D9E0B1F
330
7DE1B343D9E0B41
100
AcDbEntity
  8
TEXT
100
AcDbLine
 10
5.692666241931039
 20
4.326448800383253
 30
0.0
 11
5.769244614307245
 21
4.326448800383253
 31
0.0
  0
LINE
  5
7DE1B343D9E0B20
330
7DE1B343D9E0B41
100
AcDbEntity
  8
TEXT
100
AcDbLine
 10
5.616762708719575
 20
4.458028368859434
 30
0.0
 11
5.692666241931039
 21
4.326448800383253
 31
0.0
  0
LINE
  5
7DE1B343D9E0B21
330
7DE1B343D9E0B41
100
AcDbEntity
  8
TEXT
100
AcDbLine
 10
5.616762708719575
 20
4.326448800383253
 30
0.0
 11
5.616762708719575
 21
4.458028368859434
 31
0.0
  0
LINE
  5
7DE1B343D9E0B22
330
7DE1B343D9E0B41
100
AcDbEntity
  8
TEXT
100
AcDbLine
 10
5.616219515623727
 20
4.658386039139365
 30
0.0
 11
5.547904637074454
 21
4.658386039139365
 31
0.0
  0
ARC
  5
7DE1B343D9E0B23
330
7DE1B343D9E0B41
100
AcDbEntity
  8
TEXT
100
AcDbCircle
 10
5.307548898033248
 20
4.551338266250862
 30
0.0
 40
0.0416329381542859
100
AcDbArc
 50
26.56974201007528
 51
87.20939649401342
  0
LINE
  5
7DE1B343D9E0B24
330
7DE1B343D9E0B41
100
AcDbEntity
  8
TEXT
100
AcDbLine
 10
5.452432682984859
 20
4.592921833371764
 30
0.0
 11
5.388535776685358
 21
4.592921833371764
 31
0.0
  0
LINE
  5
7DE1B343D9E0B25
330
7DE1B343D9E0B41
100
AcDbEntity
  8
TEXT
100
AcDbLine
 10
5.452432682984859
 20
4.56537418351089
 30
0.0
 11
5.452432682984859
 21
4.592921833371764
 31
0.0
  0
ARC
  5
7DE1B343D9E0B26
330
7DE1B343D9E0B41
100
AcDbEntity
  8
TEXT
100
AcDbCircle
 10
5.483625500047967
 20
4.5616761060895
 30
0.0
 40
0.0314112657011332
100
AcDbArc
 50
95.88484768694724
 51
173.2388340632136
  0
LINE
  5
7DE1B343D9E0B27
330
7DE1B343D9E0B41
100
AcDbEntity
  8
TEXT
100
AcDbLine
 10
5.547904637074449
 20
4.592921833371764
 30
0.0
 11
5.480404919424932
 21
4.592921833371764
 31
0.0
  0
LINE
  5
7DE1B343D9E0B28
330
7DE1B343D9E0B41
100
AcDbEntity
  8
TEXT
100
AcDbLine
 10
5.547904637074454
 20
4.658386039139365
 30
0.0
 11
5.547904637074449
 21
4.592921833371764
 31
0.0
  0
LINE
  5
7DE1B343D9E0B29
330
7DE1B343D9E0B41
100
AcDbEntity
  8
TEXT
100
AcDbLine
 10
5.73830950690934
 20
4.592921833371764
 30
0.0
 11
5.663317674179713
 21
4.592921833371764
 31
0.0
  0
INSERT
  5
7DE1B343D9E0B5C
330
7DE1B343D9E0B41
100
AcDbEntity
  8
ASHADE
 62
     1
100
AcDbBlockReference
  2
AVE_RENDER
 10
0.0
 20
0.0
 30
0.0
1001
AVE_RENDER
1002
{
1070
     6
1000
Pref
1070
    30
1070
    20
1070
     1
1070
     0
1000

1070
    10
1070
     1
1070
    30
1040
1.0
1070
     1
1040
0.3
1040
0.7
1040
0.0
1040
10.0
1010
-1.0
1020
-1.0
1030
-1.0
1040
0.3
1070
    49
1070
     0
1070
     0
1010
1.0
1020
1.0
1030
1.0
1040
45.0
1070
     1
1070
     0
1000
WCS
1040
0.0
1002
}
  0
INSERT
  5
7DE1B343D9E0B5D
330
7DE1B343D9E0B41
100
AcDbEntity
  8
ASHADE
 62
     3
100
AcDbBlockReference
  2
AVE_RENDER
 10
0.0
 20
0.0
 30
0.0
1001
AVE_RENDER
1002
{
1070
     0
1000
Full Opt
1070
     0
1070
     1
1070
     1
1070
     1
1070
     0
1070
     0
1070
     0
1070
     1
1070
     1
1040
0.0001
1040
0.0001
1002
}
  0
INSERT
  5
7DE1B343D9E0B5E
330
7DE1B343D9E0B41
100
AcDbEntity
  8
ASHADE
 62
     4
100
AcDbBlockReference
  2
AVE_RENDER
 10
0.0
 20
0.0
 30
0.0
1001
AVE_RENDER
1002
{
1070
     0
1000
Quick Opt
1070
     0
1070
     1
1070
     1
1070
     1
1070
     0
1070
     0
1070
     1
1002
}
  0
INSERT
  5
7DE1B343D9E0B5F
330
7DE1B343D9E0B41
100
AcDbEntity
  8
ASHADE
 62
     5
100
AcDbBlockReference
  2
AVE_RENDER
 10
0.0
 20
0.0
 30
0.0
1001
AVE_RENDER
1002
{
1070
     1
1000
Scanl Opt
1070
     2
1070
     0
1070
     2
1040
2.0
1040
4.0
1070
     0
1070
     1
1070
     0
1040
0.03
1002
}
  0
INSERT
  5
7DE1B343D9E0B60
330
7DE1B343D9E0B41
100
AcDbEntity
  8
ASHADE
 62
     6
100
AcDbBlockReference
  2
AVE_RENDER
 10
0.0
 20
0.0
 30
0.0
1001
AVE_RENDER
1002
{
1070
     2
1000
Raytr Opt
1070
     2
1070
     0
1070
     2
1040
2.0
1040
4.0
1070
     0
1070
     1
1070
     1
1040
0.03
1070
     3
1040
0.03
1002
}
  0
INSERT
  5
7DE1B343D9E0B61
330
7DE1B343D9E0B41
100
AcDbEntity
  8
ASHADE
 62
     7
100
AcDbBlockReference
  2
AVE_RENDER
 10
0.0
 20
0.0
 30
0.0
1001
AVE_RENDER
1002
{
1070
     0
1000
RFile Opt
1070
     5
1070
   640
1070
   480
1070
 10000
1070
     3
1070
    32
1070
    24
1070
     0
1070
     0
1070
     0
1070
     1
1070
     0
1070
     0
1070
     0
1002
}
  0
INSERT
  5
7DE1B343D9E0B62
330
7DE1B343D9E0B41
100
AcDbEntity
  8
ASHADE
 62
     8
100
AcDbBlockReference
  2
AVE_RENDER
 10
0.0
 20
0.0
 30
0.0
1001
AVE_RENDER
1002
{
1070
     0
1000
Fog Opt
1070
     0
1070
     0
1040
0.0
1040
1.0
1040
0.0
1040
1.0
1010
0.5
1020
0.5
1030
0.5
1002
}
  0
INSERT
  5
7DE1B343D9E0B63
330
7DE1B343D9E0B41
100
AcDbEntity
  8
ASHADE
 62
     9
100
AcDbBlockReference
  2
AVE_RENDER
 10
0.0
 20
0.0
 30
0.0
1001
AVE_RENDER
1002
{
1070
     0
1000
BG Opt
1070
     0
1070
     1
1010
0.0
1020
0.0
1030
0.0
1010
1.0
1020
0.0
1030
0.0
1010
0.0
1020
1.0
1030
0.0
1010
0.0
1020
0.0
1030
1.0
1040
0.5
1040
0.33
1040
0.0
1000

1070
     1
1000

1070
     1
1070
     1
1040
1.0
1040
1.0
1040
0.0
1040
0.0
1070
     0
1002
}
  0
INSERT
  5
7DE1B343D9E0B6A
330
7DE1B343D9E0B41
100
AcDbEntity
  8
ASHADE
 62
     1
100
AcDbBlockReference
  2
AVE_GLOBAL
 10
0.0
 20
0.0
 30
0.0
1001
AVE_MATERIAL
1002
{
1000
*GLOBAL*
1000
1
1000
Global finish.
1002
{
1002
}
1002
{
1070
    63
1002
{
1002
{
1010
-1.0
1020
-1.0
1030
-1.0
1002
}
1040
0.1000000014901161
1000

1040
0.0
1002
{
1002
}
1040
0.0
1002
{
1002
}
1040
0.0
1002
}
1002
{
1002
{
1010
-1.0
1020
-1.0
1030
-1.0
1002
}
1040
0.6999999880790711
1000

1040
0.0
1002
{
1002
}
1040
0.0
1002
{
1002
}
1040
0.0
1002
}
1002
{
1002
{
1010
-1.0
1020
-1.0
1030
-1.0
1002
}
1040
0.2000000029802322
1000

1040
0.0
1002
{
1002
}
1040
0.0
1002
{
1002
}
1040
0.0
1002
}
1002
{
1070
     0
1002
{
1070
     1
1002
{
1040
1.0
1040
1.0
1000

1040
0.0
1002
{
1002
}
1040
0.0
1002
{
1002
}
1040
0.0
1002
}
1002
}
1040
1.0
1040
0.0
1040
0.0
1002
}
1002
{
1040
1.0
1040
1.0
1000

1040
0.0
1002
{
1002
}
1040
0.0
1002
{
1002
}
1040
0.0
1002
}
1002
{
1040
0.5
1040
1.0
1000

1040
0.0
1002
{
1002
}
1040
0.0
1002
{
1002
}
1040
0.0
1002
}
1002
{
1070
     0
1040
0.0
1002
{
1002
}
1040
1.0
1002
{
1002
}
1040
0.0
1002
}
1002
{
1040
0.0
1002
{
1002
{
1010
0.0
1020
0.0
1030
0.0
1002
}
1040
1.0
1000

1040
0.0
1002
{
1002
}
1040
0.0
1002
{
1002
}
1040
0.0
1002
}
1002
}
1002
{
1002
{
1070
     1
1002
{
1040
0.0
1040
1.0
1000

1040
0.0
1002
{
1002
}
1040
0.0
1002
{
1002
}
1040
0.0
1002
}
1002
}
1040
0.0
1002
{
1002
}
1010
1.0
1020
0.0
1030
0.0
1010
0.0
1020
1.0
1030
0.0
1010
0.0
1020
0.0
1030
1.0
1070
     0
1002
}
1002
{
1002
{
1040
1.0
1040
1.0
1002
{
1070
     1
1002
{
1040
1.0
1040
1.0
1000

1040
0.0
1002
{
1002
}
1040
0.0
1002
{
1002
}
1040
0.0
1002
}
1002
}
1002
}
1070
     0
1040
0.0
1002
{
1002
}
1002
}
1002
{
1002
}
1002
}
1002
{
1071
        3
1070
     3
1070
     0
1002
{
1070
     2
1070
     0
1070
     0
1040
0.0
1002
}
1070
     0
1070
     2
1002
{
1002
}
1002
}
1002
{
1040
8030.0
1040
190.3000030517578
1040
0.3050000071525574
1040
228.0
1040
545.0
1040
14.0
1040
17.39999961853027
1040
0.4560000002384186
1002
}
1002
}
  0
ENDSEC
  0
SECTION
  2
OBJECTS
  0
DICTIONARY
  5
7DE1B343D9E0B35
330
0
100
AcDbDictionary
  3
ACAD_GROUP
350
7DE1B343D9E0B36
  3
ACAD_LAYOUT
350
7DE1B343D9E0B76
  3
ACAD_MLINESTYLE
350
7DE1B343D9E0B37
  3
ACAD_PLOTSETTINGS
350
7DE1B343D9E0B77
  3
ACAD_PLOTSTYLENAME
350
7DE1B343D9E0B74
  3
ACDBHEADERROUNDTRIPXREC
350
7DE1B343D9E0B81
  3
ACDBVARIABLEDICTIONARY
350
7DE1B343D9E0B7E
  0
DICTIONARY
  5
7DE1B343D9E0BA3
330
7DE1B343D9E0B41
100
AcDbDictionary
280
     1
  3
ACAD_LAYOUTSELFREF
360
7DE1B343D9E0BA4
  0
DICTIONARY
  5
7DE1B343D9E0BA1
330
7DE1B343D9E0B3E
100
AcDbDictionary
280
     1
  3
ACAD_LAYOUTSELFREF
360
7DE1B343D9E0BA2
  0
DICTIONARY
  5
7DE1B343D9E0B36
102
{ACAD_REACTORS
330
7DE1B343D9E0B35
102
}
330
7DE1B343D9E0B35
100
AcDbDictionary
  0
DICTIONARY
  5
7DE1B343D9E0B76
102
{ACAD_REACTORS
330
7DE1B343D9E0B35
102
}
330
7DE1B343D9E0B35
100
AcDbDictionary
  0
DICTIONARY
  5
7DE1B343D9E0B37
102
{ACAD_REACTORS
330
7DE1B343D9E0B35
102
}
330
7DE1B343D9E0B35
100
AcDbDictionary
  3
STANDARD
350
7DE1B343D9E0B44
  0
DICTIONARY
  5
7DE1B343D9E0B77
102
{ACAD_REACTORS
330
7DE1B343D9E0B35
102
}
330
7DE1B343D9E0B35
100
AcDbDictionary
  0
ACDBDICTIONARYWDFLT
  5
7DE1B343D9E0B74
102
{ACAD_REACTORS
330
7DE1B343D9E0B35
102
}
330
7DE1B343D9E0B35
100
AcDbDictionary
281
     1
  3
Normal
350
7DE1B343D9E0B75
100
AcDbDictionaryWithDefault
340
7DE1B343D9E0B75
  0
DICTIONARY
  5
7DE1B343D9E0B81
102
{ACAD_REACTORS
330
7DE1B343D9E0B35
102
}
330
7DE1B343D9E0B35
100
AcDbDictionary
  3
CEPSNTYPE
350
7DE1B343D9E0B8B
  3
FINGERPRINTGUID
350
7DE1B343D9E0B8C
  3
HYPERLINKBASE
350
7DE1B343D9E0B84
  3
INSUNITS
350
7DE1B343D9E0B8A
  3
LAYOUTDICT
350
7DE1B343D9E0B86
  3
LWETCUNION
350
7DE1B343D9E0B89
  3
PLOTSETDICT
350
7DE1B343D9E0B87
  3
PLOTSTYLNAMDICT
350
7DE1B343D9E0B88
  3
PSVPSCALE
350
7DE1B343D9E0B8E
  3
PUCSBASE
350
7DE1B343D9E0B91
  3
PUCSORGBACK
350
7DE1B343D9E0B97
  3
PUCSORGBOTTOM
350
7DE1B343D9E0B93
  3
PUCSORGFRONT
350
7DE1B343D9E0B96
  3
PUCSORGLEFT
350
7DE1B343D9E0B94
  3
PUCSORGRIGHT
350
7DE1B343D9E0B95
  3
PUCSORGTOP
350
7DE1B343D9E0B92
  3
PUCSORTHOREF
350
7DE1B343D9E0B8F
  3
PUCSORTHOVIEW
350
7DE1B343D9E0B90
  3
STYLESHEET
350
7DE1B343D9E0B85
  3
TSTACKALIGN
350
7DE1B343D9E0B82
  3
TSTACKSIZE
350
7DE1B343D9E0B83
  3
UCSBASE
350
7DE1B343D9E0B9A
  3
UCSORGBACK
350
7DE1B343D9E0BA0
  3
UCSORGBOTTOM
350
7DE1B343D9E0B9C
  3
UCSORGFRONT
350
7DE1B343D9E0B9F
  3
UCSORGLEFT
350
7DE1B343D9E0B9D
  3
UCSORGRIGHT
350
7DE1B343D9E0B9E
  3
UCSORGTOP
350
7DE1B343D9E0B9B
  3
UCSORTHOREF
350
7DE1B343D9E0B98
  3
UCSORTHOVIEW
350
7DE1B343D9E0B99
  3
VERSIONGUID
350
7DE1B343D9E0B8D
  0
DICTIONARY
  5
7DE1B343D9E0B7E
102
{ACAD_REACTORS
330
7DE1B343D9E0B35
102
}
330
7DE1B343D9E0B35
100
AcDbDictionary
  3
DIMASSOC
350
7DE1B343D9E0B7F
  0
XRECORD
  5
7DE1B343D9E0BA4
102
{ACAD_REACTORS
330
7DE1B343D9E0BA3
102
}
330
7DE1B343D9E0BA3
100
AcDbXrecord
340
7DE1B343D9E0B41
  0
XRECORD
  5
7DE1B343D9E0BA2
102
{ACAD_REACTORS
330
7DE1B343D9E0BA1
102
}
330
7DE1B343D9E0BA1
100
AcDbXrecord
340
7DE1B343D9E0B3E
  0
MLINESTYLE
  5
7DE1B343D9E0B44
102
{ACAD_REACTORS
330
7DE1B343D9E0B37
102
}
330
7DE1B343D9E0B37
100
AcDbMlineStyle
  2
STANDARD
 70
     0
  3

 62
     0
 51
90.0
 52
90.0
 71
     2
 49
0.5
 62
   256
  6
BYLAYER
 49
-0.5
 62
   256
  6
BYLAYER
  0
ACDBPLACEHOLDER
  5
7DE1B343D9E0B75
102
{ACAD_REACTORS
330
7DE1B343D9E0B74
102
}
330
7DE1B343D9E0B74
100
AcDbPlaceHolder
280
     0
  0
XRECORD
  5
7DE1B343D9E0B8B
102
{ACAD_REACTORS
330
7DE1B343D9E0B81
102
}
330
7DE1B343D9E0B81
100
AcDbXrecord
 90
        0
  0
XRECORD
  5
7DE1B343D9E0B8C
102
{ACAD_REACTORS
330
7DE1B343D9E0B81
102
}
330
7DE1B343D9E0B81
100
AcDbXrecord
  1
{1D3BE8C0-8DB6-11D6-88E6-0090279574E7}
  0
XRECORD
  5
7DE1B343D9E0B84
102
{ACAD_REACTORS
330
7DE1B343D9E0B81
102
}
330
7DE1B343D9E0B81
100
AcDbXrecord
  1

  0
XRECORD
  5
7DE1B343D9E0B8A
102
{ACAD_REACTORS
330
7DE1B343D9E0B81
102
}
330
7DE1B343D9E0B81
100
AcDbXrecord
 90
        0
  0
XRECORD
  5
7DE1B343D9E0B86
102
{ACAD_REACTORS
330
7DE1B343D9E0B81
102
}
330
7DE1B343D9E0B81
100
AcDbXrecord
340
7DE1B343D9E0B76
  0
XRECORD
  5
7DE1B343D9E0B89
102
{ACAD_REACTORS
330
7DE1B343D9E0B81
102
}
330
7DE1B343D9E0B81
100
AcDbXrecord
 90
    14877
  0
XRECORD
  5
7DE1B343D9E0B87
102
{ACAD_REACTORS
330
7DE1B343D9E0B81
102
}
330
7DE1B343D9E0B81
100
AcDbXrecord
340
7DE1B343D9E0B77
  0
XRECORD
  5
7DE1B343D9E0B88
102
{ACAD_REACTORS
330
7DE1B343D9E0B81
102
}
330
7DE1B343D9E0B81
100
AcDbXrecord
340
7DE1B343D9E0B74
  0
XRECORD
  5
7DE1B343D9E0B8E
102
{ACAD_REACTORS
330
7DE1B343D9E0B81
102
}
330
7DE1B343D9E0B81
100
AcDbXrecord
 40
0.0
  0
XRECORD
  5
7DE1B343D9E0B91
102
{ACAD_REACTORS
330
7DE1B343D9E0B81
102
}
330
7DE1B343D9E0B81
100
AcDbXrecord
340
0
  0
XRECORD
  5
7DE1B343D9E0B97
102
{ACAD_REACTORS
330
7DE1B343D9E0B81
102
}
330
7DE1B343D9E0B81
100
AcDbXrecord
 10
0.0
 20
0.0
 30
0.0
  0
XRECORD
  5
7DE1B343D9E0B93
102
{ACAD_REACTORS
330
7DE1B343D9E0B81
102
}
330
7DE1B343D9E0B81
100
AcDbXrecord
 10
0.0
 20
0.0
 30
0.0
  0
XRECORD
  5
7DE1B343D9E0B96
102
{ACAD_REACTORS
330
7DE1B343D9E0B81
102
}
330
7DE1B343D9E0B81
100
AcDbXrecord
 10
0.0
 20
0.0
 30
0.0
  0
XRECORD
  5
7DE1B343D9E0B94
102
{ACAD_REACTORS
330
7DE1B343D9E0B81
102
}
330
7DE1B343D9E0B81
100
AcDbXrecord
 10
0.0
 20
0.0
 30
0.0
  0
XRECORD
  5
7DE1B343D9E0B95
102
{ACAD_REACTORS
330
7DE1B343D9E0B81
102
}
330
7DE1B343D9E0B81
100
AcDbXrecord
 10
0.0
 20
0.0
 30
0.0
  0
XRECORD
  5
7DE1B343D9E0B92
102
{ACAD_REACTORS
330
7DE1B343D9E0B81
102
}
330
7DE1B343D9E0B81
100
AcDbXrecord
 10
0.0
 20
0.0
 30
0.0
  0
XRECORD
  5
7DE1B343D9E0B8F
102
{ACAD_REACTORS
330
7DE1B343D9E0B81
102
}
330
7DE1B343D9E0B81
100
AcDbXrecord
340
0
  0
XRECORD
  5
7DE1B343D9E0B90
102
{ACAD_REACTORS
330
7DE1B343D9E0B81
102
}
330
7DE1B343D9E0B81
100
AcDbXrecord
 70
     0
  0
XRECORD
  5
7DE1B343D9E0B85
102
{ACAD_REACTORS
330
7DE1B343D9E0B81
102
}
330
7DE1B343D9E0B81
100
AcDbXrecord
  1

  0
XRECORD
  5
7DE1B343D9E0B82
102
{ACAD_REACTORS
330
7DE1B343D9E0B81
102
}
330
7DE1B343D9E0B81
100
AcDbXrecord
 90
        1
  0
XRECORD
  5
7DE1B343D9E0B83
102
{ACAD_REACTORS
330
7DE1B343D9E0B81
102
}
330
7DE1B343D9E0B81
100
AcDbXrecord
 90
       70
  0
XRECORD
  5
7DE1B343D9E0B9A
102
{ACAD_REACTORS
330
7DE1B343D9E0B81
102
}
330
7DE1B343D9E0B81
100
AcDbXrecord
340
0
  0
XRECORD
  5
7DE1B343D9E0BA0
102
{ACAD_REACTORS
330
7DE1B343D9E0B81
102
}
330
7DE1B343D9E0B81
100
AcDbXrecord
 10
0.0
 20
0.0
 30
0.0
  0
XRECORD
  5
7DE1B343D9E0B9C
102
{ACAD_REACTORS
330
7DE1B343D9E0B81
102
}
330
7DE1B343D9E0B81
100
AcDbXrecord
 10
0.0
 20
0.0
 30
0.0
  0
XRECORD
  5
7DE1B343D9E0B9F
102
{ACAD_REACTORS
330
7DE1B343D9E0B81
102
}
330
7DE1B343D9E0B81
100
AcDbXrecord
 10
0.0
 20
0.0
 30
0.0
  0
XRECORD
  5
7DE1B343D9E0B9D
102
{ACAD_REACTORS
330
7DE1B343D9E0B81
102
}
330
7DE1B343D9E0B81
100
AcDbXrecord
 10
0.0
 20
0.0
 30
0.0
  0
XRECORD
  5
7DE1B343D9E0B9E
102
{ACAD_REACTORS
330
7DE1B343D9E0B81
102
}
330
7DE1B343D9E0B81
100
AcDbXrecord
 10
0.0
 20
0.0
 30
0.0
  0
XRECORD
  5
7DE1B343D9E0B9B
102
{ACAD_REACTORS
330
7DE1B343D9E0B81
102
}
330
7DE1B343D9E0B81
100
AcDbXrecord
 10
0.0
 20
0.0
 30
0.0
  0
XRECORD
  5
7DE1B343D9E0B98
102
{ACAD_REACTORS
330
7DE1B343D9E0B81
102
}
330
7DE1B343D9E0B81
100
AcDbXrecord
340
0
  0
XRECORD
  5
7DE1B343D9E0B99
102
{ACAD_REACTORS
330
7DE1B343D9E0B81
102
}
330
7DE1B343D9E0B81
100
AcDbXrecord
 70
     0
  0
XRECORD
  5
7DE1B343D9E0B8D
102
{ACAD_REACTORS
330
7DE1B343D9E0B81
102
}
330
7DE1B343D9E0B81
100
AcDbXrecord
  1
{1D3BE8C2-8DB6-11D6-88E6-0090279574E7}
  0
DICTIONARYVAR
  5
7DE1B343D9E0B7F
102
{ACAD_REACTORS
330
7DE1B343D9E0B7E
102
}
330
7DE1B343D9E0B7E
100
DictionaryVariables
280
     0
  1
1
  0
ENDSEC
  0
EOF
