  0
SECTION
  2
HEADER
  9
$ACADVER
  1
AC1014
  9
$ACADMAINTVER
 70
     9
  9
$DWGCODEPAGE
  3
ANSI_1252
  9
$INSBASE
 10
5.304672498187494
 20
5.906967954256194
 30
0.0
  9
$EXTMIN
 10
3.561690918960351
 20
4.457794399129433
 30
0.0
  9
$EXTMAX
 10
7.046910240707486
 20
6.281967954256194
 30
0.0
  9
$LIMMIN
 10
0.0
 20
0.0
  9
$LIMMAX
 10
18.0
 20
12.0
  9
$ORTHOMODE
 70
     1
  9
$REGENMODE
 70
     1
  9
$FILLMODE
 70
     1
  9
$QTEXTMODE
 70
     0
  9
$MIRRTEXT
 70
     0
  9
$DRAGMODE
 70
     2
  9
$LTSCALE
 40
1.0
  9
$OSMODE
 70
    39
  9
$ATTMODE
 70
     1
  9
$TEXTSIZE
 40
0.125
  9
$TRACEWID
 40
0.05
  9
$TEXTSTYLE
  7
ROMANS
  9
$CLAYER
  8
0
  9
$CELTYPE
  6
BYLAYER
  9
$CECOLOR
 62
   256
  9
$CELTSCALE
 40
1.0
  9
$DELOBJ
 70
     1
  9
$DISPSILH
 70
     1
  9
$DIMSCALE
 40
1.0
  9
$DIMASZ
 40
0.125
  9
$DIMEXO
 40
0.125
  9
$DIMDLI
 40
0.375
  9
$DIMRND
 40
0.0
  9
$DIMDLE
 40
0.0
  9
$DIMEXE
 40
0.125
  9
$DIMTP
 40
0.0
  9
$DIMTM
 40
0.0
  9
$DIMTXT
 40
0.125
  9
$DIMCEN
 40
-0.125
  9
$DIMTSZ
 40
0.0
  9
$DIMTOL
 70
     0
  9
$DIMLIM
 70
     0
  9
$DIMTIH
 70
     1
  9
$DIMTOH
 70
     1
  9
$DIMSE1
 70
     0
  9
$DIMSE2
 70
     0
  9
$DIMTAD
 70
     0
  9
$DIMZIN
 70
     4
  9
$DIMBLK
  1

  9
$DIMASO
 70
     1
  9
$DIMSHO
 70
     1
  9
$DIMPOST
  1

  9
$DIMAPOST
  1

  9
$DIMALT
 70
     0
  9
$DIMALTD
 70
     2
  9
$DIMALTF
 40
25.4
  9
$DIMLFAC
 40
1.0
  9
$DIMTOFL
 70
     0
  9
$DIMTVP
 40
0.0
  9
$DIMTIX
 70
     1
  9
$DIMSOXD
 70
     0
  9
$DIMSAH
 70
     0
  9
$DIMBLK1
  1

  9
$DIMBLK2
  1

  9
$DIMSTYLE
  2
STANDARD
  9
$DIMCLRD
 70
     0
  9
$DIMCLRE
 70
     0
  9
$DIMCLRT
 70
     0
  9
$DIMTFAC
 40
1.0
  9
$DIMGAP
 40
0.09
  9
$DIMJUST
 70
     0
  9
$DIMSD1
 70
     0
  9
$DIMSD2
 70
     0
  9
$DIMTOLJ
 70
     1
  9
$DIMTZIN
 70
     4
  9
$DIMALTZ
 70
     0
  9
$DIMALTTZ
 70
     0
  9
$DIMFIT
 70
     3
  9
$DIMUPT
 70
     0
  9
$DIMUNIT
 70
     2
  9
$DIMDEC
 70
     3
  9
$DIMTDEC
 70
     3
  9
$DIMALTU
 70
     2
  9
$DIMALTTD
 70
     2
  9
$DIMTXSTY
  7
ROMANS
  9
$DIMAUNIT
 70
     0
  9
$LUNITS
 70
     2
  9
$LUPREC
 70
     3
  9
$SKETCHINC
 40
0.1
  9
$FILLETRAD
 40
0.03125
  9
$AUNITS
 70
     0
  9
$AUPREC
 70
     0
  9
$MENU
  1
ACAD
  9
$ELEVATION
 40
0.0
  9
$PELEVATION
 40
0.0
  9
$THICKNESS
 40
0.0
  9
$LIMCHECK
 70
     0
  9
$BLIPMODE
 70
     0
  9
$CHAMFERA
 40
0.0
  9
$CHAMFERB
 40
0.0
  9
$CHAMFERC
 40
0.0
  9
$CHAMFERD
 40
0.0
  9
$SKPOLY
 70
     0
  9
$TDCREATE
 40
2448994.561562269
  9
$TDUPDATE
 40
2452458.305927604
  9
$TDINDWG
 40
0.0007007755
  9
$TDUSRTIMER
 40
0.0007007755
  9
$USRTIMER
 70
     1
  9
$ANGBASE
 50
0.0
  9
$ANGDIR
 70
     0
  9
$PDMODE
 70
     0
  9
$PDSIZE
 40
0.0
  9
$PLINEWID
 40
0.0
  9
$COORDS
 70
     2
  9
$SPLFRAME
 70
     0
  9
$SPLINETYPE
 70
     6
  9
$SPLINESEGS
 70
     8
  9
$ATTDIA
 70
     0
  9
$ATTREQ
 70
     1
  9
$HANDLING
 70
 22529
  9
$HANDSEED
  5
7DE1B343D9E0041
  9
$SURFTAB1
 70
     6
  9
$SURFTAB2
 70
     6
  9
$SURFTYPE
 70
     6
  9
$SURFU
 70
     6
  9
$SURFV
 70
     6
  9
$UCSNAME
  2

  9
$UCSORG
 10
0.0
 20
0.0
 30
0.0
  9
$UCSXDIR
 10
1.0
 20
0.0
 30
0.0
  9
$UCSYDIR
 10
0.0
 20
1.0
 30
0.0
  9
$PUCSNAME
  2

  9
$PUCSORG
 10
0.0
 20
0.0
 30
0.0
  9
$PUCSXDIR
 10
1.0
 20
0.0
 30
0.0
  9
$PUCSYDIR
 10
0.0
 20
1.0
 30
0.0
  9
$USERI1
 70
     0
  9
$USERI2
 70
     0
  9
$USERI3
 70
     0
  9
$USERI4
 70
     0
  9
$USERI5
 70
     0
  9
$USERR1
 40
0.0
  9
$USERR2
 40
0.0
  9
$USERR3
 40
0.0
  9
$USERR4
 40
0.0
  9
$USERR5
 40
0.0
  9
$WORLDVIEW
 70
     1
  9
$SHADEDGE
 70
     3
  9
$SHADEDIF
 70
    70
  9
$TILEMODE
 70
     1
  9
$MAXACTVP
 70
    16
  9
$PINSBASE
 10
0.0
 20
0.0
 30
0.0
  9
$PLIMCHECK
 70
     0
  9
$PEXTMIN
 10
1.000000000000000E+20
 20
1.000000000000000E+20
 30
1.000000000000000E+20
  9
$PEXTMAX
 10
-1.000000000000000E+20
 20
-1.000000000000000E+20
 30
-1.000000000000000E+20
  9
$PLIMMIN
 10
0.0
 20
0.0
  9
$PLIMMAX
 10
12.0
 20
9.0
  9
$UNITMODE
 70
     0
  9
$VISRETAIN
 70
     0
  9
$PLINEGEN
 70
     1
  9
$PSLTSCALE
 70
     0
  9
$TREEDEPTH
 70
  3020
  9
$PICKSTYLE
 70
     1
  9
$CMLSTYLE
  2
STANDARD
  9
$CMLJUST
 70
     0
  9
$CMLSCALE
 40
1.0
  9
$PROXYGRAPHICS
 70
     1
  9
$MEASUREMENT
 70
     0
  0
ENDSEC
  0
SECTION
  2
CLASSES
  0
CLASS
  1
LWPOLYLINE
  2
AcDbPolyline
  3
AutoCAD 2000
 90
        0
280
     0
281
     1
  0
CLASS
  1
ACDBDICTIONARYWDFLT
  2
AcDbDictionaryWithDefault
  3
AutoCAD 2000
 90
        0
280
     0
281
     0
  0
CLASS
  1
ACDBPLACEHOLDER
  2
AcDbPlaceHolder
  3
AutoCAD 2000
 90
        0
280
     0
281
     0
  0
CLASS
  1
LAYOUT
  2
AcDbLayout
  3
AutoCAD 2000
 90
        0
280
     0
281
     0
  0
CLASS
  1
DICTIONARYVAR
  2
AcDbDictionaryVar
  3
AutoCAD 2000
 90
        0
280
     0
281
     0
  0
CLASS
  1
LONG_TRANSACTION
  2
AcDbLongTransaction
  3
AutoCAD 2000
 90
        0
280
     0
281
     0
  0
CLASS
  1
LWPOLYLINE
  2
AcDbPolyline
  3
AutoCAD 2000
 90
        0
280
     0
281
     1
  0
CLASS
  1
HATCH
  2
AcDbHatch
  3
AutoCAD 2000
 90
        0
280
     0
281
     1
  0
CLASS
  1
XRECORD
  2
AcDbXrecord
  3
AutoCAD 2000
 90
        0
280
     0
281
     0
  0
ENDSEC
  0
SECTION
  2
TABLES
  0
TABLE
  2
VPORT
  5
7DE1B343D9DFFCD
330
0
100
AcDbSymbolTable
 70
     2
  0
VPORT
  5
7DE1B343D9E001C
330
7DE1B343D9DFFCD
100
AcDbSymbolTableRecord
100
AcDbViewportTableRecord
  2
*ACTIVE
 70
     0
 10
0.0
 20
0.0
 11
1.0
 21
1.0
 12
8.280123558090476
 22
5.369659451033989
 13
0.0
 23
0.0
 14
0.015625
 24
0.015625
 15
0.0
 25
0.0
 16
0.0
 26
0.0
 36
1.0
 17
0.0
 27
0.0
 37
0.0
 40
2.282647215150728
 41
4.320930232558139
 42
50.0
 43
0.0
 44
0.0
 50
0.0
 51
0.0
 71
     0
 72
  2000
 73
     1
 74
     0
 75
     0
 76
     0
 77
     0
 78
     0
  0
ENDTAB
  0
TABLE
  2
LTYPE
  5
7DE1B343D9DFFCA
330
0
100
AcDbSymbolTable
 70
     1
  0
LTYPE
  5
7DE1B343D9DFFD7
330
7DE1B343D9DFFCA
100
AcDbSymbolTableRecord
100
AcDbLinetypeTableRecord
  2
BYBLOCK
 70
     0
  3

 72
    65
 73
     0
 40
0.0
  0
LTYPE
  5
7DE1B343D9DFFD8
330
7DE1B343D9DFFCA
100
AcDbSymbolTableRecord
100
AcDbLinetypeTableRecord
  2
BYLAYER
 70
     0
  3

 72
    65
 73
     0
 40
0.0
  0
LTYPE
  5
7DE1B343D9DFFD9
330
7DE1B343D9DFFCA
100
AcDbSymbolTableRecord
100
AcDbLinetypeTableRecord
  2
CONTINUOUS
 70
     0
  3
Solid line
 72
    65
 73
     0
 40
0.0
  0
ENDTAB
  0
TABLE
  2
LAYER
  5
7DE1B343D9DFFC7
330
0
100
AcDbSymbolTable
 70
     3
  0
LAYER
  5
7DE1B343D9DFFD4
330
7DE1B343D9DFFC7
100
AcDbSymbolTableRecord
100
AcDbLayerTableRecord
  2
0
 70
     0
 62
     7
  6
CONTINUOUS
  0
LAYER
  5
7DE1B343D9DFFE4
330
7DE1B343D9DFFC7
100
AcDbSymbolTableRecord
100
AcDbLayerTableRecord
  2
TEXT
 70
     0
 62
     3
  6
CONTINUOUS
  0
LAYER
  5
7DE1B343D9DFFF4
330
7DE1B343D9DFFC7
100
AcDbSymbolTableRecord
100
AcDbLayerTableRecord
  2
ASHADE
 70
     4
 62
     7
  6
CONTINUOUS
  0
ENDTAB
  0
TABLE
  2
STYLE
  5
7DE1B343D9DFFC8
330
0
100
AcDbSymbolTable
 70
     4
  0
STYLE
  5
7DE1B343D9DFFD5
330
7DE1B343D9DFFC8
100
AcDbSymbolTableRecord
100
AcDbTextStyleTableRecord
  2
STANDARD
 70
     0
 40
0.0
 41
1.0
 50
0.0
 71
     0
 42
0.3125
  3
txt
  4

  0
STYLE
  5
7DE1B343D9DFFE1
330
7DE1B343D9DFFC8
100
AcDbSymbolTableRecord
100
AcDbTextStyleTableRecord
  2
ITALICC
 70
     0
 40
0.0
 41
1.0
 50
0.0
 71
     0
 42
0.125
  3
italicc
  4

  0
STYLE
  5
7DE1B343D9DFFF1
330
7DE1B343D9DFFC8
100
AcDbSymbolTableRecord
100
AcDbTextStyleTableRecord
  2
ASHADE
 70
     0
 40
0.2
 41
1.0
 50
0.0
 71
     0
 42
0.3125
  3
simplex
  4

  0
STYLE
  5
7DE1B343D9E000C
330
7DE1B343D9DFFC8
100
AcDbSymbolTableRecord
100
AcDbTextStyleTableRecord
  2
ROMANS
 70
     0
 40
0.0
 41
1.0
 50
0.0
 71
     0
 42
0.125
  3
romans.shx
  4

  0
ENDTAB
  0
TABLE
  2
VIEW
  5
7DE1B343D9DFFCB
330
0
100
AcDbSymbolTable
 70
     0
  0
ENDTAB
  0
TABLE
  2
UCS
  5
7DE1B343D9DFFCC
330
0
100
AcDbSymbolTable
 70
     0
  0
ENDTAB
  0
TABLE
  2
APPID
  5
7DE1B343D9DFFCE
330
0
100
AcDbSymbolTable
 70
     6
  0
APPID
  5
7DE1B343D9DFFD6
330
7DE1B343D9DFFCE
100
AcDbSymbolTableRecord
100
AcDbRegAppTableRecord
  2
ACAD
 70
     0
  0
APPID
  5
7DE1B343D9DFFF2
330
7DE1B343D9DFFCE
100
AcDbSymbolTableRecord
100
AcDbRegAppTableRecord
  2
AVE_RENDER
 70
     0
  0
APPID
  5
7DE1B343D9DFFF3
330
7DE1B343D9DFFCE
100
AcDbSymbolTableRecord
100
AcDbRegAppTableRecord
  2
AVE_ENTITY_MATERIAL
 70
     0
  0
APPID
  5
7DE1B343D9E0000
330
7DE1B343D9DFFCE
100
AcDbSymbolTableRecord
100
AcDbRegAppTableRecord
  2
AVE_FINISH
 70
     0
  0
APPID
  5
7DE1B343D9E0001
330
7DE1B343D9DFFCE
100
AcDbSymbolTableRecord
100
AcDbRegAppTableRecord
  2
AVE_MATERIAL
 70
     0
  0
APPID
  5
7DE1B343D9E0002
330
7DE1B343D9DFFCE
100
AcDbSymbolTableRecord
100
AcDbRegAppTableRecord
  2
AVE_GLOBAL
 70
     0
  0
ENDTAB
  0
TABLE
  2
DIMSTYLE
  5
7DE1B343D9DFFCF
330
0
100
AcDbSymbolTable
 70
     1
  0
DIMSTYLE
105
7DE1B343D9DFFE9
330
7DE1B343D9DFFCF
100
AcDbSymbolTableRecord
100
AcDbDimStyleTableRecord
  2
STANDARD
 70
     0
  3

  4

  5

  6

  7

 40
1.0
 41
0.125
 42
0.125
 43
0.375
 44
0.125
 45
0.0
 46
0.0
 47
0.0
 48
0.0
140
0.125
141
-0.125
142
0.0
143
25.4
144
1.0
145
0.0
146
1.0
147
0.09
 71
     0
 72
     0
 73
     1
 74
     1
 75
     0
 76
     0
 77
     0
 78
     4
170
     0
171
     2
172
     0
173
     0
174
     1
175
     0
176
     0
177
     0
178
     0
270
     2
271
     3
272
     3
273
     2
274
     2
340
7DE1B343D9E000C
275
     0
280
     0
281
     0
282
     0
283
     1
284
     4
285
     0
286
     0
287
     3
288
     0
  0
ENDTAB
  0
TABLE
  2
BLOCK_RECORD
  5
7DE1B343D9DFFC6
330
0
100
AcDbSymbolTable
 70
     2
  0
BLOCK_RECORD
  5
7DE1B343D9DFFDD
102
{ACAD_XDICTIONARY
360
7DE1B343D9E003F
102
}
330
7DE1B343D9DFFC6
100
AcDbSymbolTableRecord
100
AcDbBlockTableRecord
  2
*MODEL_SPACE
  0
BLOCK_RECORD
  5
7DE1B343D9DFFDA
102
{ACAD_XDICTIONARY
360
7DE1B343D9E003D
102
}
330
7DE1B343D9DFFC6
100
AcDbSymbolTableRecord
100
AcDbBlockTableRecord
  2
*PAPER_SPACE
  0
BLOCK_RECORD
  5
7DE1B343D9DFFF5
330
7DE1B343D9DFFC6
100
AcDbSymbolTableRecord
100
AcDbBlockTableRecord
  2
AVE_RENDER
  0
BLOCK_RECORD
  5
7DE1B343D9E0003
330
7DE1B343D9DFFC6
100
AcDbSymbolTableRecord
100
AcDbBlockTableRecord
  2
AVE_GLOBAL
  0
ENDTAB
  0
ENDSEC
  0
SECTION
  2
BLOCKS
  0
BLOCK
  5
7DE1B343D9DFFE7
330
7DE1B343D9DFFDD
100
AcDbEntity
  8
0
100
AcDbBlockBegin
  2
*MODEL_SPACE
 70
     0
 10
0.0
 20
0.0
 30
0.0
  3
*MODEL_SPACE
  1

  0
ENDBLK
  5
7DE1B343D9DFFE8
330
7DE1B343D9DFFDD
100
AcDbEntity
  8
0
100
AcDbBlockEnd
  0
BLOCK
  5
7DE1B343D9DFFE5
330
7DE1B343D9DFFDA
100
AcDbEntity
 67
     1
  8
0
100
AcDbBlockBegin
  2
*PAPER_SPACE
 70
     0
 10
0.0
 20
0.0
 30
0.0
  3
*PAPER_SPACE
  1

  0
ENDBLK
  5
7DE1B343D9DFFE6
330
7DE1B343D9DFFDA
100
AcDbEntity
 67
     1
  8
0
100
AcDbBlockEnd
  0
BLOCK
  5
7DE1B343D9DFFF6
330
7DE1B343D9DFFF5
100
AcDbEntity
  8
0
100
AcDbBlockBegin
  2
AVE_RENDER
 70
     0
 10
0.0
 20
0.0
 30
0.0
  3
AVE_RENDER
  1
AVE_RENDER
  0
ENDBLK
  5
7DE1B343D9DFFF7
330
7DE1B343D9DFFF5
100
AcDbEntity
  8
0
100
AcDbBlockEnd
  0
BLOCK
  5
7DE1B343D9E0004
330
7DE1B343D9E0003
100
AcDbEntity
  8
0
100
AcDbBlockBegin
  2
AVE_GLOBAL
 70
     0
 10
0.0
 20
0.0
 30
0.0
  3
AVE_GLOBAL
  1
AVE_GLOBAL
  0
ENDBLK
  5
7DE1B343D9E0005
330
7DE1B343D9E0003
100
AcDbEntity
  8
0
100
AcDbBlockEnd
  0
ENDSEC
  0
SECTION
  2
ENTITIES
  0
LWPOLYLINE
  5
7DE1B343D9DEA24
330
7DE1B343D9DFFDD
100
AcDbEntity
  8
0
100
AcDbPolyline
 90
       38
 70
     1
 43
0.0
 10
6.492172498187494
 20
5.531967954256194
 10
6.742172498187496
 20
5.531967954256194
 10
6.742172498187494
 20
5.906967954256194
 42
1.0
 10
5.992172498187494
 20
5.906967954256194
 10
5.679672498187494
 20
5.906967954256194
 42
1.0
 10
4.929672498187494
 20
5.906967954256194
 10
4.617172498187494
 20
5.906967954256194
 42
1.0
 10
3.867172498187494
 20
5.906967954256194
 10
3.867172498187495
 20
5.531967954256194
 10
4.117172498187494
 20
5.531967954256194
 10
4.117172498187494
 20
5.313217954256194
 42
1.0
 10
4.179672498187494
 20
5.313217954256194
 10
4.179672498187494
 20
5.344467954256194
 10
4.250545910450968
 20
5.344467954256194
 42
0.2679491924311233
 10
4.277609204319231
 20
5.360092954256194
 10
4.304672498187494
 20
5.406967954256194
 10
4.179672498187494
 20
5.406967954256194
 10
4.179672498187494
 20
5.594467954256194
 10
3.929672498187494
 20
5.594467954256194
 10
3.929672498187494
 20
5.906967954256194
 42
-1.0
 10
4.554672498187494
 20
5.906967954256194
 10
4.554672498187494
 20
5.844467954256194
 10
4.992172498187494
 20
5.844467954256194
 10
4.992172498187494
 20
5.906967954256194
 42
-1.0
 10
5.617172498187494
 20
5.906967954256194
 10
5.617172498187494
 20
5.844467954256194
 10
6.054672498187496
 20
5.844467954256194
 10
6.054672498187494
 20
5.906967954256194
 42
-1.0
 10
6.679672498187494
 20
5.906967954256194
 10
6.679672498187494
 20
5.594467954256194
 10
6.429672498187494
 20
5.594467954256194
 10
6.429672498187494
 20
5.406967954256194
 10
6.304672498187493
 20
5.406967954256194
 10
6.331735792055756
 20
5.360092954256194
 42
0.2679491924311207
 10
6.358799085924021
 20
5.344467954256194
 10
6.429672498187494
 20
5.344467954256194
 10
6.429672498187494
 20
5.313217954256194
 42
1.0
 10
6.492172498187494
 20
5.313217954256194
  0
TEXT
  5
7DE1B343D9DFE88
330
7DE1B343D9DFFDD
100
AcDbEntity
  8
TEXT
100
AcDbText
 10
4.563601069616066
 20
4.915813003212014
 30
0.0
 40
0.125
  1
PART #110301
  7
ITALICC
 72
     1
 11
5.304672498187494
 21
4.915813003212014
 31
0.0
100
AcDbText
  0
TEXT
  5
7DE1B343D9DFE89
330
7DE1B343D9DFFDD
100
AcDbEntity
  8
TEXT
100
AcDbText
 10
5.717977656437815
 20
4.468890360539639
 30
0.0
 40
0.0522247191011236
  1
Phone  1-800-328-2495
 41
1.272321428571429
 72
     5
 11
7.046910240707479
 21
4.468890360539639
 31
0.0
100
AcDbText
  0
TEXT
  5
7DE1B343D9DFE8A
330
7DE1B343D9DFFDD
100
AcDbEntity
  8
TEXT
100
AcDbText
 10
5.717977656437815
 20
4.748665641438515
 30
0.0
 40
0.0522247191011236
  1
Stylmark  Incorporated
 41
1.221428571428573
 72
     5
 11
7.046910240707479
 21
4.748665641438515
 31
0.0
100
AcDbText
  0
TEXT
  5
7DE1B343D9DFE8B
330
7DE1B343D9DFFDD
100
AcDbEntity
  8
TEXT
100
AcDbText
 10
5.717977656437815
 20
4.655407214472223
 30
0.0
 40
0.0522247191011236
  1
6536 Main St. N.E. * P.O. Box 32008
 41
0.8388932496075366
 72
     5
 11
7.046910240707479
 21
4.655407214472223
 31
0.0
100
AcDbText
  0
TEXT
  5
7DE1B343D9DFE8C
330
7DE1B343D9DFFDD
100
AcDbEntity
  8
TEXT
100
AcDbText
 10
5.717977656437815
 20
4.562148787505931
 30
0.0
 40
0.0522247191011236
  1
Minneapolis, MN 55432-0008
 41
1.11444212721585
 72
     5
 11
7.046910240707479
 21
4.562148787505931
 31
0.0
100
AcDbText
  0
LWPOLYLINE
  5
7DE1B343D9DFE8D
330
7DE1B343D9DFFDD
100
AcDbEntity
  8
TEXT
100
AcDbPolyline
 90
        3
 70
     0
 43
0.0006660908203125
 10
3.562023964370507
 20
4.582535123177073
 10
3.562023964370507
 20
4.469299683723946
 10
3.67525940382363
 20
4.469299683723946
  0
LWPOLYLINE
  5
7DE1B343D9DFE92
330
7DE1B343D9DFFDD
100
AcDbEntity
  8
TEXT
100
AcDbPolyline
 90
        3
 70
     0
 43
0.0006660908203125
 10
3.588667597183005
 20
4.582535123177073
 10
3.588667597183005
 20
4.495943316536447
 10
3.67525940382363
 20
4.495943316536447
  0
LWPOLYLINE
  5
7DE1B343D9DFE97
330
7DE1B343D9DFFDD
100
AcDbEntity
  8
TEXT
100
AcDbPolyline
 90
        2
 70
     0
 43
0.0001332181640625
 10
3.635293954604882
 20
4.592526485481759
 10
3.562023964370507
 20
4.582535123177073
  0
LWPOLYLINE
  5
7DE1B343D9DFE9B
330
7DE1B343D9DFFDD
100
AcDbEntity
  8
TEXT
100
AcDbPolyline
 90
        2
 70
     0
 43
0.0001332181640625
 10
3.588667597183005
 20
4.582535123177073
 10
3.648615771011132
 20
4.592526485481759
  0
LWPOLYLINE
  5
7DE1B343D9DFE9F
330
7DE1B343D9DFFDD
100
AcDbEntity
  8
TEXT
100
AcDbPolyline
 90
        2
 70
     0
 43
0.0001332181640625
 10
3.588667597183005
 20
4.495943316536447
 10
3.648615771011132
 20
4.555891490364572
  0
LWPOLYLINE
  5
7DE1B343D9DFEA3
330
7DE1B343D9DFFDD
100
AcDbEntity
  8
TEXT
100
AcDbPolyline
 90
        3
 70
     0
 43
0.0006660908203125
 10
3.67525940382363
 20
4.735736011848949
 10
3.562023964370507
 20
4.735736011848949
 10
3.562023964370507
 20
4.622500572395821
  0
LWPOLYLINE
  5
7DE1B343D9DFEA8
330
7DE1B343D9DFFDD
100
AcDbEntity
  8
TEXT
100
AcDbPolyline
 90
        3
 70
     0
 43
0.0006660908203125
 10
3.67525940382363
 20
4.709092379036448
 10
3.588667597183005
 20
4.709092379036448
 10
3.588667597183005
 20
4.622500572395821
  0
LWPOLYLINE
  5
7DE1B343D9DFEAD
330
7DE1B343D9DFFDD
100
AcDbEntity
  8
TEXT
100
AcDbPolyline
 90
        2
 70
     0
 43
0.0001332181640625
 10
3.588667597183005
 20
4.709092379036448
 10
3.64861577101113
 20
4.649144205208322
  0
LWPOLYLINE
  5
7DE1B343D9DFEB1
330
7DE1B343D9DFFDD
100
AcDbEntity
  8
TEXT
100
AcDbPolyline
 90
        2
 70
     0
 43
0.0001332181640625
 10
3.588667597183005
 20
4.622500572395821
 10
3.64861577101113
 20
4.612509210091133
  0
LWPOLYLINE
  5
7DE1B343D9DFEB5
330
7DE1B343D9DFFDD
100
AcDbEntity
  8
TEXT
100
AcDbPolyline
 90
        2
 70
     0
 43
0.0001332181640625
 10
3.562023964370507
 20
4.622500572395821
 10
3.635293954604882
 20
4.612509210091133
  0
LWPOLYLINE
  5
7DE1B343D9DFEB9
330
7DE1B343D9DFFDD
100
AcDbEntity
  8
TEXT
100
AcDbPolyline
 90
        2
 70
     0
 43
0.0006660908203125
 10
3.588667597183005
 20
4.582535123177073
 10
3.562023964370507
 20
4.582535123177073
  0
LWPOLYLINE
  5
7DE1B343D9DFEBD
330
7DE1B343D9DFFDD
100
AcDbEntity
  8
TEXT
100
AcDbPolyline
 90
        2
 70
     0
 43
0.0006660908203125
 10
3.588667597183005
 20
4.622500572395821
 10
3.562023964370507
 20
4.622500572395821
  0
LINE
  5
7DE1B343D9DFEC1
330
7DE1B343D9DFFDD
100
AcDbEntity
  8
TEXT
100
AcDbLine
 10
5.077214393497005
 20
4.67145931719218
 30
0.0
 11
4.970008120109715
 21
4.67145931719218
 31
0.0
  0
LINE
  5
7DE1B343D9DFEC2
330
7DE1B343D9DFFDD
100
AcDbEntity
  8
TEXT
100
AcDbLine
 10
5.106245291841483
 20
4.735736011848945
 30
0.0
 11
4.971413382624424
 21
4.735736011848945
 31
0.0
  0
ARC
  5
7DE1B343D9DFEC3
330
7DE1B343D9DFFDD
100
AcDbEntity
  8
TEXT
100
AcDbCircle
 10
5.030727479017741
 20
4.566498762585929
 30
0.0
 40
0.0676855811441166
100
AcDbArc
 50
90.0
 51
153.7768192527749
  0
LWPOLYLINE
  5
7DE1B343D9DFEC4
330
7DE1B343D9DFFDD
100
AcDbEntity
  8
TEXT
100
AcDbPolyline
 90
        2
 70
     0
 43
0.0
 10
4.968975624654905
 20
4.512753923810873
 42
0.2901071551932823
 10
5.012051557522541
 20
4.469262978860434
 42
5.328517124445801
  0
ARC
  5
7DE1B343D9DFEC8
330
7DE1B343D9DFFDD
100
AcDbEntity
  8
TEXT
100
AcDbCircle
 10
4.325596101346255
 20
4.529055370198484
 30
0.0
 40
0.0601160179737537
100
AcDbArc
 50
180.0000000000003
 51
264.0521544866073
  0
LINE
  5
7DE1B343D9DFEC9
330
7DE1B343D9DFFDD
100
AcDbEntity
  8
TEXT
100
AcDbLine
 10
4.329111456971803
 20
4.770123929443084
 30
0.0
 11
4.269068852127796
 21
4.770123929443084
 31
0.0
  0
ARC
  5
7DE1B343D9DFECA
330
7DE1B343D9DFFDD
100
AcDbEntity
  8
TEXT
100
AcDbCircle
 10
4.093337099229285
 20
4.653648552402444
 30
0.0
 40
0.0820874594465043
100
AcDbArc
 50
90.0
 51
270.0
  0
LWPOLYLINE
  5
7DE1B343D9DFECB
330
7DE1B343D9DFFDD
100
AcDbEntity
  8
TEXT
100
AcDbPolyline
 90
        2
 70
     0
 43
0.0001332181640625
 10
3.68525076612832
 20
4.662466021614569
 10
3.67525940382363
 20
4.735736011848949
  0
LWPOLYLINE
  5
7DE1B343D9DFECF
330
7DE1B343D9DFFDD
100
AcDbEntity
  8
TEXT
100
AcDbPolyline
 90
        2
 70
     0
 43
0.0001332181640625
 10
3.67525940382363
 20
4.709092379036448
 10
3.68525076612832
 20
4.649144205208322
  0
LWPOLYLINE
  5
7DE1B343D9DFED3
330
7DE1B343D9DFFDD
100
AcDbEntity
  8
TEXT
100
AcDbPolyline
 90
        3
 70
     0
 43
0.0006660908203125
 10
3.828460292495507
 20
4.622500572395821
 10
3.828460292495507
 20
4.735736011848949
 10
3.715224853042381
 20
4.735736011848949
  0
LWPOLYLINE
  5
7DE1B343D9DFED8
330
7DE1B343D9DFFDD
100
AcDbEntity
  8
TEXT
100
AcDbPolyline
 90
        3
 70
     0
 43
0.0006660908203125
 10
3.801816659683006
 20
4.622500572395821
 10
3.801816659683006
 20
4.709092379036448
 10
3.715224853042381
 20
4.709092379036448
  0
LWPOLYLINE
  5
7DE1B343D9DFEDD
330
7DE1B343D9DFFDD
100
AcDbEntity
  8
TEXT
100
AcDbPolyline
 90
        2
 70
     0
 43
0.0001332181640625
 10
3.801816659683006
 20
4.709092379036448
 10
3.741868485854882
 20
4.649144205208322
  0
LWPOLYLINE
  5
7DE1B343D9DFEE1
330
7DE1B343D9DFFDD
100
AcDbEntity
  8
TEXT
100
AcDbPolyline
 90
        2
 70
     0
 43
0.0001332181640625
 10
3.715224853042381
 20
4.709092379036448
 10
3.705233490737692
 20
4.649144205208322
  0
LWPOLYLINE
  5
7DE1B343D9DFEE5
330
7DE1B343D9DFFDD
100
AcDbEntity
  8
TEXT
100
AcDbPolyline
 90
        2
 70
     0
 43
0.0001332181640625
 10
3.715224853042381
 20
4.735736011848949
 10
3.705233490737692
 20
4.662466021614569
  0
LWPOLYLINE
  5
7DE1B343D9DFEE9
330
7DE1B343D9DFFDD
100
AcDbEntity
  8
TEXT
100
AcDbPolyline
 90
        2
 70
     0
 43
0.0001332181640625
 10
3.755190302261131
 20
4.612509210091133
 10
3.828460292495507
 20
4.622500572395821
  0
LWPOLYLINE
  5
7DE1B343D9DFEED
330
7DE1B343D9DFFDD
100
AcDbEntity
  8
TEXT
100
AcDbPolyline
 90
        2
 70
     0
 43
0.0001332181640625
 10
3.801816659683006
 20
4.622500572395821
 10
3.741868485854882
 20
4.612509210091133
  0
LWPOLYLINE
  5
7DE1B343D9DFEF1
330
7DE1B343D9DFFDD
100
AcDbEntity
  8
TEXT
100
AcDbPolyline
 90
        2
 70
     0
 43
0.0001332181640625
 10
3.828460292495507
 20
4.582535123177073
 10
3.755190302261131
 20
4.592526485481759
  0
LWPOLYLINE
  5
7DE1B343D9DFEF5
330
7DE1B343D9DFFDD
100
AcDbEntity
  8
TEXT
100
AcDbPolyline
 90
        2
 70
     0
 43
0.0001332181640625
 10
3.801816659683006
 20
4.582535123177073
 10
3.741868485854882
 20
4.592526485481759
  0
LWPOLYLINE
  5
7DE1B343D9DFEF9
330
7DE1B343D9DFFDD
100
AcDbEntity
  8
TEXT
100
AcDbPolyline
 90
        2
 70
     0
 43
0.0001332181640625
 10
3.801816659683006
 20
4.495943316536447
 10
3.741868485854882
 20
4.555891490364572
  0
LWPOLYLINE
  5
7DE1B343D9DFEFD
330
7DE1B343D9DFFDD
100
AcDbEntity
  8
TEXT
100
AcDbPolyline
 90
        3
 70
     0
 43
0.0006660908203125
 10
3.715224853042381
 20
4.495943316536447
 10
3.801816659683006
 20
4.495943316536447
 10
3.801816659683006
 20
4.582535123177073
  0
LWPOLYLINE
  5
7DE1B343D9DFF02
330
7DE1B343D9DFFDD
100
AcDbEntity
  8
TEXT
100
AcDbPolyline
 90
        3
 70
     0
 43
0.0006660908203125
 10
3.715224853042381
 20
4.469299683723946
 10
3.828460292495507
 20
4.469299683723946
 10
3.828460292495507
 20
4.582535123177073
  0
LWPOLYLINE
  5
7DE1B343D9DFF07
330
7DE1B343D9DFFDD
100
AcDbEntity
  8
TEXT
100
AcDbPolyline
 90
        5
 70
     0
 43
0.0001332181640625
 10
3.68525076612832
 20
4.542569673958322
 10
3.68525076612832
 20
4.555891490364572
 10
3.648615771011132
 20
4.555891490364572
 10
3.648615771011132
 20
4.592526485481759
 10
3.635293954604882
 20
4.592526485481759
  0
LWPOLYLINE
  5
7DE1B343D9DFF0E
330
7DE1B343D9DFFDD
100
AcDbEntity
  8
TEXT
100
AcDbPolyline
 90
        2
 70
     0
 43
0.0006660908203125
 10
3.67525940382363
 20
4.495943316536447
 10
3.67525940382363
 20
4.469299683723946
  0
LWPOLYLINE
  5
7DE1B343D9DFF12
330
7DE1B343D9DFFDD
100
AcDbEntity
  8
TEXT
100
AcDbPolyline
 90
        2
 70
     0
 43
0.0001332181640625
 10
3.67525940382363
 20
4.495943316536447
 10
3.68525076612832
 20
4.555891490364572
  0
LWPOLYLINE
  5
7DE1B343D9DFF16
330
7DE1B343D9DFFDD
100
AcDbEntity
  8
TEXT
100
AcDbPolyline
 90
        2
 70
     0
 43
0.0001332181640625
 10
3.67525940382363
 20
4.469299683723946
 10
3.68525076612832
 20
4.542569673958322
  0
LWPOLYLINE
  5
7DE1B343D9DFF1A
330
7DE1B343D9DFFDD
100
AcDbEntity
  8
TEXT
100
AcDbPolyline
 90
        5
 70
     0
 43
0.0001332181640625
 10
3.635293954604882
 20
4.612509210091133
 10
3.64861577101113
 20
4.612509210091133
 10
3.64861577101113
 20
4.649144205208322
 10
3.68525076612832
 20
4.649144205208322
 10
3.68525076612832
 20
4.662466021614569
  0
LWPOLYLINE
  5
7DE1B343D9DFF21
330
7DE1B343D9DFFDD
100
AcDbEntity
  8
TEXT
100
AcDbPolyline
 90
        5
 70
     0
 43
0.0001332181640625
 10
3.705233490737692
 20
4.662466021614569
 10
3.705233490737692
 20
4.649144205208322
 10
3.741868485854882
 20
4.649144205208322
 10
3.741868485854882
 20
4.612509210091133
 10
3.755190302261131
 20
4.612509210091133
  0
LWPOLYLINE
  5
7DE1B343D9DFF28
330
7DE1B343D9DFFDD
100
AcDbEntity
  8
TEXT
100
AcDbPolyline
 90
        2
 70
     0
 43
0.0001332181640625
 10
3.715224853042381
 20
4.495943316536447
 10
3.705233490737692
 20
4.555891490364572
  0
LWPOLYLINE
  5
7DE1B343D9DFF2C
330
7DE1B343D9DFFDD
100
AcDbEntity
  8
TEXT
100
AcDbPolyline
 90
        2
 70
     0
 43
0.0001332181640625
 10
3.705233490737692
 20
4.542569673958322
 10
3.715224853042381
 20
4.469299683723946
  0
LWPOLYLINE
  5
7DE1B343D9DFF30
330
7DE1B343D9DFFDD
100
AcDbEntity
  8
TEXT
100
AcDbPolyline
 90
        2
 70
     0
 43
0.0006660908203125
 10
3.715224853042381
 20
4.495943316536447
 10
3.715224853042381
 20
4.469299683723946
  0
LWPOLYLINE
  5
7DE1B343D9DFF34
330
7DE1B343D9DFFDD
100
AcDbEntity
  8
TEXT
100
AcDbPolyline
 90
        5
 70
     0
 43
0.0001332181640625
 10
3.755190302261131
 20
4.592526485481759
 10
3.741868485854882
 20
4.592526485481759
 10
3.741868485854882
 20
4.555891490364572
 10
3.705233490737692
 20
4.555891490364572
 10
3.705233490737692
 20
4.542569673958322
  0
LWPOLYLINE
  5
7DE1B343D9DFF3B
330
7DE1B343D9DFFDD
100
AcDbEntity
  8
TEXT
100
AcDbPolyline
 90
        2
 70
     0
 43
0.0006660908203125
 10
3.801816659683006
 20
4.622500572395821
 10
3.828460292495507
 20
4.622500572395821
  0
LWPOLYLINE
  5
7DE1B343D9DFF3F
330
7DE1B343D9DFFDD
100
AcDbEntity
  8
TEXT
100
AcDbPolyline
 90
        2
 70
     0
 43
0.0006660908203125
 10
3.801816659683006
 20
4.582535123177073
 10
3.828460292495507
 20
4.582535123177073
  0
LINE
  5
7DE1B343D9DFF43
330
7DE1B343D9DFFDD
100
AcDbEntity
  8
TEXT
100
AcDbLine
 10
4.098574429343532
 20
4.67145931719218
 30
0.0
 11
4.265480083372503
 21
4.67145931719218
 31
0.0
  0
LINE
  5
7DE1B343D9DFF44
330
7DE1B343D9DFFDD
100
AcDbEntity
  8
TEXT
100
AcDbLine
 10
4.164174565587833
 20
4.635654595581552
 30
0.0
 11
4.098574429343532
 21
4.635654595581552
 31
0.0
  0
LINE
  5
7DE1B343D9DFF45
330
7DE1B343D9DFFDD
100
AcDbEntity
  8
TEXT
100
AcDbLine
 10
4.01124963978278
 20
4.469262978860434
 30
0.0
 11
4.164174565587833
 21
4.469262978860434
 31
0.0
  0
LINE
  5
7DE1B343D9DFF46
330
7DE1B343D9DFFDD
100
AcDbEntity
  8
TEXT
100
AcDbLine
 10
4.169114939494113
 20
4.537619985193874
 30
0.0
 11
4.011249639782779
 21
4.537619985193874
 31
0.0
  0
LINE
  5
7DE1B343D9DFF47
330
7DE1B343D9DFFDD
100
AcDbEntity
  8
TEXT
100
AcDbLine
 10
4.093337099229284
 20
4.571561092955938
 30
0.0
 11
4.169114939494113
 21
4.571561092955938
 31
0.0
  0
ARC
  5
7DE1B343D9DFF48
330
7DE1B343D9DFFDD
100
AcDbEntity
  8
TEXT
100
AcDbCircle
 10
4.098574429343533
 20
4.653556956386868
 30
0.0
 40
0.017902360805315
100
AcDbArc
 50
90.0
 51
270.0
  0
LINE
  5
7DE1B343D9DFF49
330
7DE1B343D9DFFDD
100
AcDbEntity
  8
TEXT
100
AcDbLine
 10
4.011249639782779
 20
4.537619985193874
 30
0.0
 11
4.01124963978278
 21
4.469262978860434
 31
0.0
  0
LINE
  5
7DE1B343D9DFF4A
330
7DE1B343D9DFFDD
100
AcDbEntity
  8
TEXT
100
AcDbLine
 10
4.265480083372503
 20
4.67145931719218
 30
0.0
 11
4.265480083372503
 21
4.529055370198484
 31
0.0
  0
ARC
  5
7DE1B343D9DFF4B
330
7DE1B343D9DFFDD
100
AcDbEntity
  8
TEXT
100
AcDbCircle
 10
4.164174565587834
 20
4.552458787220992
 30
0.0
 40
0.0831958083605586
100
AcDbArc
 50
270.0
 51
90.0
  0
ARC
  5
7DE1B343D9DFF4C
330
7DE1B343D9DFFDD
100
AcDbEntity
  8
TEXT
100
AcDbCircle
 10
4.169114939494114
 20
4.554590539074908
 30
0.0
 40
0.0169705538810321
100
AcDbArc
 50
270.0
 51
90.0
  0
LWPOLYLINE
  5
7DE1B343D9DFF4D
330
7DE1B343D9DFFDD
100
AcDbEntity
  8
TEXT
100
AcDbPolyline
 90
        2
 70
     0
 43
0.0006660908203125
 10
3.67525940382363
 20
4.709092379036448
 10
3.67525940382363
 20
4.735736011848949
  0
LWPOLYLINE
  5
7DE1B343D9DFF51
330
7DE1B343D9DFFDD
100
AcDbEntity
  8
TEXT
100
AcDbPolyline
 90
        2
 70
     0
 43
0.0006660908203125
 10
3.715224853042381
 20
4.709092379036448
 10
3.715224853042381
 20
4.735736011848949
  0
LINE
  5
7DE1B343D9DFF55
330
7DE1B343D9DFFDD
100
AcDbEntity
  8
TEXT
100
AcDbLine
 10
4.269068852127796
 20
4.735736011848945
 30
0.0
 11
4.093337099229284
 21
4.735736011848945
 31
0.0
  0
LINE
  5
7DE1B343D9DFF56
330
7DE1B343D9DFFDD
100
AcDbEntity
  8
TEXT
100
AcDbLine
 10
4.269068852127796
 20
4.770123929443084
 30
0.0
 11
4.269068852127796
 21
4.735736011848945
 31
0.0
  0
LINE
  5
7DE1B343D9DFF57
330
7DE1B343D9DFFDD
100
AcDbEntity
  8
TEXT
100
AcDbLine
 10
4.459540744147648
 20
4.634864015735825
 30
0.0
 11
4.400910423115711
 21
4.735736011848945
 31
0.0
  0
LINE
  5
7DE1B343D9DFF58
330
7DE1B343D9DFFDD
100
AcDbEntity
  8
TEXT
100
AcDbLine
 10
4.518289306953514
 20
4.735736011848945
 30
0.0
 11
4.459540744147648
 21
4.634864015735825
 31
0.0
  0
LINE
  5
7DE1B343D9DFF59
330
7DE1B343D9DFFDD
100
AcDbEntity
  8
TEXT
100
AcDbLine
 10
4.615219932313255
 20
4.551650816963434
 30
0.0
 11
4.615219932313255
 21
4.803747489587756
 31
0.0
  0
LINE
  5
7DE1B343D9DFF5A
330
7DE1B343D9DFFDD
100
AcDbEntity
  8
TEXT
100
AcDbLine
 10
4.647531786450915
 20
4.735736011848945
 30
0.0
 11
4.647531786450915
 21
4.534871805116537
 31
0.0
  0
LINE
  5
7DE1B343D9DFF5B
330
7DE1B343D9DFFDD
100
AcDbEntity
  8
TEXT
100
AcDbLine
 10
4.647531786450915
 20
4.534871805116537
 30
0.0
 11
4.630538149566314
 21
4.534871805116537
 31
0.0
  0
LINE
  5
7DE1B343D9DFF5C
330
7DE1B343D9DFFDD
100
AcDbEntity
  8
TEXT
100
AcDbLine
 10
4.61635950580945
 20
4.469262978860434
 30
0.0
 11
4.714362839508885
 21
4.469262978860434
 31
0.0
  0
LINE
  5
7DE1B343D9DFF5D
330
7DE1B343D9DFFDD
100
AcDbEntity
  8
TEXT
100
AcDbLine
 10
4.449940507150694
 20
4.489221484965447
 30
0.0
 11
4.547240213244139
 21
4.653571695900716
 31
0.0
  0
ARC
  5
7DE1B343D9DFF5E
330
7DE1B343D9DFFDD
100
AcDbEntity
  8
TEXT
100
AcDbCircle
 10
4.41589694723848
 20
4.50881070113413
 30
0.0
 40
0.0392772371940762
100
AcDbArc
 50
270.1604552698595
 51
330.0831797321295
  0
LINE
  5
7DE1B343D9DFF5F
330
7DE1B343D9DFFDD
100
AcDbEntity
  8
TEXT
100
AcDbLine
 10
4.319366690852609
 20
4.469262978860434
 30
0.0
 11
4.416006941927603
 21
4.469533617958717
 31
0.0
  0
LWPOLYLINE
  5
7DE1B343D9DFF60
330
7DE1B343D9DFFDD
100
AcDbEntity
  8
TEXT
100
AcDbPolyline
 90
        6
 70
     1
 43
0.0
 10
4.361890494427759
 20
4.67145931719218
 10
4.33157390020755
 20
4.67145931719218
 10
4.33157390020755
 20
4.548348319137286
 42
0.407328721240804
 10
4.343117551369027
 20
4.5365294044609
 10
4.403739250413758
 20
4.5365294044609
 10
4.421204590821075
 20
4.569341633504379
  0
LINE
  5
7DE1B343D9DFF68
330
7DE1B343D9DFFDD
100
AcDbEntity
  8
TEXT
100
AcDbLine
 10
4.547240213244139
 20
4.653571695900716
 30
0.0
 11
4.547240213244139
 21
4.520814321075359
 31
0.0
  0
ARC
  5
7DE1B343D9DFF69
330
7DE1B343D9DFFDD
100
AcDbEntity
  8
TEXT
100
AcDbCircle
 10
4.630538149566312
 20
4.550253611359963
 30
0.0
 40
0.0153818062434269
100
AcDbArc
 50
174.7883570302258
 51
270.0
  0
LWPOLYLINE
  5
7DE1B343D9DFF6A
330
7DE1B343D9DFFDD
100
AcDbEntity
  8
TEXT
100
AcDbPolyline
 90
        2
 70
     0
 43
0.0
 10
4.547240213244137
 20
4.520814321075363
 42
0.3318488747599744
 10
4.61635950580945
 20
4.469262978860434
 42
-6.868794160588311
  0
LINE
  5
7DE1B343D9DFF6E
330
7DE1B343D9DFFDD
100
AcDbEntity
  8
TEXT
100
AcDbLine
 10
4.771751908498146
 20
4.469262978860434
 30
0.0
 11
4.838809955279986
 21
4.469262978860434
 31
0.0
  0
LINE
  5
7DE1B343D9DFF6F
330
7DE1B343D9DFFDD
100
AcDbEntity
  8
TEXT
100
AcDbLine
 10
4.771751908498146
 20
4.66390552802607
 30
0.0
 11
4.771751908498146
 21
4.469262978860434
 31
0.0
  0
LINE
  5
7DE1B343D9DFF70
330
7DE1B343D9DFFDD
100
AcDbEntity
  8
TEXT
100
AcDbLine
 10
4.714362839508885
 20
4.67145931719218
 30
0.0
 11
4.764198119332032
 21
4.67145931719218
 31
0.0
  0
LINE
  5
7DE1B343D9DFF71
330
7DE1B343D9DFFDD
100
AcDbEntity
  8
TEXT
100
AcDbLine
 10
4.714362839508885
 20
4.469262978860434
 30
0.0
 11
4.714362839508885
 21
4.67145931719218
 31
0.0
  0
LWPOLYLINE
  5
7DE1B343D9DFF72
330
7DE1B343D9DFFDD
100
AcDbEntity
  8
TEXT
100
AcDbPolyline
 90
        2
 70
     0
 43
0.0
 10
4.76419811933203
 20
4.67145931719218
 42
-0.4142135623731017
 10
4.771751908498144
 20
4.66390552802607
 42
-0.9999999999999998
  0
LINE
  5
7DE1B343D9DFF76
330
7DE1B343D9DFFDD
100
AcDbEntity
  8
TEXT
100
AcDbLine
 10
4.970008120109715
 20
4.67145931719218
 30
0.0
 11
4.970008120109715
 21
4.596406911117973
 31
0.0
  0
LINE
  5
7DE1B343D9DFF77
330
7DE1B343D9DFFDD
100
AcDbEntity
  8
TEXT
100
AcDbLine
 10
4.838809955279986
 20
4.67145931719218
 30
0.0
 11
4.892943552200936
 21
4.67145931719218
 31
0.0
  0
LINE
  5
7DE1B343D9DFF78
330
7DE1B343D9DFFDD
100
AcDbEntity
  8
TEXT
100
AcDbLine
 10
4.838809955279986
 20
4.469262978860434
 30
0.0
 11
4.838809955279986
 21
4.67145931719218
 31
0.0
  0
LWPOLYLINE
  5
7DE1B343D9DFF79
330
7DE1B343D9DFFDD
100
AcDbEntity
  8
TEXT
100
AcDbPolyline
 90
        2
 70
     0
 43
0.0
 10
4.892943552200934
 20
4.67145931719218
 42
-0.4142135623731017
 10
4.900497341367048
 20
4.66390552802607
 42
-0.9999999999999998
  0
LWPOLYLINE
  5
7DE1B343D9DFF7D
330
7DE1B343D9DFFDD
100
AcDbEntity
  8
TEXT
100
AcDbPolyline
 90
        4
 70
     0
 43
0.0
 10
4.900497341367048
 20
4.66390552802607
 10
4.900497341367048
 20
4.469262978860434
 10
4.968975624654905
 20
4.469262978860434
 10
4.968975624654905
 20
4.512753923810873
 42
-1.714843617202739
  0
LINE
  5
7DE1B343D9DFF83
330
7DE1B343D9DFFDD
100
AcDbEntity
  8
TEXT
100
AcDbLine
 10
4.329111456971803
 20
4.735736011848945
 30
0.0
 11
4.329111456971803
 21
4.770123929443084
 31
0.0
  0
LINE
  5
7DE1B343D9DFF84
330
7DE1B343D9DFFDD
100
AcDbEntity
  8
TEXT
100
AcDbLine
 10
4.400910423115711
 20
4.735736011848945
 30
0.0
 11
4.329111456971803
 21
4.735736011848945
 31
0.0
  0
LINE
  5
7DE1B343D9DFF85
330
7DE1B343D9DFFDD
100
AcDbEntity
  8
TEXT
100
AcDbLine
 10
4.54841121974689
 20
4.735736011848945
 30
0.0
 11
4.518289306953514
 21
4.735736011848945
 31
0.0
  0
LINE
  5
7DE1B343D9DFF86
330
7DE1B343D9DFFDD
100
AcDbEntity
  8
TEXT
100
AcDbLine
 10
4.54841121974689
 20
4.803747489587756
 30
0.0
 11
4.54841121974689
 21
4.735736011848945
 31
0.0
  0
LINE
  5
7DE1B343D9DFF87
330
7DE1B343D9DFFDD
100
AcDbEntity
  8
TEXT
100
AcDbLine
 10
4.615219932313255
 20
4.803747489587756
 30
0.0
 11
4.54841121974689
 21
4.803747489587756
 31
0.0
  0
LWPOLYLINE
  5
7DE1B343D9DFF88
330
7DE1B343D9DFFDD
100
AcDbEntity
  8
TEXT
100
AcDbPolyline
 90
        3
 70
     0
 43
0.0
 10
4.935631691911257
 20
4.735736011848949
 10
4.817331533095213
 20
4.735736011848949
 10
4.817331533095213
 20
4.708568515088053
 42
-1.960274751411753
  0
LINE
  5
7DE1B343D9DFF8D
330
7DE1B343D9DFFDD
100
AcDbEntity
  8
TEXT
100
AcDbLine
 10
4.781549842382052
 20
4.735736011848945
 30
0.0
 11
4.647531786450915
 21
4.735736011848945
 31
0.0
  0
LWPOLYLINE
  5
7DE1B343D9DFF8E
330
7DE1B343D9DFFDD
100
AcDbEntity
  8
TEXT
100
AcDbPolyline
 90
        2
 70
     0
 43
0.0
 10
4.781549842382052
 20
4.735736011848949
 42
-0.3328679258950098
 10
4.817331533095213
 20
4.708568515088053
 42
6.772930709997214
  0
LINE
  5
7DE1B343D9DFF92
330
7DE1B343D9DFFDD
100
AcDbEntity
  8
TEXT
100
AcDbLine
 10
4.971413382624424
 20
4.735736011848945
 30
0.0
 11
4.971413382624424
 21
4.707413466079302
 31
0.0
  0
LWPOLYLINE
  5
7DE1B343D9DFF93
330
7DE1B343D9DFFDD
100
AcDbEntity
  8
TEXT
100
AcDbPolyline
 90
        2
 70
     0
 43
0.0
 10
4.935631691911257
 20
4.735736011848949
 42
-0.3277054968067132
 10
4.971413382624422
 20
4.707413466079305
 42
6.667889725900311
  0
LINE
  5
7DE1B343D9DFF97
330
7DE1B343D9DFFDD
100
AcDbEntity
  8
TEXT
100
AcDbLine
 10
5.185205230716524
 20
4.630524033295518
 30
0.0
 11
5.141454459534623
 21
4.712774309291663
 31
0.0
  0
LINE
  5
7DE1B343D9DFF98
330
7DE1B343D9DFFDD
100
AcDbEntity
  8
TEXT
100
AcDbLine
 10
5.185205230716524
 20
4.735736011848945
 30
0.0
 11
5.185205230716524
 21
4.630524033295518
 31
0.0
  0
LINE
  5
7DE1B343D9DFF99
330
7DE1B343D9DFFDD
100
AcDbEntity
  8
TEXT
100
AcDbLine
 10
5.412888969654893
 20
4.659870685437407
 30
0.0
 11
5.412888969654893
 21
4.801200217616546
 31
0.0
  0
LINE
  5
7DE1B343D9DFF9A
330
7DE1B343D9DFFDD
100
AcDbEntity
  8
TEXT
100
AcDbLine
 10
5.459987128210878
 20
4.735736011848945
 30
0.0
 11
5.412888969654893
 21
4.659870685437407
 31
0.0
  0
LINE
  5
7DE1B343D9DFF9B
330
7DE1B343D9DFFDD
100
AcDbEntity
  8
TEXT
100
AcDbLine
 10
5.470421844974801
 20
4.625842768907972
 30
0.0
 11
5.534978960940506
 21
4.735736011848945
 31
0.0
  0
LINE
  5
7DE1B343D9DFF9C
330
7DE1B343D9DFFDD
100
AcDbEntity
  8
TEXT
100
AcDbLine
 10
5.34905397843212
 20
4.469262978860434
 30
0.0
 11
5.413432162750741
 21
4.469262978860434
 31
0.0
  0
LWPOLYLINE
  5
7DE1B343D9DFF9D
330
7DE1B343D9DFFDD
100
AcDbEntity
  8
TEXT
100
AcDbPolyline
 90
        2
 70
     0
 43
0.0
 10
5.189144908021562
 20
4.512753923810873
 42
-0.2901071551932486
 10
5.146068975153918
 20
4.469262978860434
 42
-5.328517124445184
  0
ARC
  5
7DE1B343D9DFFA1
330
7DE1B343D9DFFDD
100
AcDbEntity
  8
TEXT
100
AcDbCircle
 10
5.077214393497003
 20
4.643099942192183
 30
0.0
 40
0.028359375
100
AcDbArc
 50
25.78218179591245
 51
90.0
  0
LINE
  5
7DE1B343D9DFFA2
330
7DE1B343D9DFFDD
100
AcDbEntity
  8
TEXT
100
AcDbLine
 10
5.113015468801126
 20
4.634184343730048
 30
0.0
 11
5.102750708387562
 21
4.655434883302742
 31
0.0
  0
LINE
  5
7DE1B343D9DFFA3
330
7DE1B343D9DFFDD
100
AcDbEntity
  8
TEXT
100
AcDbLine
 10
5.030727479017743
 20
4.634184343730048
 30
0.0
 11
5.113015468801126
 21
4.634184343730048
 31
0.0
  0
LWPOLYLINE
  5
7DE1B343D9DFFA4
330
7DE1B343D9DFFDD
100
AcDbEntity
  8
TEXT
100
AcDbPolyline
 90
        4
 70
     1
 43
0.0
 10
5.125946510084025
 20
4.57222695684446
 10
5.037286191424167
 20
4.57222695684446
 42
0.9999999999999998
 10
5.037286191424167
 20
4.529828416340599
 10
5.125946510084025
 20
4.529828416340599
 42
1.0
  0
LWPOLYLINE
  5
7DE1B343D9DFFAA
330
7DE1B343D9DFFDD
100
AcDbEntity
  8
TEXT
100
AcDbPolyline
 90
        2
 70
     0
 43
0.0
 10
5.012051557522541
 20
4.469262978860434
 10
5.146068975153918
 20
4.469262978860434
 42
0.9999999999999998
  0
LINE
  5
7DE1B343D9DFFAE
330
7DE1B343D9DFFDD
100
AcDbEntity
  8
TEXT
100
AcDbLine
 10
5.272405997139557
 20
4.67145931719218
 30
0.0
 11
5.349053978432115
 21
4.67145931719218
 31
0.0
  0
LINE
  5
7DE1B343D9DFFAF
330
7DE1B343D9DFFDD
100
AcDbEntity
  8
TEXT
100
AcDbLine
 10
5.349053978432115
 20
4.67145931719218
 30
0.0
 11
5.34905397843212
 21
4.469262978860434
 31
0.0
  0
ARC
  5
7DE1B343D9DFFB0
330
7DE1B343D9DFFDD
100
AcDbEntity
  8
TEXT
100
AcDbCircle
 10
5.272405997139555
 20
4.646553441909517
 30
0.0
 40
0.0249058752826653
100
AcDbArc
 50
89.99971217465335
 51
179.9999999999985
  0
LINE
  5
7DE1B343D9DFFB1
330
7DE1B343D9DFFDD
100
AcDbEntity
  8
TEXT
100
AcDbLine
 10
5.247500121856898
 20
4.469262978860434
 30
0.0
 11
5.247500121856893
 21
4.646553484291903
 31
0.0
  0
LWPOLYLINE
  5
7DE1B343D9DFFB2
330
7DE1B343D9DFFDD
100
AcDbEntity
  8
TEXT
100
AcDbPolyline
 90
        2
 70
     0
 43
0.0
 10
5.189144908021562
 20
4.469262978860434
 10
5.247500121856896
 20
4.469262978860434
  0
LWPOLYLINE
  5
7DE1B343D9DFFB6
330
7DE1B343D9DFFDD
100
AcDbEntity
  8
TEXT
100
AcDbPolyline
 90
        2
 70
     0
 43
0.0
 10
5.189144908021562
 20
4.512753923810873
 10
5.189144908021562
 20
4.469262978860434
  0
LINE
  5
7DE1B343D9DFFBA
330
7DE1B343D9DFFDD
100
AcDbEntity
  8
TEXT
100
AcDbLine
 10
5.565914068338411
 20
4.469262978860434
 30
0.0
 11
5.470421844974801
 21
4.625842768907972
 31
0.0
  0
LINE
  5
7DE1B343D9DFFBB
330
7DE1B343D9DFFDD
100
AcDbEntity
  8
TEXT
100
AcDbLine
 10
5.489335695962205
 20
4.469262978860434
 30
0.0
 11
5.565914068338411
 21
4.469262978860434
 31
0.0
  0
LINE
  5
7DE1B343D9DFFBC
330
7DE1B343D9DFFDD
100
AcDbEntity
  8
TEXT
100
AcDbLine
 10
5.413432162750741
 20
4.600842547336615
 30
0.0
 11
5.489335695962205
 21
4.469262978860434
 31
0.0
  0
LINE
  5
7DE1B343D9DFFBD
330
7DE1B343D9DFFDD
100
AcDbEntity
  8
TEXT
100
AcDbLine
 10
5.413432162750741
 20
4.469262978860434
 30
0.0
 11
5.413432162750741
 21
4.600842547336615
 31
0.0
  0
LINE
  5
7DE1B343D9DFFBE
330
7DE1B343D9DFFDD
100
AcDbEntity
  8
TEXT
100
AcDbLine
 10
5.412888969654893
 20
4.801200217616546
 30
0.0
 11
5.34457409110562
 21
4.801200217616546
 31
0.0
  0
ARC
  5
7DE1B343D9DFFBF
330
7DE1B343D9DFFDD
100
AcDbEntity
  8
TEXT
100
AcDbCircle
 10
5.104218352064414
 20
4.694152444728043
 30
0.0
 40
0.0416329381542859
100
AcDbArc
 50
26.56974201007528
 51
87.20939649401342
  0
LINE
  5
7DE1B343D9DFFC0
330
7DE1B343D9DFFDD
100
AcDbEntity
  8
TEXT
100
AcDbLine
 10
5.249102137016025
 20
4.735736011848945
 30
0.0
 11
5.185205230716524
 21
4.735736011848945
 31
0.0
  0
LINE
  5
7DE1B343D9DFFC1
330
7DE1B343D9DFFDD
100
AcDbEntity
  8
TEXT
100
AcDbLine
 10
5.249102137016025
 20
4.708188361988071
 30
0.0
 11
5.249102137016025
 21
4.735736011848945
 31
0.0
  0
ARC
  5
7DE1B343D9DFFC2
330
7DE1B343D9DFFDD
100
AcDbEntity
  8
TEXT
100
AcDbCircle
 10
5.280294954079133
 20
4.704490284566681
 30
0.0
 40
0.0314112657011332
100
AcDbArc
 50
95.88484768694724
 51
173.2388340632136
  0
LINE
  5
7DE1B343D9DFFC3
330
7DE1B343D9DFFDD
100
AcDbEntity
  8
TEXT
100
AcDbLine
 10
5.344574091105615
 20
4.735736011848945
 30
0.0
 11
5.277074373456098
 21
4.735736011848945
 31
0.0
  0
LINE
  5
7DE1B343D9DFFC4
330
7DE1B343D9DFFDD
100
AcDbEntity
  8
TEXT
100
AcDbLine
 10
5.34457409110562
 20
4.801200217616546
 30
0.0
 11
5.344574091105615
 21
4.735736011848945
 31
0.0
  0
LINE
  5
7DE1B343D9DFFC5
330
7DE1B343D9DFFDD
100
AcDbEntity
  8
TEXT
100
AcDbLine
 10
5.534978960940506
 20
4.735736011848945
 30
0.0
 11
5.45998712821088
 21
4.735736011848945
 31
0.0
  0
INSERT
  5
7DE1B343D9DFFF8
330
7DE1B343D9DFFDD
100
AcDbEntity
  8
ASHADE
 62
     1
100
AcDbBlockReference
  2
AVE_RENDER
 10
0.0
 20
0.0
 30
0.0
1001
AVE_RENDER
1002
{
1070
     6
1000
Pref
1070
    30
1070
    20
1070
     1
1070
     0
1000

1070
    10
1070
     1
1070
    30
1040
1.0
1070
     1
1040
0.3
1040
0.7
1040
0.0
1040
10.0
1010
-1.0
1020
-1.0
1030
-1.0
1040
0.3
1070
    49
1070
     0
1070
     0
1010
1.0
1020
1.0
1030
1.0
1040
45.0
1070
     1
1070
     0
1000
WCS
1040
0.0
1002
}
  0
INSERT
  5
7DE1B343D9DFFF9
330
7DE1B343D9DFFDD
100
AcDbEntity
  8
ASHADE
 62
     3
100
AcDbBlockReference
  2
AVE_RENDER
 10
0.0
 20
0.0
 30
0.0
1001
AVE_RENDER
1002
{
1070
     0
1000
Full Opt
1070
     0
1070
     1
1070
     1
1070
     1
1070
     0
1070
     0
1070
     0
1070
     1
1070
     1
1040
0.0001
1040
0.0001
1002
}
  0
INSERT
  5
7DE1B343D9DFFFA
330
7DE1B343D9DFFDD
100
AcDbEntity
  8
ASHADE
 62
     4
100
AcDbBlockReference
  2
AVE_RENDER
 10
0.0
 20
0.0
 30
0.0
1001
AVE_RENDER
1002
{
1070
     0
1000
Quick Opt
1070
     0
1070
     1
1070
     1
1070
     1
1070
     0
1070
     0
1070
     1
1002
}
  0
INSERT
  5
7DE1B343D9DFFFB
330
7DE1B343D9DFFDD
100
AcDbEntity
  8
ASHADE
 62
     5
100
AcDbBlockReference
  2
AVE_RENDER
 10
0.0
 20
0.0
 30
0.0
1001
AVE_RENDER
1002
{
1070
     1
1000
Scanl Opt
1070
     2
1070
     0
1070
     2
1040
2.0
1040
4.0
1070
     0
1070
     1
1070
     0
1040
0.03
1002
}
  0
INSERT
  5
7DE1B343D9DFFFC
330
7DE1B343D9DFFDD
100
AcDbEntity
  8
ASHADE
 62
     6
100
AcDbBlockReference
  2
AVE_RENDER
 10
0.0
 20
0.0
 30
0.0
1001
AVE_RENDER
1002
{
1070
     2
1000
Raytr Opt
1070
     2
1070
     0
1070
     2
1040
2.0
1040
4.0
1070
     0
1070
     1
1070
     1
1040
0.03
1070
     3
1040
0.03
1002
}
  0
INSERT
  5
7DE1B343D9DFFFD
330
7DE1B343D9DFFDD
100
AcDbEntity
  8
ASHADE
 62
     7
100
AcDbBlockReference
  2
AVE_RENDER
 10
0.0
 20
0.0
 30
0.0
1001
AVE_RENDER
1002
{
1070
     0
1000
RFile Opt
1070
     5
1070
   640
1070
   480
1070
 10000
1070
     3
1070
    32
1070
    24
1070
     0
1070
     0
1070
     0
1070
     1
1070
     0
1070
     0
1070
     0
1002
}
  0
INSERT
  5
7DE1B343D9DFFFE
330
7DE1B343D9DFFDD
100
AcDbEntity
  8
ASHADE
 62
     8
100
AcDbBlockReference
  2
AVE_RENDER
 10
0.0
 20
0.0
 30
0.0
1001
AVE_RENDER
1002
{
1070
     0
1000
Fog Opt
1070
     0
1070
     0
1040
0.0
1040
1.0
1040
0.0
1040
1.0
1010
0.5
1020
0.5
1030
0.5
1002
}
  0
INSERT
  5
7DE1B343D9DFFFF
330
7DE1B343D9DFFDD
100
AcDbEntity
  8
ASHADE
 62
     9
100
AcDbBlockReference
  2
AVE_RENDER
 10
0.0
 20
0.0
 30
0.0
1001
AVE_RENDER
1002
{
1070
     0
1000
BG Opt
1070
     0
1070
     1
1010
0.0
1020
0.0
1030
0.0
1010
1.0
1020
0.0
1030
0.0
1010
0.0
1020
1.0
1030
0.0
1010
0.0
1020
0.0
1030
1.0
1040
0.5
1040
0.33
1040
0.0
1000

1070
     1
1000

1070
     1
1070
     1
1040
1.0
1040
1.0
1040
0.0
1040
0.0
1070
     0
1002
}
  0
INSERT
  5
7DE1B343D9E0006
330
7DE1B343D9DFFDD
100
AcDbEntity
  8
ASHADE
 62
     1
100
AcDbBlockReference
  2
AVE_GLOBAL
 10
0.0
 20
0.0
 30
0.0
1001
AVE_MATERIAL
1002
{
1000
*GLOBAL*
1000
1
1000
Global finish.
1002
{
1002
}
1002
{
1070
    63
1002
{
1002
{
1010
-1.0
1020
-1.0
1030
-1.0
1002
}
1040
0.1000000014901161
1000

1040
0.0
1002
{
1002
}
1040
0.0
1002
{
1002
}
1040
0.0
1002
}
1002
{
1002
{
1010
-1.0
1020
-1.0
1030
-1.0
1002
}
1040
0.6999999880790711
1000

1040
0.0
1002
{
1002
}
1040
0.0
1002
{
1002
}
1040
0.0
1002
}
1002
{
1002
{
1010
-1.0
1020
-1.0
1030
-1.0
1002
}
1040
0.2000000029802322
1000

1040
0.0
1002
{
1002
}
1040
0.0
1002
{
1002
}
1040
0.0
1002
}
1002
{
1070
     0
1002
{
1070
     1
1002
{
1040
1.0
1040
1.0
1000

1040
0.0
1002
{
1002
}
1040
0.0
1002
{
1002
}
1040
0.0
1002
}
1002
}
1040
1.0
1040
0.0
1040
0.0
1002
}
1002
{
1040
1.0
1040
1.0
1000

1040
0.0
1002
{
1002
}
1040
0.0
1002
{
1002
}
1040
0.0
1002
}
1002
{
1040
0.5
1040
1.0
1000

1040
0.0
1002
{
1002
}
1040
0.0
1002
{
1002
}
1040
0.0
1002
}
1002
{
1070
     0
1040
0.0
1002
{
1002
}
1040
1.0
1002
{
1002
}
1040
0.0
1002
}
1002
{
1040
0.0
1002
{
1002
{
1010
0.0
1020
0.0
1030
0.0
1002
}
1040
1.0
1000

1040
0.0
1002
{
1002
}
1040
0.0
1002
{
1002
}
1040
0.0
1002
}
1002
}
1002
{
1002
{
1070
     1
1002
{
1040
0.0
1040
1.0
1000

1040
0.0
1002
{
1002
}
1040
0.0
1002
{
1002
}
1040
0.0
1002
}
1002
}
1040
0.0
1002
{
1002
}
1010
1.0
1020
0.0
1030
0.0
1010
0.0
1020
1.0
1030
0.0
1010
0.0
1020
0.0
1030
1.0
1070
     0
1002
}
1002
{
1002
{
1040
1.0
1040
1.0
1002
{
1070
     1
1002
{
1040
1.0
1040
1.0
1000

1040
0.0
1002
{
1002
}
1040
0.0
1002
{
1002
}
1040
0.0
1002
}
1002
}
1002
}
1070
     0
1040
0.0
1002
{
1002
}
1002
}
1002
{
1002
}
1002
}
1002
{
1071
        3
1070
     3
1070
     0
1002
{
1070
     2
1070
     0
1070
     0
1040
0.0
1002
}
1070
     0
1070
     2
1002
{
1002
}
1002
}
1002
{
1040
8030.0
1040
190.3000030517578
1040
0.3050000071525574
1040
228.0
1040
545.0
1040
14.0
1040
17.39999961853027
1040
0.4560000002384186
1002
}
1002
}
  0
ENDSEC
  0
SECTION
  2
OBJECTS
  0
DICTIONARY
  5
7DE1B343D9DFFD1
330
0
100
AcDbDictionary
  3
ACAD_GROUP
350
7DE1B343D9DFFD2
  3
ACAD_LAYOUT
350
7DE1B343D9E0012
  3
ACAD_MLINESTYLE
350
7DE1B343D9DFFD3
  3
ACAD_PLOTSETTINGS
350
7DE1B343D9E0013
  3
ACAD_PLOTSTYLENAME
350
7DE1B343D9E0010
  3
ACDBHEADERROUNDTRIPXREC
350
7DE1B343D9E001D
  3
ACDBVARIABLEDICTIONARY
350
7DE1B343D9E001A
  0
DICTIONARY
  5
7DE1B343D9E003F
330
7DE1B343D9DFFDD
100
AcDbDictionary
280
     1
  3
ACAD_LAYOUTSELFREF
360
7DE1B343D9E0040
  0
DICTIONARY
  5
7DE1B343D9E003D
330
7DE1B343D9DFFDA
100
AcDbDictionary
280
     1
  3
ACAD_LAYOUTSELFREF
360
7DE1B343D9E003E
  0
DICTIONARY
  5
7DE1B343D9DFFD2
102
{ACAD_REACTORS
330
7DE1B343D9DFFD1
102
}
330
7DE1B343D9DFFD1
100
AcDbDictionary
  0
DICTIONARY
  5
7DE1B343D9E0012
102
{ACAD_REACTORS
330
7DE1B343D9DFFD1
102
}
330
7DE1B343D9DFFD1
100
AcDbDictionary
  0
DICTIONARY
  5
7DE1B343D9DFFD3
102
{ACAD_REACTORS
330
7DE1B343D9DFFD1
102
}
330
7DE1B343D9DFFD1
100
AcDbDictionary
  3
STANDARD
350
7DE1B343D9DFFE0
  0
DICTIONARY
  5
7DE1B343D9E0013
102
{ACAD_REACTORS
330
7DE1B343D9DFFD1
102
}
330
7DE1B343D9DFFD1
100
AcDbDictionary
  0
ACDBDICTIONARYWDFLT
  5
7DE1B343D9E0010
102
{ACAD_REACTORS
330
7DE1B343D9DFFD1
102
}
330
7DE1B343D9DFFD1
100
AcDbDictionary
281
     1
  3
Normal
350
7DE1B343D9E0011
100
AcDbDictionaryWithDefault
340
7DE1B343D9E0011
  0
DICTIONARY
  5
7DE1B343D9E001D
102
{ACAD_REACTORS
330
7DE1B343D9DFFD1
102
}
330
7DE1B343D9DFFD1
100
AcDbDictionary
  3
CEPSNTYPE
350
7DE1B343D9E0027
  3
FINGERPRINTGUID
350
7DE1B343D9E0028
  3
HYPERLINKBASE
350
7DE1B343D9E0020
  3
INSUNITS
350
7DE1B343D9E0026
  3
LAYOUTDICT
350
7DE1B343D9E0022
  3
LWETCUNION
350
7DE1B343D9E0025
  3
PLOTSETDICT
350
7DE1B343D9E0023
  3
PLOTSTYLNAMDICT
350
7DE1B343D9E0024
  3
PSVPSCALE
350
7DE1B343D9E002A
  3
PUCSBASE
350
7DE1B343D9E002D
  3
PUCSORGBACK
350
7DE1B343D9E0033
  3
PUCSORGBOTTOM
350
7DE1B343D9E002F
  3
PUCSORGFRONT
350
7DE1B343D9E0032
  3
PUCSORGLEFT
350
7DE1B343D9E0030
  3
PUCSORGRIGHT
350
7DE1B343D9E0031
  3
PUCSORGTOP
350
7DE1B343D9E002E
  3
PUCSORTHOREF
350
7DE1B343D9E002B
  3
PUCSORTHOVIEW
350
7DE1B343D9E002C
  3
STYLESHEET
350
7DE1B343D9E0021
  3
TSTACKALIGN
350
7DE1B343D9E001E
  3
TSTACKSIZE
350
7DE1B343D9E001F
  3
UCSBASE
350
7DE1B343D9E0036
  3
UCSORGBACK
350
7DE1B343D9E003C
  3
UCSORGBOTTOM
350
7DE1B343D9E0038
  3
UCSORGFRONT
350
7DE1B343D9E003B
  3
UCSORGLEFT
350
7DE1B343D9E0039
  3
UCSORGRIGHT
350
7DE1B343D9E003A
  3
UCSORGTOP
350
7DE1B343D9E0037
  3
UCSORTHOREF
350
7DE1B343D9E0034
  3
UCSORTHOVIEW
350
7DE1B343D9E0035
  3
VERSIONGUID
350
7DE1B343D9E0029
  0
DICTIONARY
  5
7DE1B343D9E001A
102
{ACAD_REACTORS
330
7DE1B343D9DFFD1
102
}
330
7DE1B343D9DFFD1
100
AcDbDictionary
  3
DIMASSOC
350
7DE1B343D9E001B
  0
XRECORD
  5
7DE1B343D9E0040
102
{ACAD_REACTORS
330
7DE1B343D9E003F
102
}
330
7DE1B343D9E003F
100
AcDbXrecord
340
7DE1B343D9DFFDD
  0
XRECORD
  5
7DE1B343D9E003E
102
{ACAD_REACTORS
330
7DE1B343D9E003D
102
}
330
7DE1B343D9E003D
100
AcDbXrecord
340
7DE1B343D9DFFDA
  0
MLINESTYLE
  5
7DE1B343D9DFFE0
102
{ACAD_REACTORS
330
7DE1B343D9DFFD3
102
}
330
7DE1B343D9DFFD3
100
AcDbMlineStyle
  2
STANDARD
 70
     0
  3

 62
     0
 51
90.0
 52
90.0
 71
     2
 49
0.5
 62
   256
  6
BYLAYER
 49
-0.5
 62
   256
  6
BYLAYER
  0
ACDBPLACEHOLDER
  5
7DE1B343D9E0011
102
{ACAD_REACTORS
330
7DE1B343D9E0010
102
}
330
7DE1B343D9E0010
100
AcDbPlaceHolder
280
     0
  0
XRECORD
  5
7DE1B343D9E0027
102
{ACAD_REACTORS
330
7DE1B343D9E001D
102
}
330
7DE1B343D9E001D
100
AcDbXrecord
 90
        0
  0
XRECORD
  5
7DE1B343D9E0028
102
{ACAD_REACTORS
330
7DE1B343D9E001D
102
}
330
7DE1B343D9E001D
100
AcDbXrecord
  1
{17E13990-8DB6-11D6-88E6-0090279574E7}
  0
XRECORD
  5
7DE1B343D9E0020
102
{ACAD_REACTORS
330
7DE1B343D9E001D
102
}
330
7DE1B343D9E001D
100
AcDbXrecord
  1

  0
XRECORD
  5
7DE1B343D9E0026
102
{ACAD_REACTORS
330
7DE1B343D9E001D
102
}
330
7DE1B343D9E001D
100
AcDbXrecord
 90
        0
  0
XRECORD
  5
7DE1B343D9E0022
102
{ACAD_REACTORS
330
7DE1B343D9E001D
102
}
330
7DE1B343D9E001D
100
AcDbXrecord
340
7DE1B343D9E0012
  0
XRECORD
  5
7DE1B343D9E0025
102
{ACAD_REACTORS
330
7DE1B343D9E001D
102
}
330
7DE1B343D9E001D
100
AcDbXrecord
 90
    14877
  0
XRECORD
  5
7DE1B343D9E0023
102
{ACAD_REACTORS
330
7DE1B343D9E001D
102
}
330
7DE1B343D9E001D
100
AcDbXrecord
340
7DE1B343D9E0013
  0
XRECORD
  5
7DE1B343D9E0024
102
{ACAD_REACTORS
330
7DE1B343D9E001D
102
}
330
7DE1B343D9E001D
100
AcDbXrecord
340
7DE1B343D9E0010
  0
XRECORD
  5
7DE1B343D9E002A
102
{ACAD_REACTORS
330
7DE1B343D9E001D
102
}
330
7DE1B343D9E001D
100
AcDbXrecord
 40
0.0
  0
XRECORD
  5
7DE1B343D9E002D
102
{ACAD_REACTORS
330
7DE1B343D9E001D
102
}
330
7DE1B343D9E001D
100
AcDbXrecord
340
0
  0
XRECORD
  5
7DE1B343D9E0033
102
{ACAD_REACTORS
330
7DE1B343D9E001D
102
}
330
7DE1B343D9E001D
100
AcDbXrecord
 10
0.0
 20
0.0
 30
0.0
  0
XRECORD
  5
7DE1B343D9E002F
102
{ACAD_REACTORS
330
7DE1B343D9E001D
102
}
330
7DE1B343D9E001D
100
AcDbXrecord
 10
0.0
 20
0.0
 30
0.0
  0
XRECORD
  5
7DE1B343D9E0032
102
{ACAD_REACTORS
330
7DE1B343D9E001D
102
}
330
7DE1B343D9E001D
100
AcDbXrecord
 10
0.0
 20
0.0
 30
0.0
  0
XRECORD
  5
7DE1B343D9E0030
102
{ACAD_REACTORS
330
7DE1B343D9E001D
102
}
330
7DE1B343D9E001D
100
AcDbXrecord
 10
0.0
 20
0.0
 30
0.0
  0
XRECORD
  5
7DE1B343D9E0031
102
{ACAD_REACTORS
330
7DE1B343D9E001D
102
}
330
7DE1B343D9E001D
100
AcDbXrecord
 10
0.0
 20
0.0
 30
0.0
  0
XRECORD
  5
7DE1B343D9E002E
102
{ACAD_REACTORS
330
7DE1B343D9E001D
102
}
330
7DE1B343D9E001D
100
AcDbXrecord
 10
0.0
 20
0.0
 30
0.0
  0
XRECORD
  5
7DE1B343D9E002B
102
{ACAD_REACTORS
330
7DE1B343D9E001D
102
}
330
7DE1B343D9E001D
100
AcDbXrecord
340
0
  0
XRECORD
  5
7DE1B343D9E002C
102
{ACAD_REACTORS
330
7DE1B343D9E001D
102
}
330
7DE1B343D9E001D
100
AcDbXrecord
 70
     0
  0
XRECORD
  5
7DE1B343D9E0021
102
{ACAD_REACTORS
330
7DE1B343D9E001D
102
}
330
7DE1B343D9E001D
100
AcDbXrecord
  1

  0
XRECORD
  5
7DE1B343D9E001E
102
{ACAD_REACTORS
330
7DE1B343D9E001D
102
}
330
7DE1B343D9E001D
100
AcDbXrecord
 90
        1
  0
XRECORD
  5
7DE1B343D9E001F
102
{ACAD_REACTORS
330
7DE1B343D9E001D
102
}
330
7DE1B343D9E001D
100
AcDbXrecord
 90
       70
  0
XRECORD
  5
7DE1B343D9E0036
102
{ACAD_REACTORS
330
7DE1B343D9E001D
102
}
330
7DE1B343D9E001D
100
AcDbXrecord
340
0
  0
XRECORD
  5
7DE1B343D9E003C
102
{ACAD_REACTORS
330
7DE1B343D9E001D
102
}
330
7DE1B343D9E001D
100
AcDbXrecord
 10
0.0
 20
0.0
 30
0.0
  0
XRECORD
  5
7DE1B343D9E0038
102
{ACAD_REACTORS
330
7DE1B343D9E001D
102
}
330
7DE1B343D9E001D
100
AcDbXrecord
 10
0.0
 20
0.0
 30
0.0
  0
XRECORD
  5
7DE1B343D9E003B
102
{ACAD_REACTORS
330
7DE1B343D9E001D
102
}
330
7DE1B343D9E001D
100
AcDbXrecord
 10
0.0
 20
0.0
 30
0.0
  0
XRECORD
  5
7DE1B343D9E0039
102
{ACAD_REACTORS
330
7DE1B343D9E001D
102
}
330
7DE1B343D9E001D
100
AcDbXrecord
 10
0.0
 20
0.0
 30
0.0
  0
XRECORD
  5
7DE1B343D9E003A
102
{ACAD_REACTORS
330
7DE1B343D9E001D
102
}
330
7DE1B343D9E001D
100
AcDbXrecord
 10
0.0
 20
0.0
 30
0.0
  0
XRECORD
  5
7DE1B343D9E0037
102
{ACAD_REACTORS
330
7DE1B343D9E001D
102
}
330
7DE1B343D9E001D
100
AcDbXrecord
 10
0.0
 20
0.0
 30
0.0
  0
XRECORD
  5
7DE1B343D9E0034
102
{ACAD_REACTORS
330
7DE1B343D9E001D
102
}
330
7DE1B343D9E001D
100
AcDbXrecord
340
0
  0
XRECORD
  5
7DE1B343D9E0035
102
{ACAD_REACTORS
330
7DE1B343D9E001D
102
}
330
7DE1B343D9E001D
100
AcDbXrecord
 70
     0
  0
XRECORD
  5
7DE1B343D9E0029
102
{ACAD_REACTORS
330
7DE1B343D9E001D
102
}
330
7DE1B343D9E001D
100
AcDbXrecord
  1
{17E13992-8DB6-11D6-88E6-0090279574E7}
  0
DICTIONARYVAR
  5
7DE1B343D9E001B
102
{ACAD_REACTORS
330
7DE1B343D9E001A
102
}
330
7DE1B343D9E001A
100
DictionaryVariables
280
     0
  1
1
  0
ENDSEC
  0
EOF
