  0
SECTION
  2
HEADER
  9
$ACADVER
  1
AC1014
  9
$ACADMAINTVER
 70
     9
  9
$DWGCODEPAGE
  3
ANSI_1252
  9
$INSBASE
 10
1.612804875464928
 20
1.367979153396238
 30
0.0
  9
$EXTMIN
 10
-0.0667602146168149
 20
-0.2401055104652828
 30
0.0
  9
$EXTMAX
 10
3.418459107130312
 20
2.391492066280099
 30
0.0
  9
$LIMMIN
 10
0.0
 20
0.0
  9
$LIMMAX
 10
18.0
 20
12.0
  9
$ORTHOMODE
 70
     1
  9
$REGENMODE
 70
     1
  9
$FILLMODE
 70
     1
  9
$QTEXTMODE
 70
     0
  9
$MIRRTEXT
 70
     0
  9
$DRAGMODE
 70
     2
  9
$LTSCALE
 40
1.0
  9
$OSMODE
 70
    39
  9
$ATTMODE
 70
     1
  9
$TEXTSIZE
 40
0.125
  9
$TRACEWID
 40
0.05
  9
$TEXTSTYLE
  7
ROMANS
  9
$CLAYER
  8
0
  9
$CELTYPE
  6
BYLAYER
  9
$CECOLOR
 62
   256
  9
$CELTSCALE
 40
1.0
  9
$DELOBJ
 70
     1
  9
$DISPSILH
 70
     1
  9
$DIMSCALE
 40
1.0
  9
$DIMASZ
 40
0.125
  9
$DIMEXO
 40
0.125
  9
$DIMDLI
 40
0.375
  9
$DIMRND
 40
0.0
  9
$DIMDLE
 40
0.0
  9
$DIMEXE
 40
0.125
  9
$DIMTP
 40
0.0
  9
$DIMTM
 40
0.0
  9
$DIMTXT
 40
0.125
  9
$DIMCEN
 40
-0.125
  9
$DIMTSZ
 40
0.0
  9
$DIMTOL
 70
     0
  9
$DIMLIM
 70
     0
  9
$DIMTIH
 70
     1
  9
$DIMTOH
 70
     1
  9
$DIMSE1
 70
     0
  9
$DIMSE2
 70
     0
  9
$DIMTAD
 70
     0
  9
$DIMZIN
 70
     4
  9
$DIMBLK
  1

  9
$DIMASO
 70
     1
  9
$DIMSHO
 70
     1
  9
$DIMPOST
  1

  9
$DIMAPOST
  1

  9
$DIMALT
 70
     0
  9
$DIMALTD
 70
     2
  9
$DIMALTF
 40
25.4
  9
$DIMLFAC
 40
1.0
  9
$DIMTOFL
 70
     0
  9
$DIMTVP
 40
0.0
  9
$DIMTIX
 70
     1
  9
$DIMSOXD
 70
     0
  9
$DIMSAH
 70
     0
  9
$DIMBLK1
  1

  9
$DIMBLK2
  1

  9
$DIMSTYLE
  2
STANDARD
  9
$DIMCLRD
 70
     0
  9
$DIMCLRE
 70
     0
  9
$DIMCLRT
 70
     0
  9
$DIMTFAC
 40
1.0
  9
$DIMGAP
 40
0.09
  9
$DIMJUST
 70
     0
  9
$DIMSD1
 70
     0
  9
$DIMSD2
 70
     0
  9
$DIMTOLJ
 70
     1
  9
$DIMTZIN
 70
     4
  9
$DIMALTZ
 70
     0
  9
$DIMALTTZ
 70
     0
  9
$DIMFIT
 70
     3
  9
$DIMUPT
 70
     0
  9
$DIMUNIT
 70
     2
  9
$DIMDEC
 70
     3
  9
$DIMTDEC
 70
     3
  9
$DIMALTU
 70
     2
  9
$DIMALTTD
 70
     2
  9
$DIMTXSTY
  7
ROMANS
  9
$DIMAUNIT
 70
     0
  9
$LUNITS
 70
     2
  9
$LUPREC
 70
     3
  9
$SKETCHINC
 40
0.1
  9
$FILLETRAD
 40
0.03125
  9
$AUNITS
 70
     0
  9
$AUPREC
 70
     0
  9
$MENU
  1
ACAD
  9
$ELEVATION
 40
0.0
  9
$PELEVATION
 40
0.0
  9
$THICKNESS
 40
0.0
  9
$LIMCHECK
 70
     0
  9
$BLIPMODE
 70
     0
  9
$CHAMFERA
 40
0.0
  9
$CHAMFERB
 40
0.0
  9
$CHAMFERC
 40
0.0
  9
$CHAMFERD
 40
0.0
  9
$SKPOLY
 70
     0
  9
$TDCREATE
 40
2448994.560925231
  9
$TDUPDATE
 40
2452458.305832557
  9
$TDINDWG
 40
0.0009979977
  9
$TDUSRTIMER
 40
0.0009979977
  9
$USRTIMER
 70
     1
  9
$ANGBASE
 50
0.0
  9
$ANGDIR
 70
     0
  9
$PDMODE
 70
     0
  9
$PDSIZE
 40
0.0
  9
$PLINEWID
 40
0.0
  9
$COORDS
 70
     2
  9
$SPLFRAME
 70
     0
  9
$SPLINETYPE
 70
     6
  9
$SPLINESEGS
 70
     8
  9
$ATTDIA
 70
     0
  9
$ATTREQ
 70
     1
  9
$HANDLING
 70
 22529
  9
$HANDSEED
  5
7DE1B343D9DFA7D
  9
$SURFTAB1
 70
     6
  9
$SURFTAB2
 70
     6
  9
$SURFTYPE
 70
     6
  9
$SURFU
 70
     6
  9
$SURFV
 70
     6
  9
$UCSNAME
  2

  9
$UCSORG
 10
0.0
 20
0.0
 30
0.0
  9
$UCSXDIR
 10
1.0
 20
0.0
 30
0.0
  9
$UCSYDIR
 10
0.0
 20
1.0
 30
0.0
  9
$PUCSNAME
  2

  9
$PUCSORG
 10
0.0
 20
0.0
 30
0.0
  9
$PUCSXDIR
 10
1.0
 20
0.0
 30
0.0
  9
$PUCSYDIR
 10
0.0
 20
1.0
 30
0.0
  9
$USERI1
 70
     0
  9
$USERI2
 70
     0
  9
$USERI3
 70
     0
  9
$USERI4
 70
     0
  9
$USERI5
 70
     0
  9
$USERR1
 40
0.0
  9
$USERR2
 40
0.0
  9
$USERR3
 40
0.0
  9
$USERR4
 40
0.0
  9
$USERR5
 40
0.0
  9
$WORLDVIEW
 70
     1
  9
$SHADEDGE
 70
     3
  9
$SHADEDIF
 70
    70
  9
$TILEMODE
 70
     1
  9
$MAXACTVP
 70
    16
  9
$PINSBASE
 10
0.4174012100673917
 20
50.00000000000001
 30
1.850609753990728
  9
$PLIMCHECK
 70
     0
  9
$PEXTMIN
 10
1.000000000000000E+20
 20
1.000000000000000E+20
 30
1.000000000000000E+20
  9
$PEXTMAX
 10
-1.000000000000000E+20
 20
-1.000000000000000E+20
 30
-1.000000000000000E+20
  9
$PLIMMIN
 10
0.0
 20
0.0
  9
$PLIMMAX
 10
12.0
 20
9.0
  9
$UNITMODE
 70
     0
  9
$VISRETAIN
 70
     0
  9
$PLINEGEN
 70
     1
  9
$PSLTSCALE
 70
     0
  9
$TREEDEPTH
 70
  3020
  9
$PICKSTYLE
 70
     1
  9
$CMLSTYLE
  2
STANDARD
  9
$CMLJUST
 70
     0
  9
$CMLSCALE
 40
1.0
  9
$PROXYGRAPHICS
 70
     1
  9
$MEASUREMENT
 70
     0
  0
ENDSEC
  0
SECTION
  2
CLASSES
  0
CLASS
  1
LWPOLYLINE
  2
AcDbPolyline
  3
AutoCAD 2000
 90
        0
280
     0
281
     1
  0
CLASS
  1
ACDBDICTIONARYWDFLT
  2
AcDbDictionaryWithDefault
  3
AutoCAD 2000
 90
        0
280
     0
281
     0
  0
CLASS
  1
ACDBPLACEHOLDER
  2
AcDbPlaceHolder
  3
AutoCAD 2000
 90
        0
280
     0
281
     0
  0
CLASS
  1
LAYOUT
  2
AcDbLayout
  3
AutoCAD 2000
 90
        0
280
     0
281
     0
  0
CLASS
  1
DICTIONARYVAR
  2
AcDbDictionaryVar
  3
AutoCAD 2000
 90
        0
280
     0
281
     0
  0
CLASS
  1
LONG_TRANSACTION
  2
AcDbLongTransaction
  3
AutoCAD 2000
 90
        0
280
     0
281
     0
  0
CLASS
  1
LWPOLYLINE
  2
AcDbPolyline
  3
AutoCAD 2000
 90
        0
280
     0
281
     1
  0
CLASS
  1
HATCH
  2
AcDbHatch
  3
AutoCAD 2000
 90
        0
280
     0
281
     1
  0
CLASS
  1
XRECORD
  2
AcDbXrecord
  3
AutoCAD 2000
 90
        0
280
     0
281
     0
  0
ENDSEC
  0
SECTION
  2
TABLES
  0
TABLE
  2
VPORT
  5
7DE1B343D9DFA24
330
0
100
AcDbSymbolTable
 70
     2
  0
VPORT
  5
7DE1B343D9DFA58
330
7DE1B343D9DFA24
100
AcDbSymbolTableRecord
100
AcDbViewportTableRecord
  2
*ACTIVE
 70
     0
 10
0.0
 20
0.0
 11
1.0
 21
1.0
 12
5.550756302063167
 22
1.075776827107132
 13
0.0
 23
0.0
 14
0.015625
 24
0.015625
 15
0.0
 25
0.0
 16
0.0
 26
0.0
 36
1.0
 17
0.0
 27
0.0
 37
0.0
 40
2.971938336489111
 41
4.320930232558139
 42
50.0
 43
0.0
 44
0.0
 50
0.0
 51
0.0
 71
     0
 72
  2000
 73
     1
 74
     0
 75
     0
 76
     0
 77
     0
 78
     0
  0
ENDTAB
  0
TABLE
  2
LTYPE
  5
7DE1B343D9DFA21
330
0
100
AcDbSymbolTable
 70
     1
  0
LTYPE
  5
7DE1B343D9DFA2E
330
7DE1B343D9DFA21
100
AcDbSymbolTableRecord
100
AcDbLinetypeTableRecord
  2
BYBLOCK
 70
     0
  3

 72
    65
 73
     0
 40
0.0
  0
LTYPE
  5
7DE1B343D9DFA2F
330
7DE1B343D9DFA21
100
AcDbSymbolTableRecord
100
AcDbLinetypeTableRecord
  2
BYLAYER
 70
     0
  3

 72
    65
 73
     0
 40
0.0
  0
LTYPE
  5
7DE1B343D9DFA30
330
7DE1B343D9DFA21
100
AcDbSymbolTableRecord
100
AcDbLinetypeTableRecord
  2
CONTINUOUS
 70
     0
  3
Solid line
 72
    65
 73
     0
 40
0.0
  0
ENDTAB
  0
TABLE
  2
LAYER
  5
7DE1B343D9DFA1E
330
0
100
AcDbSymbolTable
 70
     2
  0
LAYER
  5
7DE1B343D9DFA2B
330
7DE1B343D9DFA1E
100
AcDbSymbolTableRecord
100
AcDbLayerTableRecord
  2
0
 70
     0
 62
     7
  6
CONTINUOUS
  0
LAYER
  5
7DE1B343D9DFA3B
330
7DE1B343D9DFA1E
100
AcDbSymbolTableRecord
100
AcDbLayerTableRecord
  2
TEXT
 70
     0
 62
     3
  6
CONTINUOUS
  0
ENDTAB
  0
TABLE
  2
STYLE
  5
7DE1B343D9DFA1F
330
0
100
AcDbSymbolTable
 70
     3
  0
STYLE
  5
7DE1B343D9DFA2C
330
7DE1B343D9DFA1F
100
AcDbSymbolTableRecord
100
AcDbTextStyleTableRecord
  2
STANDARD
 70
     0
 40
0.0
 41
1.0
 50
0.0
 71
     0
 42
0.3125
  3
txt
  4

  0
STYLE
  5
7DE1B343D9DFA38
330
7DE1B343D9DFA1F
100
AcDbSymbolTableRecord
100
AcDbTextStyleTableRecord
  2
ITALICC
 70
     0
 40
0.0
 41
1.0
 50
0.0
 71
     0
 42
0.125
  3
italicc
  4

  0
STYLE
  5
7DE1B343D9DFA48
330
7DE1B343D9DFA1F
100
AcDbSymbolTableRecord
100
AcDbTextStyleTableRecord
  2
ROMANS
 70
     0
 40
0.0
 41
1.0
 50
0.0
 71
     0
 42
0.125
  3
romans.shx
  4

  0
ENDTAB
  0
TABLE
  2
VIEW
  5
7DE1B343D9DFA22
330
0
100
AcDbSymbolTable
 70
     0
  0
ENDTAB
  0
TABLE
  2
UCS
  5
7DE1B343D9DFA23
330
0
100
AcDbSymbolTable
 70
     0
  0
ENDTAB
  0
TABLE
  2
APPID
  5
7DE1B343D9DFA25
330
0
100
AcDbSymbolTable
 70
     1
  0
APPID
  5
7DE1B343D9DFA2D
330
7DE1B343D9DFA25
100
AcDbSymbolTableRecord
100
AcDbRegAppTableRecord
  2
ACAD
 70
     0
  0
ENDTAB
  0
TABLE
  2
DIMSTYLE
  5
7DE1B343D9DFA26
330
0
100
AcDbSymbolTable
 70
     1
  0
DIMSTYLE
105
7DE1B343D9DFA40
330
7DE1B343D9DFA26
100
AcDbSymbolTableRecord
100
AcDbDimStyleTableRecord
  2
STANDARD
 70
     0
  3

  4

  5

  6

  7

 40
1.0
 41
0.125
 42
0.125
 43
0.375
 44
0.125
 45
0.0
 46
0.0
 47
0.0
 48
0.0
140
0.125
141
-0.125
142
0.0
143
25.4
144
1.0
145
0.0
146
1.0
147
0.09
 71
     0
 72
     0
 73
     1
 74
     1
 75
     0
 76
     0
 77
     0
 78
     4
170
     0
171
     2
172
     0
173
     0
174
     1
175
     0
176
     0
177
     0
178
     0
270
     2
271
     3
272
     3
273
     2
274
     2
340
7DE1B343D9DFA48
275
     0
280
     0
281
     0
282
     0
283
     1
284
     4
285
     0
286
     0
287
     3
288
     0
  0
ENDTAB
  0
TABLE
  2
BLOCK_RECORD
  5
7DE1B343D9DFA1D
330
0
100
AcDbSymbolTable
 70
     0
  0
BLOCK_RECORD
  5
7DE1B343D9DFA34
102
{ACAD_XDICTIONARY
360
7DE1B343D9DFA7B
102
}
330
7DE1B343D9DFA1D
100
AcDbSymbolTableRecord
100
AcDbBlockTableRecord
  2
*MODEL_SPACE
  0
BLOCK_RECORD
  5
7DE1B343D9DFA31
102
{ACAD_XDICTIONARY
360
7DE1B343D9DFA79
102
}
330
7DE1B343D9DFA1D
100
AcDbSymbolTableRecord
100
AcDbBlockTableRecord
  2
*PAPER_SPACE
  0
ENDTAB
  0
ENDSEC
  0
SECTION
  2
BLOCKS
  0
BLOCK
  5
7DE1B343D9DFA3E
330
7DE1B343D9DFA34
100
AcDbEntity
  8
0
100
AcDbBlockBegin
  2
*MODEL_SPACE
 70
     0
 10
0.0
 20
0.0
 30
0.0
  3
*MODEL_SPACE
  1

  0
ENDBLK
  5
7DE1B343D9DFA3F
330
7DE1B343D9DFA34
100
AcDbEntity
  8
0
100
AcDbBlockEnd
  0
BLOCK
  5
7DE1B343D9DFA3C
330
7DE1B343D9DFA31
100
AcDbEntity
 67
     1
  8
0
100
AcDbBlockBegin
  2
*PAPER_SPACE
 70
     0
 10
0.0
 20
0.0
 30
0.0
  3
*PAPER_SPACE
  1

  0
ENDBLK
  5
7DE1B343D9DFA3D
330
7DE1B343D9DFA31
100
AcDbEntity
 67
     1
  8
0
100
AcDbBlockEnd
  0
ENDSEC
  0
SECTION
  2
ENTITIES
  0
LWPOLYLINE
  5
7DE1B343D9DE438
330
7DE1B343D9DFA34
100
AcDbEntity
  8
0
100
AcDbPolyline
 90
       31
 70
     1
 43
0.0
 10
1.524771337289497
 20
2.328992066280099
 10
1.587271337289497
 20
2.328992066280099
 10
1.587271337289497
 20
2.391492066280099
 10
1.462271337289497
 20
2.391492066280099
 10
1.462271337289497
 20
1.391492066280099
 10
1.149771337289497
 20
1.391492066280099
 10
1.149771337289497
 20
1.328992066280099
 10
1.399771337289497
 20
1.328992066280099
 10
1.399771337289497
 20
0.5164920662800997
 10
2.038037214654771
 20
0.5164920662800997
 10
2.121771337289497
 20
0.8289920662800996
 10
1.867271337289497
 20
0.8289920662800996
 10
1.867271337289497
 20
0.7664920662800997
 10
1.992271337289497
 20
0.7664920662800997
 10
1.992271337289497
 20
0.5789920662800997
 10
1.462271337289497
 20
0.5789920662800997
 10
1.462271337289497
 20
0.7664920662800997
 10
1.587271337289497
 20
0.7664920662800997
 10
1.587271337289497
 20
0.8814920662801007
 10
1.577271337289497
 20
0.8914920662800996
 10
1.587271337289497
 20
0.9014920662800994
 10
1.587271337289497
 20
1.016492066280099
 10
1.462271337289497
 20
1.016492066280099
 10
1.462271337289497
 20
1.328992066280099
 10
1.587271337289497
 20
1.328992066280099
 10
1.587271337289497
 20
1.391492066280099
 10
1.524771337289497
 20
1.391492066280099
 10
1.524771337289497
 20
1.828992066280099
 10
1.587271337289497
 20
1.828992066280099
 10
1.587271337289497
 20
1.891492066280099
 10
1.524771337289497
 20
1.891492066280099
  0
TEXT
  5
7DE1B343D9DF8DF
330
7DE1B343D9DFA34
100
AcDbEntity
  8
TEXT
100
AcDbText
 10
0.9232451741341378
 20
0.2179130936172988
 30
0.0
 40
0.125
  1
PART #110300
  7
ITALICC
 72
     1
 11
1.676221364610328
 21
0.2179130936172988
 31
0.0
100
AcDbText
  0
TEXT
  5
7DE1B343D9DF8E0
330
7DE1B343D9DFA34
100
AcDbEntity
  8
TEXT
100
AcDbText
 10
2.089526522860649
 20
-0.2290095490550764
 30
0.0
 40
0.0522247191011236
  1
Phone  1-800-328-2495
 41
1.272321428571429
 72
     5
 11
3.418459107130312
 21
-0.2290095490550764
 31
0.0
100
AcDbText
  0
TEXT
  5
7DE1B343D9DF8E1
330
7DE1B343D9DFA34
100
AcDbEntity
  8
TEXT
100
AcDbText
 10
2.089526522860649
 20
0.0507657318438001
 30
0.0
 40
0.0522247191011236
  1
Stylmark  Incorporated
 41
1.221428571428573
 72
     5
 11
3.418459107130312
 21
0.0507657318438001
 31
0.0
100
AcDbText
  0
TEXT
  5
7DE1B343D9DF8E2
330
7DE1B343D9DFA34
100
AcDbEntity
  8
TEXT
100
AcDbText
 10
2.089526522860649
 20
-0.0424926951224921
 30
0.0
 40
0.0522247191011236
  1
6536 Main St. N.E. * P.O. Box 32008
 41
0.8388932496075366
 72
     5
 11
3.418459107130312
 21
-0.0424926951224921
 31
0.0
100
AcDbText
  0
TEXT
  5
7DE1B343D9DF8E3
330
7DE1B343D9DFA34
100
AcDbEntity
  8
TEXT
100
AcDbText
 10
2.089526522860649
 20
-0.1357511220887842
 30
0.0
 40
0.0522247191011236
  1
Minneapolis, MN 55432-0008
 41
1.11444212721585
 72
     5
 11
3.418459107130312
 21
-0.1357511220887842
 31
0.0
100
AcDbText
  0
LWPOLYLINE
  5
7DE1B343D9DF8E4
330
7DE1B343D9DFA34
100
AcDbEntity
  8
TEXT
100
AcDbPolyline
 90
        3
 70
     0
 43
0.0006660908203125
 10
-0.0664271692066587
 20
-0.1153647864176415
 10
-0.0664271692066587
 20
-0.2286002258707692
 10
0.0468082702464636
 20
-0.2286002258707692
  0
LWPOLYLINE
  5
7DE1B343D9DF8E9
330
7DE1B343D9DFA34
100
AcDbEntity
  8
TEXT
100
AcDbPolyline
 90
        3
 70
     0
 43
0.0006660908203125
 10
-0.0397835363941612
 20
-0.1153647864176415
 10
-0.0397835363941612
 20
-0.2019565930582681
 10
0.0468082702464636
 20
-0.2019565930582681
  0
LWPOLYLINE
  5
7DE1B343D9DF8EE
330
7DE1B343D9DFA34
100
AcDbEntity
  8
TEXT
100
AcDbPolyline
 90
        2
 70
     0
 43
0.0001332181640625
 10
0.0068428210277156
 20
-0.1053734241129563
 10
-0.0664271692066587
 20
-0.1153647864176415
  0
LWPOLYLINE
  5
7DE1B343D9DF8F2
330
7DE1B343D9DFA34
100
AcDbEntity
  8
TEXT
100
AcDbPolyline
 90
        2
 70
     0
 43
0.0001332181640625
 10
-0.0397835363941612
 20
-0.1153647864176415
 10
0.0201646374339661
 20
-0.1053734241129563
  0
LWPOLYLINE
  5
7DE1B343D9DF8F6
330
7DE1B343D9DFA34
100
AcDbEntity
  8
TEXT
100
AcDbPolyline
 90
        2
 70
     0
 43
0.0001332181640625
 10
-0.0397835363941612
 20
-0.2019565930582681
 10
0.0201646374339661
 20
-0.1420084192301426
  0
LWPOLYLINE
  5
7DE1B343D9DF8FA
330
7DE1B343D9DFA34
100
AcDbEntity
  8
TEXT
100
AcDbPolyline
 90
        3
 70
     0
 43
0.0006660908203125
 10
0.0468082702464636
 20
0.0378361022542341
 10
-0.0664271692066587
 20
0.0378361022542341
 10
-0.0664271692066587
 20
-0.0753993371988935
  0
LWPOLYLINE
  5
7DE1B343D9DF8FF
330
7DE1B343D9DFA34
100
AcDbEntity
  8
TEXT
100
AcDbPolyline
 90
        3
 70
     0
 43
0.0006660908203125
 10
0.0468082702464636
 20
0.0111924694417331
 10
-0.0397835363941612
 20
0.0111924694417331
 10
-0.0397835363941612
 20
-0.0753993371988935
  0
LWPOLYLINE
  5
7DE1B343D9DF904
330
7DE1B343D9DFA34
100
AcDbEntity
  8
TEXT
100
AcDbPolyline
 90
        2
 70
     0
 43
0.0001332181640625
 10
-0.0397835363941612
 20
0.0111924694417331
 10
0.0201646374339644
 20
-0.0487557043863925
  0
LWPOLYLINE
  5
7DE1B343D9DF908
330
7DE1B343D9DFA34
100
AcDbEntity
  8
TEXT
100
AcDbPolyline
 90
        2
 70
     0
 43
0.0001332181640625
 10
-0.0397835363941612
 20
-0.0753993371988935
 10
0.0201646374339644
 20
-0.0853906995035823
  0
LWPOLYLINE
  5
7DE1B343D9DF90C
330
7DE1B343D9DFA34
100
AcDbEntity
  8
TEXT
100
AcDbPolyline
 90
        2
 70
     0
 43
0.0001332181640625
 10
-0.0664271692066587
 20
-0.0753993371988935
 10
0.0068428210277156
 20
-0.0853906995035823
  0
LWPOLYLINE
  5
7DE1B343D9DF910
330
7DE1B343D9DFA34
100
AcDbEntity
  8
TEXT
100
AcDbPolyline
 90
        2
 70
     0
 43
0.0006660908203125
 10
-0.0397835363941612
 20
-0.1153647864176415
 10
-0.0664271692066587
 20
-0.1153647864176415
  0
LWPOLYLINE
  5
7DE1B343D9DF914
330
7DE1B343D9DFA34
100
AcDbEntity
  8
TEXT
100
AcDbPolyline
 90
        2
 70
     0
 43
0.0006660908203125
 10
-0.0397835363941612
 20
-0.0753993371988935
 10
-0.0664271692066587
 20
-0.0753993371988935
  0
LINE
  5
7DE1B343D9DF918
330
7DE1B343D9DFA34
100
AcDbEntity
  8
TEXT
100
AcDbLine
 10
1.448763259919838
 20
-0.0264405924025349
 30
0.0
 11
1.341556986532549
 21
-0.0264405924025349
 31
0.0
  0
LINE
  5
7DE1B343D9DF919
330
7DE1B343D9DFA34
100
AcDbEntity
  8
TEXT
100
AcDbLine
 10
1.477794158264317
 20
0.0378361022542306
 30
0.0
 11
1.342962249047258
 21
0.0378361022542306
 31
0.0
  0
ARC
  5
7DE1B343D9DF91A
330
7DE1B343D9DFA34
100
AcDbEntity
  8
TEXT
100
AcDbCircle
 10
1.402276345440575
 20
-0.1314011470087857
 30
0.0
 40
0.0676855811441166
100
AcDbArc
 50
90.0
 51
153.7768192527749
  0
LWPOLYLINE
  5
7DE1B343D9DF91B
330
7DE1B343D9DFA34
100
AcDbEntity
  8
TEXT
100
AcDbPolyline
 90
        2
 70
     0
 43
0.0
 10
1.340524491077739
 20
-0.1851459857838423
 42
0.2901071551932823
 10
1.383600423945374
 20
-0.2286369307342804
 42
5.328517124445801
  0
ARC
  5
7DE1B343D9DF91F
330
7DE1B343D9DFA34
100
AcDbEntity
  8
TEXT
100
AcDbCircle
 10
0.6971449677690894
 20
-0.1688445393962306
 30
0.0
 40
0.0601160179737537
100
AcDbArc
 50
180.0000000000003
 51
264.0521544866073
  0
LINE
  5
7DE1B343D9DF920
330
7DE1B343D9DFA34
100
AcDbEntity
  8
TEXT
100
AcDbLine
 10
0.7006603233946372
 20
0.0722240198483688
 30
0.0
 11
0.6406177185506302
 21
0.0722240198483688
 31
0.0
  0
ARC
  5
7DE1B343D9DF921
330
7DE1B343D9DFA34
100
AcDbEntity
  8
TEXT
100
AcDbCircle
 10
0.4648859656521188
 20
-0.0442513571922712
 30
0.0
 40
0.0820874594465043
100
AcDbArc
 50
90.0
 51
270.0
  0
LWPOLYLINE
  5
7DE1B343D9DF922
330
7DE1B343D9DFA34
100
AcDbEntity
  8
TEXT
100
AcDbPolyline
 90
        2
 70
     0
 43
0.0001332181640625
 10
0.0567996325511542
 20
-0.0354338879801455
 10
0.0468082702464636
 20
0.0378361022542341
  0
LWPOLYLINE
  5
7DE1B343D9DF926
330
7DE1B343D9DFA34
100
AcDbEntity
  8
TEXT
100
AcDbPolyline
 90
        2
 70
     0
 43
0.0001332181640625
 10
0.0468082702464636
 20
0.0111924694417331
 10
0.0567996325511542
 20
-0.0487557043863925
  0
LWPOLYLINE
  5
7DE1B343D9DF92A
330
7DE1B343D9DFA34
100
AcDbEntity
  8
TEXT
100
AcDbPolyline
 90
        3
 70
     0
 43
0.0006660908203125
 10
0.200009158918341
 20
-0.0753993371988935
 10
0.200009158918341
 20
0.0378361022542341
 10
0.0867737194652152
 20
0.0378361022542341
  0
LWPOLYLINE
  5
7DE1B343D9DF92F
330
7DE1B343D9DFA34
100
AcDbEntity
  8
TEXT
100
AcDbPolyline
 90
        3
 70
     0
 43
0.0006660908203125
 10
0.17336552610584
 20
-0.0753993371988935
 10
0.17336552610584
 20
0.0111924694417331
 10
0.0867737194652152
 20
0.0111924694417331
  0
LWPOLYLINE
  5
7DE1B343D9DF934
330
7DE1B343D9DFA34
100
AcDbEntity
  8
TEXT
100
AcDbPolyline
 90
        2
 70
     0
 43
0.0001332181640625
 10
0.17336552610584
 20
0.0111924694417331
 10
0.1134173522777162
 20
-0.0487557043863925
  0
LWPOLYLINE
  5
7DE1B343D9DF938
330
7DE1B343D9DFA34
100
AcDbEntity
  8
TEXT
100
AcDbPolyline
 90
        2
 70
     0
 43
0.0001332181640625
 10
0.0867737194652152
 20
0.0111924694417331
 10
0.0767823571605264
 20
-0.0487557043863925
  0
LWPOLYLINE
  5
7DE1B343D9DF93C
330
7DE1B343D9DFA34
100
AcDbEntity
  8
TEXT
100
AcDbPolyline
 90
        2
 70
     0
 43
0.0001332181640625
 10
0.0867737194652152
 20
0.0378361022542341
 10
0.0767823571605264
 20
-0.0354338879801455
  0
LWPOLYLINE
  5
7DE1B343D9DF940
330
7DE1B343D9DFA34
100
AcDbEntity
  8
TEXT
100
AcDbPolyline
 90
        2
 70
     0
 43
0.0001332181640625
 10
0.1267391686839649
 20
-0.0853906995035823
 10
0.200009158918341
 20
-0.0753993371988935
  0
LWPOLYLINE
  5
7DE1B343D9DF944
330
7DE1B343D9DFA34
100
AcDbEntity
  8
TEXT
100
AcDbPolyline
 90
        2
 70
     0
 43
0.0001332181640625
 10
0.17336552610584
 20
-0.0753993371988935
 10
0.1134173522777162
 20
-0.0853906995035823
  0
LWPOLYLINE
  5
7DE1B343D9DF948
330
7DE1B343D9DFA34
100
AcDbEntity
  8
TEXT
100
AcDbPolyline
 90
        2
 70
     0
 43
0.0001332181640625
 10
0.200009158918341
 20
-0.1153647864176415
 10
0.1267391686839649
 20
-0.1053734241129563
  0
LWPOLYLINE
  5
7DE1B343D9DF94C
330
7DE1B343D9DFA34
100
AcDbEntity
  8
TEXT
100
AcDbPolyline
 90
        2
 70
     0
 43
0.0001332181640625
 10
0.17336552610584
 20
-0.1153647864176415
 10
0.1134173522777162
 20
-0.1053734241129563
  0
LWPOLYLINE
  5
7DE1B343D9DF950
330
7DE1B343D9DFA34
100
AcDbEntity
  8
TEXT
100
AcDbPolyline
 90
        2
 70
     0
 43
0.0001332181640625
 10
0.17336552610584
 20
-0.2019565930582681
 10
0.1134173522777162
 20
-0.1420084192301426
  0
LWPOLYLINE
  5
7DE1B343D9DF954
330
7DE1B343D9DFA34
100
AcDbEntity
  8
TEXT
100
AcDbPolyline
 90
        3
 70
     0
 43
0.0006660908203125
 10
0.0867737194652152
 20
-0.2019565930582681
 10
0.17336552610584
 20
-0.2019565930582681
 10
0.17336552610584
 20
-0.1153647864176415
  0
LWPOLYLINE
  5
7DE1B343D9DF959
330
7DE1B343D9DFA34
100
AcDbEntity
  8
TEXT
100
AcDbPolyline
 90
        3
 70
     0
 43
0.0006660908203125
 10
0.0867737194652152
 20
-0.2286002258707692
 10
0.200009158918341
 20
-0.2286002258707692
 10
0.200009158918341
 20
-0.1153647864176415
  0
LWPOLYLINE
  5
7DE1B343D9DF95E
330
7DE1B343D9DFA34
100
AcDbEntity
  8
TEXT
100
AcDbPolyline
 90
        5
 70
     0
 43
0.0001332181640625
 10
0.0567996325511542
 20
-0.1553302356363931
 10
0.0567996325511542
 20
-0.1420084192301426
 10
0.0201646374339661
 20
-0.1420084192301426
 10
0.0201646374339661
 20
-0.1053734241129563
 10
0.0068428210277156
 20
-0.1053734241129563
  0
LWPOLYLINE
  5
7DE1B343D9DF965
330
7DE1B343D9DFA34
100
AcDbEntity
  8
TEXT
100
AcDbPolyline
 90
        2
 70
     0
 43
0.0006660908203125
 10
0.0468082702464636
 20
-0.2019565930582681
 10
0.0468082702464636
 20
-0.2286002258707692
  0
LWPOLYLINE
  5
7DE1B343D9DF969
330
7DE1B343D9DFA34
100
AcDbEntity
  8
TEXT
100
AcDbPolyline
 90
        2
 70
     0
 43
0.0001332181640625
 10
0.0468082702464636
 20
-0.2019565930582681
 10
0.0567996325511542
 20
-0.1420084192301426
  0
LWPOLYLINE
  5
7DE1B343D9DF96D
330
7DE1B343D9DFA34
100
AcDbEntity
  8
TEXT
100
AcDbPolyline
 90
        2
 70
     0
 43
0.0001332181640625
 10
0.0468082702464636
 20
-0.2286002258707692
 10
0.0567996325511542
 20
-0.1553302356363931
  0
LWPOLYLINE
  5
7DE1B343D9DF971
330
7DE1B343D9DFA34
100
AcDbEntity
  8
TEXT
100
AcDbPolyline
 90
        5
 70
     0
 43
0.0001332181640625
 10
0.0068428210277156
 20
-0.0853906995035823
 10
0.0201646374339644
 20
-0.0853906995035823
 10
0.0201646374339644
 20
-0.0487557043863925
 10
0.0567996325511542
 20
-0.0487557043863925
 10
0.0567996325511542
 20
-0.0354338879801455
  0
LWPOLYLINE
  5
7DE1B343D9DF978
330
7DE1B343D9DFA34
100
AcDbEntity
  8
TEXT
100
AcDbPolyline
 90
        5
 70
     0
 43
0.0001332181640625
 10
0.0767823571605264
 20
-0.0354338879801455
 10
0.0767823571605264
 20
-0.0487557043863925
 10
0.1134173522777162
 20
-0.0487557043863925
 10
0.1134173522777162
 20
-0.0853906995035823
 10
0.1267391686839649
 20
-0.0853906995035823
  0
LWPOLYLINE
  5
7DE1B343D9DF97F
330
7DE1B343D9DFA34
100
AcDbEntity
  8
TEXT
100
AcDbPolyline
 90
        2
 70
     0
 43
0.0001332181640625
 10
0.0867737194652152
 20
-0.2019565930582681
 10
0.0767823571605264
 20
-0.1420084192301426
  0
LWPOLYLINE
  5
7DE1B343D9DF983
330
7DE1B343D9DFA34
100
AcDbEntity
  8
TEXT
100
AcDbPolyline
 90
        2
 70
     0
 43
0.0001332181640625
 10
0.0767823571605264
 20
-0.1553302356363931
 10
0.0867737194652152
 20
-0.2286002258707692
  0
LWPOLYLINE
  5
7DE1B343D9DF987
330
7DE1B343D9DFA34
100
AcDbEntity
  8
TEXT
100
AcDbPolyline
 90
        2
 70
     0
 43
0.0006660908203125
 10
0.0867737194652152
 20
-0.2019565930582681
 10
0.0867737194652152
 20
-0.2286002258707692
  0
LWPOLYLINE
  5
7DE1B343D9DF98B
330
7DE1B343D9DFA34
100
AcDbEntity
  8
TEXT
100
AcDbPolyline
 90
        5
 70
     0
 43
0.0001332181640625
 10
0.1267391686839649
 20
-0.1053734241129563
 10
0.1134173522777162
 20
-0.1053734241129563
 10
0.1134173522777162
 20
-0.1420084192301426
 10
0.0767823571605264
 20
-0.1420084192301426
 10
0.0767823571605264
 20
-0.1553302356363931
  0
LWPOLYLINE
  5
7DE1B343D9DF992
330
7DE1B343D9DFA34
100
AcDbEntity
  8
TEXT
100
AcDbPolyline
 90
        2
 70
     0
 43
0.0006660908203125
 10
0.17336552610584
 20
-0.0753993371988935
 10
0.200009158918341
 20
-0.0753993371988935
  0
LWPOLYLINE
  5
7DE1B343D9DF996
330
7DE1B343D9DFA34
100
AcDbEntity
  8
TEXT
100
AcDbPolyline
 90
        2
 70
     0
 43
0.0006660908203125
 10
0.17336552610584
 20
-0.1153647864176415
 10
0.200009158918341
 20
-0.1153647864176415
  0
LINE
  5
7DE1B343D9DF99A
330
7DE1B343D9DFA34
100
AcDbEntity
  8
TEXT
100
AcDbLine
 10
0.470123295766366
 20
-0.0264405924025349
 30
0.0
 11
0.6370289497953373
 21
-0.0264405924025349
 31
0.0
  0
LINE
  5
7DE1B343D9DF99B
330
7DE1B343D9DFA34
100
AcDbEntity
  8
TEXT
100
AcDbLine
 10
0.535723432010667
 20
-0.0622453140131628
 30
0.0
 11
0.470123295766366
 21
-0.0622453140131628
 31
0.0
  0
LINE
  5
7DE1B343D9DF99C
330
7DE1B343D9DFA34
100
AcDbEntity
  8
TEXT
100
AcDbLine
 10
0.3827985062056143
 20
-0.2286369307342804
 30
0.0
 11
0.535723432010667
 21
-0.2286369307342804
 31
0.0
  0
LINE
  5
7DE1B343D9DF99D
330
7DE1B343D9DFA34
100
AcDbEntity
  8
TEXT
100
AcDbLine
 10
0.5406638059169467
 20
-0.1602799244008411
 30
0.0
 11
0.3827985062056125
 21
-0.1602799244008411
 31
0.0
  0
LINE
  5
7DE1B343D9DF99E
330
7DE1B343D9DFA34
100
AcDbEntity
  8
TEXT
100
AcDbLine
 10
0.4648859656521179
 20
-0.1263388166387765
 30
0.0
 11
0.5406638059169467
 21
-0.1263388166387765
 31
0.0
  0
ARC
  5
7DE1B343D9DF99F
330
7DE1B343D9DFA34
100
AcDbEntity
  8
TEXT
100
AcDbCircle
 10
0.4701232957663669
 20
-0.044342953207847
 30
0.0
 40
0.017902360805315
100
AcDbArc
 50
90.0
 51
270.0
  0
LINE
  5
7DE1B343D9DF9A0
330
7DE1B343D9DFA34
100
AcDbEntity
  8
TEXT
100
AcDbLine
 10
0.3827985062056125
 20
-0.1602799244008411
 30
0.0
 11
0.3827985062056143
 21
-0.2286369307342804
 31
0.0
  0
LINE
  5
7DE1B343D9DF9A1
330
7DE1B343D9DFA34
100
AcDbEntity
  8
TEXT
100
AcDbLine
 10
0.6370289497953373
 20
-0.0264405924025349
 30
0.0
 11
0.6370289497953373
 21
-0.1688445393962306
 31
0.0
  0
ARC
  5
7DE1B343D9DF9A2
330
7DE1B343D9DFA34
100
AcDbEntity
  8
TEXT
100
AcDbCircle
 10
0.5357234320106679
 20
-0.1454411223737233
 30
0.0
 40
0.0831958083605586
100
AcDbArc
 50
270.0
 51
90.0
  0
ARC
  5
7DE1B343D9DF9A3
330
7DE1B343D9DFA34
100
AcDbEntity
  8
TEXT
100
AcDbCircle
 10
0.5406638059169476
 20
-0.143309370519807
 30
0.0
 40
0.0169705538810321
100
AcDbArc
 50
270.0
 51
90.0
  0
LWPOLYLINE
  5
7DE1B343D9DF9A4
330
7DE1B343D9DFA34
100
AcDbEntity
  8
TEXT
100
AcDbPolyline
 90
        2
 70
     0
 43
0.0006660908203125
 10
0.0468082702464636
 20
0.0111924694417331
 10
0.0468082702464636
 20
0.0378361022542341
  0
LWPOLYLINE
  5
7DE1B343D9DF9A8
330
7DE1B343D9DFA34
100
AcDbEntity
  8
TEXT
100
AcDbPolyline
 90
        2
 70
     0
 43
0.0006660908203125
 10
0.0867737194652152
 20
0.0111924694417331
 10
0.0867737194652152
 20
0.0378361022542341
  0
LINE
  5
7DE1B343D9DF9AC
330
7DE1B343D9DFA34
100
AcDbEntity
  8
TEXT
100
AcDbLine
 10
0.6406177185506302
 20
0.0378361022542306
 30
0.0
 11
0.4648859656521179
 21
0.0378361022542306
 31
0.0
  0
LINE
  5
7DE1B343D9DF9AD
330
7DE1B343D9DFA34
100
AcDbEntity
  8
TEXT
100
AcDbLine
 10
0.6406177185506302
 20
0.0722240198483688
 30
0.0
 11
0.6406177185506302
 21
0.0378361022542306
 31
0.0
  0
LINE
  5
7DE1B343D9DF9AE
330
7DE1B343D9DFA34
100
AcDbEntity
  8
TEXT
100
AcDbLine
 10
0.8310896105704824
 20
-0.06303589385889
 30
0.0
 11
0.7724592895385446
 21
0.0378361022542306
 31
0.0
  0
LINE
  5
7DE1B343D9DF9AF
330
7DE1B343D9DFA34
100
AcDbEntity
  8
TEXT
100
AcDbLine
 10
0.8898381733763478
 20
0.0378361022542306
 30
0.0
 11
0.8310896105704824
 21
-0.06303589385889
 31
0.0
  0
LINE
  5
7DE1B343D9DF9B0
330
7DE1B343D9DFA34
100
AcDbEntity
  8
TEXT
100
AcDbLine
 10
0.9867687987360891
 20
-0.1462490926312812
 30
0.0
 11
0.9867687987360891
 21
0.1058475799930411
 31
0.0
  0
LINE
  5
7DE1B343D9DF9B1
330
7DE1B343D9DFA34
100
AcDbEntity
  8
TEXT
100
AcDbLine
 10
1.019080652873749
 20
0.0378361022542306
 30
0.0
 11
1.019080652873749
 21
-0.1630281044781777
 31
0.0
  0
LINE
  5
7DE1B343D9DF9B2
330
7DE1B343D9DFA34
100
AcDbEntity
  8
TEXT
100
AcDbLine
 10
1.019080652873749
 20
-0.1630281044781777
 30
0.0
 11
1.002087015989147
 21
-0.1630281044781777
 31
0.0
  0
LINE
  5
7DE1B343D9DF9B3
330
7DE1B343D9DFA34
100
AcDbEntity
  8
TEXT
100
AcDbLine
 10
0.9879083722322839
 20
-0.2286369307342804
 30
0.0
 11
1.085911705931718
 21
-0.2286369307342804
 31
0.0
  0
LINE
  5
7DE1B343D9DF9B4
330
7DE1B343D9DFA34
100
AcDbEntity
  8
TEXT
100
AcDbLine
 10
0.821489373573528
 20
-0.2086784246292675
 30
0.0
 11
0.9187890796669726
 21
-0.0443282136939994
 31
0.0
  0
ARC
  5
7DE1B343D9DF9B5
330
7DE1B343D9DFA34
100
AcDbEntity
  8
TEXT
100
AcDbCircle
 10
0.7874458136613141
 20
-0.1890892084605847
 30
0.0
 40
0.0392772371940762
100
AcDbArc
 50
270.1604552698595
 51
330.0831797321295
  0
LINE
  5
7DE1B343D9DF9B6
330
7DE1B343D9DFA34
100
AcDbEntity
  8
TEXT
100
AcDbLine
 10
0.6909155572754429
 20
-0.2286369307342804
 30
0.0
 11
0.7875558083504373
 21
-0.2283662916359981
 31
0.0
  0
LWPOLYLINE
  5
7DE1B343D9DF9B7
330
7DE1B343D9DFA34
100
AcDbEntity
  8
TEXT
100
AcDbPolyline
 90
        6
 70
     1
 43
0.0
 10
0.7334393608505926
 20
-0.0264405924025349
 10
0.7031227666303844
 20
-0.0264405924025349
 10
0.7031227666303844
 20
-0.1495515904574292
 42
0.407328721240804
 10
0.7146664177918608
 20
-0.1613705051338153
 10
0.7752881168365916
 20
-0.1613705051338153
 10
0.7927534572439095
 20
-0.1285582760903361
  0
LINE
  5
7DE1B343D9DF9BF
330
7DE1B343D9DFA34
100
AcDbEntity
  8
TEXT
100
AcDbLine
 10
0.9187890796669726
 20
-0.0443282136939994
 30
0.0
 11
0.9187890796669726
 21
-0.1770855885193557
 31
0.0
  0
ARC
  5
7DE1B343D9DF9C0
330
7DE1B343D9DFA34
100
AcDbEntity
  8
TEXT
100
AcDbCircle
 10
1.002087015989146
 20
-0.1476462982347522
 30
0.0
 40
0.0153818062434269
100
AcDbArc
 50
174.7883570302258
 51
270.0
  0
LWPOLYLINE
  5
7DE1B343D9DF9C1
330
7DE1B343D9DFA34
100
AcDbEntity
  8
TEXT
100
AcDbPolyline
 90
        2
 70
     0
 43
0.0
 10
0.9187890796669709
 20
-0.1770855885193521
 42
0.3318488747599744
 10
0.9879083722322839
 20
-0.2286369307342804
 42
-6.868794160588311
  0
LINE
  5
7DE1B343D9DF9C5
330
7DE1B343D9DFA34
100
AcDbEntity
  8
TEXT
100
AcDbLine
 10
1.143300774920979
 20
-0.2286369307342804
 30
0.0
 11
1.210358821702819
 21
-0.2286369307342804
 31
0.0
  0
LINE
  5
7DE1B343D9DF9C6
330
7DE1B343D9DFA34
100
AcDbEntity
  8
TEXT
100
AcDbLine
 10
1.143300774920979
 20
-0.0339943815686448
 30
0.0
 11
1.143300774920979
 21
-0.2286369307342804
 31
0.0
  0
LINE
  5
7DE1B343D9DF9C7
330
7DE1B343D9DFA34
100
AcDbEntity
  8
TEXT
100
AcDbLine
 10
1.085911705931718
 20
-0.0264405924025349
 30
0.0
 11
1.135746985754866
 21
-0.0264405924025349
 31
0.0
  0
LINE
  5
7DE1B343D9DF9C8
330
7DE1B343D9DFA34
100
AcDbEntity
  8
TEXT
100
AcDbLine
 10
1.085911705931718
 20
-0.2286369307342804
 30
0.0
 11
1.085911705931718
 21
-0.0264405924025349
 31
0.0
  0
LWPOLYLINE
  5
7DE1B343D9DF9C9
330
7DE1B343D9DFA34
100
AcDbEntity
  8
TEXT
100
AcDbPolyline
 90
        2
 70
     0
 43
0.0
 10
1.135746985754864
 20
-0.0264405924025349
 42
-0.4142135623731017
 10
1.143300774920977
 20
-0.0339943815686448
 42
-0.9999999999999998
  0
LINE
  5
7DE1B343D9DF9CD
330
7DE1B343D9DFA34
100
AcDbEntity
  8
TEXT
100
AcDbLine
 10
1.341556986532549
 20
-0.0264405924025349
 30
0.0
 11
1.341556986532549
 21
-0.1014929984767415
 31
0.0
  0
LINE
  5
7DE1B343D9DF9CE
330
7DE1B343D9DFA34
100
AcDbEntity
  8
TEXT
100
AcDbLine
 10
1.210358821702819
 20
-0.0264405924025349
 30
0.0
 11
1.264492418623769
 21
-0.0264405924025349
 31
0.0
  0
LINE
  5
7DE1B343D9DF9CF
330
7DE1B343D9DFA34
100
AcDbEntity
  8
TEXT
100
AcDbLine
 10
1.210358821702819
 20
-0.2286369307342804
 30
0.0
 11
1.210358821702819
 21
-0.0264405924025349
 31
0.0
  0
LWPOLYLINE
  5
7DE1B343D9DF9D0
330
7DE1B343D9DFA34
100
AcDbEntity
  8
TEXT
100
AcDbPolyline
 90
        2
 70
     0
 43
0.0
 10
1.264492418623768
 20
-0.0264405924025349
 42
-0.4142135623731017
 10
1.272046207789881
 20
-0.0339943815686448
 42
-0.9999999999999998
  0
LWPOLYLINE
  5
7DE1B343D9DF9D4
330
7DE1B343D9DFA34
100
AcDbEntity
  8
TEXT
100
AcDbPolyline
 90
        4
 70
     0
 43
0.0
 10
1.272046207789881
 20
-0.0339943815686448
 10
1.272046207789881
 20
-0.2286369307342804
 10
1.340524491077739
 20
-0.2286369307342804
 10
1.340524491077739
 20
-0.1851459857838423
 42
-1.714843617202739
  0
LINE
  5
7DE1B343D9DF9DA
330
7DE1B343D9DFA34
100
AcDbEntity
  8
TEXT
100
AcDbLine
 10
0.7006603233946372
 20
0.0378361022542306
 30
0.0
 11
0.7006603233946372
 21
0.0722240198483688
 31
0.0
  0
LINE
  5
7DE1B343D9DF9DB
330
7DE1B343D9DFA34
100
AcDbEntity
  8
TEXT
100
AcDbLine
 10
0.7724592895385446
 20
0.0378361022542306
 30
0.0
 11
0.7006603233946372
 21
0.0378361022542306
 31
0.0
  0
LINE
  5
7DE1B343D9DF9DC
330
7DE1B343D9DFA34
100
AcDbEntity
  8
TEXT
100
AcDbLine
 10
0.9199600861697241
 20
0.0378361022542306
 30
0.0
 11
0.8898381733763478
 21
0.0378361022542306
 31
0.0
  0
LINE
  5
7DE1B343D9DF9DD
330
7DE1B343D9DFA34
100
AcDbEntity
  8
TEXT
100
AcDbLine
 10
0.9199600861697241
 20
0.1058475799930411
 30
0.0
 11
0.9199600861697241
 21
0.0378361022542306
 31
0.0
  0
LINE
  5
7DE1B343D9DF9DE
330
7DE1B343D9DFA34
100
AcDbEntity
  8
TEXT
100
AcDbLine
 10
0.9867687987360891
 20
0.1058475799930411
 30
0.0
 11
0.9199600861697241
 21
0.1058475799930411
 31
0.0
  0
LWPOLYLINE
  5
7DE1B343D9DF9DF
330
7DE1B343D9DFA34
100
AcDbEntity
  8
TEXT
100
AcDbPolyline
 90
        3
 70
     0
 43
0.0
 10
1.307180558334091
 20
0.0378361022542341
 10
1.188880399518047
 20
0.0378361022542341
 10
1.188880399518047
 20
0.0106686054933382
 42
-1.960274751411753
  0
LINE
  5
7DE1B343D9DF9E4
330
7DE1B343D9DFA34
100
AcDbEntity
  8
TEXT
100
AcDbLine
 10
1.153098708804885
 20
0.0378361022542306
 30
0.0
 11
1.019080652873749
 21
0.0378361022542306
 31
0.0
  0
LWPOLYLINE
  5
7DE1B343D9DF9E5
330
7DE1B343D9DFA34
100
AcDbEntity
  8
TEXT
100
AcDbPolyline
 90
        2
 70
     0
 43
0.0
 10
1.153098708804885
 20
0.0378361022542341
 42
-0.3328679258950098
 10
1.188880399518047
 20
0.0106686054933382
 42
6.772930709997214
  0
LINE
  5
7DE1B343D9DF9E9
330
7DE1B343D9DFA34
100
AcDbEntity
  8
TEXT
100
AcDbLine
 10
1.342962249047258
 20
0.0378361022542306
 30
0.0
 11
1.342962249047258
 21
0.0095135564845867
 31
0.0
  0
LWPOLYLINE
  5
7DE1B343D9DF9EA
330
7DE1B343D9DFA34
100
AcDbEntity
  8
TEXT
100
AcDbPolyline
 90
        2
 70
     0
 43
0.0
 10
1.307180558334091
 20
0.0378361022542341
 42
-0.3277054968067132
 10
1.342962249047256
 20
0.0095135564845902
 42
6.667889725900311
  0
LINE
  5
7DE1B343D9DF9EE
330
7DE1B343D9DFA34
100
AcDbEntity
  8
TEXT
100
AcDbLine
 10
1.556754097139358
 20
-0.0673758762991968
 30
0.0
 11
1.513003325957456
 21
0.0148743996969484
 31
0.0
  0
LINE
  5
7DE1B343D9DF9EF
330
7DE1B343D9DFA34
100
AcDbEntity
  8
TEXT
100
AcDbLine
 10
1.556754097139358
 20
0.0378361022542306
 30
0.0
 11
1.556754097139358
 21
-0.0673758762991968
 31
0.0
  0
LINE
  5
7DE1B343D9DF9F0
330
7DE1B343D9DFA34
100
AcDbEntity
  8
TEXT
100
AcDbLine
 10
1.784437836077727
 20
-0.0380292241573075
 30
0.0
 11
1.784437836077727
 21
0.1033003080218313
 31
0.0
  0
LINE
  5
7DE1B343D9DF9F1
330
7DE1B343D9DFA34
100
AcDbEntity
  8
TEXT
100
AcDbLine
 10
1.831535994633711
 20
0.0378361022542306
 30
0.0
 11
1.784437836077727
 21
-0.0380292241573075
 31
0.0
  0
LINE
  5
7DE1B343D9DF9F2
330
7DE1B343D9DFA34
100
AcDbEntity
  8
TEXT
100
AcDbLine
 10
1.841970711397634
 20
-0.072057140686743
 30
0.0
 11
1.906527827363339
 21
0.0378361022542306
 31
0.0
  0
LINE
  5
7DE1B343D9DF9F3
330
7DE1B343D9DFA34
100
AcDbEntity
  8
TEXT
100
AcDbLine
 10
1.720602844854954
 20
-0.2286369307342804
 30
0.0
 11
1.784981029173574
 21
-0.2286369307342804
 31
0.0
  0
LWPOLYLINE
  5
7DE1B343D9DF9F4
330
7DE1B343D9DFA34
100
AcDbEntity
  8
TEXT
100
AcDbPolyline
 90
        2
 70
     0
 43
0.0
 10
1.560693774444396
 20
-0.1851459857838423
 42
-0.2901071551932486
 10
1.517617841576751
 20
-0.2286369307342804
 42
-5.328517124445184
  0
ARC
  5
7DE1B343D9DF9F8
330
7DE1B343D9DFA34
100
AcDbEntity
  8
TEXT
100
AcDbCircle
 10
1.448763259919837
 20
-0.0547999674025322
 30
0.0
 40
0.028359375
100
AcDbArc
 50
25.78218179591245
 51
90.0
  0
LINE
  5
7DE1B343D9DF9F9
330
7DE1B343D9DFA34
100
AcDbEntity
  8
TEXT
100
AcDbLine
 10
1.48456433522396
 20
-0.0637155658646672
 30
0.0
 11
1.474299574810395
 21
-0.0424650262919729
 31
0.0
  0
LINE
  5
7DE1B343D9DF9FA
330
7DE1B343D9DFA34
100
AcDbEntity
  8
TEXT
100
AcDbLine
 10
1.402276345440576
 20
-0.0637155658646672
 30
0.0
 11
1.48456433522396
 21
-0.0637155658646672
 31
0.0
  0
LWPOLYLINE
  5
7DE1B343D9DF9FB
330
7DE1B343D9DFA34
100
AcDbEntity
  8
TEXT
100
AcDbPolyline
 90
        4
 70
     1
 43
0.0
 10
1.497495376506859
 20
-0.1256729527502552
 10
1.408835057847
 20
-0.1256729527502552
 42
0.9999999999999998
 10
1.408835057847
 20
-0.1680714932541159
 10
1.497495376506859
 20
-0.1680714932541159
 42
1.0
  0
LWPOLYLINE
  5
7DE1B343D9DFA01
330
7DE1B343D9DFA34
100
AcDbEntity
  8
TEXT
100
AcDbPolyline
 90
        2
 70
     0
 43
0.0
 10
1.383600423945374
 20
-0.2286369307342804
 10
1.517617841576751
 20
-0.2286369307342804
 42
0.9999999999999998
  0
LINE
  5
7DE1B343D9DFA05
330
7DE1B343D9DFA34
100
AcDbEntity
  8
TEXT
100
AcDbLine
 10
1.643954863562391
 20
-0.0264405924025349
 30
0.0
 11
1.720602844854948
 21
-0.0264405924025349
 31
0.0
  0
LINE
  5
7DE1B343D9DFA06
330
7DE1B343D9DFA34
100
AcDbEntity
  8
TEXT
100
AcDbLine
 10
1.720602844854948
 20
-0.0264405924025349
 30
0.0
 11
1.720602844854954
 21
-0.2286369307342804
 31
0.0
  0
ARC
  5
7DE1B343D9DFA07
330
7DE1B343D9DFA34
100
AcDbEntity
  8
TEXT
100
AcDbCircle
 10
1.643954863562389
 20
-0.0513464676851976
 30
0.0
 40
0.0249058752826653
100
AcDbArc
 50
89.99971217465335
 51
179.9999999999985
  0
LINE
  5
7DE1B343D9DFA08
330
7DE1B343D9DFA34
100
AcDbEntity
  8
TEXT
100
AcDbLine
 10
1.619048988279731
 20
-0.2286369307342804
 30
0.0
 11
1.619048988279726
 21
-0.051346425302812
 31
0.0
  0
LWPOLYLINE
  5
7DE1B343D9DFA09
330
7DE1B343D9DFA34
100
AcDbEntity
  8
TEXT
100
AcDbPolyline
 90
        2
 70
     0
 43
0.0
 10
1.560693774444396
 20
-0.2286369307342804
 10
1.61904898827973
 20
-0.2286369307342804
  0
LWPOLYLINE
  5
7DE1B343D9DFA0D
330
7DE1B343D9DFA34
100
AcDbEntity
  8
TEXT
100
AcDbPolyline
 90
        2
 70
     0
 43
0.0
 10
1.560693774444396
 20
-0.1851459857838423
 10
1.560693774444396
 20
-0.2286369307342804
  0
LINE
  5
7DE1B343D9DFA11
330
7DE1B343D9DFA34
100
AcDbEntity
  8
TEXT
100
AcDbLine
 10
1.937462934761245
 20
-0.2286369307342804
 30
0.0
 11
1.841970711397634
 21
-0.072057140686743
 31
0.0
  0
LINE
  5
7DE1B343D9DFA12
330
7DE1B343D9DFA34
100
AcDbEntity
  8
TEXT
100
AcDbLine
 10
1.860884562385039
 20
-0.2286369307342804
 30
0.0
 11
1.937462934761245
 21
-0.2286369307342804
 31
0.0
  0
LINE
  5
7DE1B343D9DFA13
330
7DE1B343D9DFA34
100
AcDbEntity
  8
TEXT
100
AcDbLine
 10
1.784981029173574
 20
-0.0970573622581002
 30
0.0
 11
1.860884562385039
 21
-0.2286369307342804
 31
0.0
  0
LINE
  5
7DE1B343D9DFA14
330
7DE1B343D9DFA34
100
AcDbEntity
  8
TEXT
100
AcDbLine
 10
1.784981029173574
 20
-0.2286369307342804
 30
0.0
 11
1.784981029173574
 21
-0.0970573622581002
 31
0.0
  0
LINE
  5
7DE1B343D9DFA15
330
7DE1B343D9DFA34
100
AcDbEntity
  8
TEXT
100
AcDbLine
 10
1.784437836077727
 20
0.1033003080218313
 30
0.0
 11
1.716122957528454
 21
0.1033003080218313
 31
0.0
  0
ARC
  5
7DE1B343D9DFA16
330
7DE1B343D9DFA34
100
AcDbEntity
  8
TEXT
100
AcDbCircle
 10
1.475767218487247
 20
-0.0037474648666718
 30
0.0
 40
0.0416329381542859
100
AcDbArc
 50
26.56974201007528
 51
87.20939649401342
  0
LINE
  5
7DE1B343D9DFA17
330
7DE1B343D9DFA34
100
AcDbEntity
  8
TEXT
100
AcDbLine
 10
1.620651003438859
 20
0.0378361022542306
 30
0.0
 11
1.556754097139358
 21
0.0378361022542306
 31
0.0
  0
LINE
  5
7DE1B343D9DFA18
330
7DE1B343D9DFA34
100
AcDbEntity
  8
TEXT
100
AcDbLine
 10
1.620651003438859
 20
0.0102884523933559
 30
0.0
 11
1.620651003438859
 21
0.0378361022542306
 31
0.0
  0
ARC
  5
7DE1B343D9DFA19
330
7DE1B343D9DFA34
100
AcDbEntity
  8
TEXT
100
AcDbCircle
 10
1.651843820501967
 20
0.0065903749719657
 30
0.0
 40
0.0314112657011332
100
AcDbArc
 50
95.88484768694724
 51
173.2388340632136
  0
LINE
  5
7DE1B343D9DFA1A
330
7DE1B343D9DFA34
100
AcDbEntity
  8
TEXT
100
AcDbLine
 10
1.716122957528448
 20
0.0378361022542306
 30
0.0
 11
1.648623239878932
 21
0.0378361022542306
 31
0.0
  0
LINE
  5
7DE1B343D9DFA1B
330
7DE1B343D9DFA34
100
AcDbEntity
  8
TEXT
100
AcDbLine
 10
1.716122957528454
 20
0.1033003080218313
 30
0.0
 11
1.716122957528448
 21
0.0378361022542306
 31
0.0
  0
LINE
  5
7DE1B343D9DFA1C
330
7DE1B343D9DFA34
100
AcDbEntity
  8
TEXT
100
AcDbLine
 10
1.906527827363339
 20
0.0378361022542306
 30
0.0
 11
1.831535994633713
 21
0.0378361022542306
 31
0.0
  0
ENDSEC
  0
SECTION
  2
OBJECTS
  0
DICTIONARY
  5
7DE1B343D9DFA28
330
0
100
AcDbDictionary
  3
ACAD_GROUP
350
7DE1B343D9DFA29
  3
ACAD_LAYOUT
350
7DE1B343D9DFA4E
  3
ACAD_MLINESTYLE
350
7DE1B343D9DFA2A
  3
ACAD_PLOTSETTINGS
350
7DE1B343D9DFA4F
  3
ACAD_PLOTSTYLENAME
350
7DE1B343D9DFA4C
  3
ACDBHEADERROUNDTRIPXREC
350
7DE1B343D9DFA59
  3
ACDBVARIABLEDICTIONARY
350
7DE1B343D9DFA56
  0
DICTIONARY
  5
7DE1B343D9DFA7B
330
7DE1B343D9DFA34
100
AcDbDictionary
280
     1
  3
ACAD_LAYOUTSELFREF
360
7DE1B343D9DFA7C
  0
DICTIONARY
  5
7DE1B343D9DFA79
330
7DE1B343D9DFA31
100
AcDbDictionary
280
     1
  3
ACAD_LAYOUTSELFREF
360
7DE1B343D9DFA7A
  0
DICTIONARY
  5
7DE1B343D9DFA29
102
{ACAD_REACTORS
330
7DE1B343D9DFA28
102
}
330
7DE1B343D9DFA28
100
AcDbDictionary
  0
DICTIONARY
  5
7DE1B343D9DFA4E
102
{ACAD_REACTORS
330
7DE1B343D9DFA28
102
}
330
7DE1B343D9DFA28
100
AcDbDictionary
  0
DICTIONARY
  5
7DE1B343D9DFA2A
102
{ACAD_REACTORS
330
7DE1B343D9DFA28
102
}
330
7DE1B343D9DFA28
100
AcDbDictionary
  3
STANDARD
350
7DE1B343D9DFA37
  0
DICTIONARY
  5
7DE1B343D9DFA4F
102
{ACAD_REACTORS
330
7DE1B343D9DFA28
102
}
330
7DE1B343D9DFA28
100
AcDbDictionary
  0
ACDBDICTIONARYWDFLT
  5
7DE1B343D9DFA4C
102
{ACAD_REACTORS
330
7DE1B343D9DFA28
102
}
330
7DE1B343D9DFA28
100
AcDbDictionary
281
     1
  3
Normal
350
7DE1B343D9DFA4D
100
AcDbDictionaryWithDefault
340
7DE1B343D9DFA4D
  0
DICTIONARY
  5
7DE1B343D9DFA59
102
{ACAD_REACTORS
330
7DE1B343D9DFA28
102
}
330
7DE1B343D9DFA28
100
AcDbDictionary
  3
CEPSNTYPE
350
7DE1B343D9DFA63
  3
FINGERPRINTGUID
350
7DE1B343D9DFA64
  3
HYPERLINKBASE
350
7DE1B343D9DFA5C
  3
INSUNITS
350
7DE1B343D9DFA62
  3
LAYOUTDICT
350
7DE1B343D9DFA5E
  3
LWETCUNION
350
7DE1B343D9DFA61
  3
PLOTSETDICT
350
7DE1B343D9DFA5F
  3
PLOTSTYLNAMDICT
350
7DE1B343D9DFA60
  3
PSVPSCALE
350
7DE1B343D9DFA66
  3
PUCSBASE
350
7DE1B343D9DFA69
  3
PUCSORGBACK
350
7DE1B343D9DFA6F
  3
PUCSORGBOTTOM
350
7DE1B343D9DFA6B
  3
PUCSORGFRONT
350
7DE1B343D9DFA6E
  3
PUCSORGLEFT
350
7DE1B343D9DFA6C
  3
PUCSORGRIGHT
350
7DE1B343D9DFA6D
  3
PUCSORGTOP
350
7DE1B343D9DFA6A
  3
PUCSORTHOREF
350
7DE1B343D9DFA67
  3
PUCSORTHOVIEW
350
7DE1B343D9DFA68
  3
STYLESHEET
350
7DE1B343D9DFA5D
  3
TSTACKALIGN
350
7DE1B343D9DFA5A
  3
TSTACKSIZE
350
7DE1B343D9DFA5B
  3
UCSBASE
350
7DE1B343D9DFA72
  3
UCSORGBACK
350
7DE1B343D9DFA78
  3
UCSORGBOTTOM
350
7DE1B343D9DFA74
  3
UCSORGFRONT
350
7DE1B343D9DFA77
  3
UCSORGLEFT
350
7DE1B343D9DFA75
  3
UCSORGRIGHT
350
7DE1B343D9DFA76
  3
UCSORGTOP
350
7DE1B343D9DFA73
  3
UCSORTHOREF
350
7DE1B343D9DFA70
  3
UCSORTHOVIEW
350
7DE1B343D9DFA71
  3
VERSIONGUID
350
7DE1B343D9DFA65
  0
DICTIONARY
  5
7DE1B343D9DFA56
102
{ACAD_REACTORS
330
7DE1B343D9DFA28
102
}
330
7DE1B343D9DFA28
100
AcDbDictionary
  3
DIMASSOC
350
7DE1B343D9DFA57
  0
XRECORD
  5
7DE1B343D9DFA7C
102
{ACAD_REACTORS
330
7DE1B343D9DFA7B
102
}
330
7DE1B343D9DFA7B
100
AcDbXrecord
340
7DE1B343D9DFA34
  0
XRECORD
  5
7DE1B343D9DFA7A
102
{ACAD_REACTORS
330
7DE1B343D9DFA79
102
}
330
7DE1B343D9DFA79
100
AcDbXrecord
340
7DE1B343D9DFA31
  0
MLINESTYLE
  5
7DE1B343D9DFA37
102
{ACAD_REACTORS
330
7DE1B343D9DFA2A
102
}
330
7DE1B343D9DFA2A
100
AcDbMlineStyle
  2
STANDARD
 70
     0
  3

 62
     0
 51
90.0
 52
90.0
 71
     2
 49
0.5
 62
   256
  6
BYLAYER
 49
-0.5
 62
   256
  6
BYLAYER
  0
ACDBPLACEHOLDER
  5
7DE1B343D9DFA4D
102
{ACAD_REACTORS
330
7DE1B343D9DFA4C
102
}
330
7DE1B343D9DFA4C
100
AcDbPlaceHolder
280
     0
  0
XRECORD
  5
7DE1B343D9DFA63
102
{ACAD_REACTORS
330
7DE1B343D9DFA59
102
}
330
7DE1B343D9DFA59
100
AcDbXrecord
 90
        0
  0
XRECORD
  5
7DE1B343D9DFA64
102
{ACAD_REACTORS
330
7DE1B343D9DFA59
102
}
330
7DE1B343D9DFA59
100
AcDbXrecord
  1
{130B7BB0-8DB6-11D6-88E6-0090279574E7}
  0
XRECORD
  5
7DE1B343D9DFA5C
102
{ACAD_REACTORS
330
7DE1B343D9DFA59
102
}
330
7DE1B343D9DFA59
100
AcDbXrecord
  1

  0
XRECORD
  5
7DE1B343D9DFA62
102
{ACAD_REACTORS
330
7DE1B343D9DFA59
102
}
330
7DE1B343D9DFA59
100
AcDbXrecord
 90
        0
  0
XRECORD
  5
7DE1B343D9DFA5E
102
{ACAD_REACTORS
330
7DE1B343D9DFA59
102
}
330
7DE1B343D9DFA59
100
AcDbXrecord
340
7DE1B343D9DFA4E
  0
XRECORD
  5
7DE1B343D9DFA61
102
{ACAD_REACTORS
330
7DE1B343D9DFA59
102
}
330
7DE1B343D9DFA59
100
AcDbXrecord
 90
    14877
  0
XRECORD
  5
7DE1B343D9DFA5F
102
{ACAD_REACTORS
330
7DE1B343D9DFA59
102
}
330
7DE1B343D9DFA59
100
AcDbXrecord
340
7DE1B343D9DFA4F
  0
XRECORD
  5
7DE1B343D9DFA60
102
{ACAD_REACTORS
330
7DE1B343D9DFA59
102
}
330
7DE1B343D9DFA59
100
AcDbXrecord
340
7DE1B343D9DFA4C
  0
XRECORD
  5
7DE1B343D9DFA66
102
{ACAD_REACTORS
330
7DE1B343D9DFA59
102
}
330
7DE1B343D9DFA59
100
AcDbXrecord
 40
0.0
  0
XRECORD
  5
7DE1B343D9DFA69
102
{ACAD_REACTORS
330
7DE1B343D9DFA59
102
}
330
7DE1B343D9DFA59
100
AcDbXrecord
340
0
  0
XRECORD
  5
7DE1B343D9DFA6F
102
{ACAD_REACTORS
330
7DE1B343D9DFA59
102
}
330
7DE1B343D9DFA59
100
AcDbXrecord
 10
0.0
 20
0.0
 30
0.0
  0
XRECORD
  5
7DE1B343D9DFA6B
102
{ACAD_REACTORS
330
7DE1B343D9DFA59
102
}
330
7DE1B343D9DFA59
100
AcDbXrecord
 10
0.0
 20
0.0
 30
0.0
  0
XRECORD
  5
7DE1B343D9DFA6E
102
{ACAD_REACTORS
330
7DE1B343D9DFA59
102
}
330
7DE1B343D9DFA59
100
AcDbXrecord
 10
0.0
 20
0.0
 30
0.0
  0
XRECORD
  5
7DE1B343D9DFA6C
102
{ACAD_REACTORS
330
7DE1B343D9DFA59
102
}
330
7DE1B343D9DFA59
100
AcDbXrecord
 10
0.0
 20
0.0
 30
0.0
  0
XRECORD
  5
7DE1B343D9DFA6D
102
{ACAD_REACTORS
330
7DE1B343D9DFA59
102
}
330
7DE1B343D9DFA59
100
AcDbXrecord
 10
0.0
 20
0.0
 30
0.0
  0
XRECORD
  5
7DE1B343D9DFA6A
102
{ACAD_REACTORS
330
7DE1B343D9DFA59
102
}
330
7DE1B343D9DFA59
100
AcDbXrecord
 10
0.0
 20
0.0
 30
0.0
  0
XRECORD
  5
7DE1B343D9DFA67
102
{ACAD_REACTORS
330
7DE1B343D9DFA59
102
}
330
7DE1B343D9DFA59
100
AcDbXrecord
340
0
  0
XRECORD
  5
7DE1B343D9DFA68
102
{ACAD_REACTORS
330
7DE1B343D9DFA59
102
}
330
7DE1B343D9DFA59
100
AcDbXrecord
 70
     0
  0
XRECORD
  5
7DE1B343D9DFA5D
102
{ACAD_REACTORS
330
7DE1B343D9DFA59
102
}
330
7DE1B343D9DFA59
100
AcDbXrecord
  1

  0
XRECORD
  5
7DE1B343D9DFA5A
102
{ACAD_REACTORS
330
7DE1B343D9DFA59
102
}
330
7DE1B343D9DFA59
100
AcDbXrecord
 90
        1
  0
XRECORD
  5
7DE1B343D9DFA5B
102
{ACAD_REACTORS
330
7DE1B343D9DFA59
102
}
330
7DE1B343D9DFA59
100
AcDbXrecord
 90
       70
  0
XRECORD
  5
7DE1B343D9DFA72
102
{ACAD_REACTORS
330
7DE1B343D9DFA59
102
}
330
7DE1B343D9DFA59
100
AcDbXrecord
340
0
  0
XRECORD
  5
7DE1B343D9DFA78
102
{ACAD_REACTORS
330
7DE1B343D9DFA59
102
}
330
7DE1B343D9DFA59
100
AcDbXrecord
 10
0.0
 20
0.0
 30
0.0
  0
XRECORD
  5
7DE1B343D9DFA74
102
{ACAD_REACTORS
330
7DE1B343D9DFA59
102
}
330
7DE1B343D9DFA59
100
AcDbXrecord
 10
0.0
 20
0.0
 30
0.0
  0
XRECORD
  5
7DE1B343D9DFA77
102
{ACAD_REACTORS
330
7DE1B343D9DFA59
102
}
330
7DE1B343D9DFA59
100
AcDbXrecord
 10
0.0
 20
0.0
 30
0.0
  0
XRECORD
  5
7DE1B343D9DFA75
102
{ACAD_REACTORS
330
7DE1B343D9DFA59
102
}
330
7DE1B343D9DFA59
100
AcDbXrecord
 10
0.0
 20
0.0
 30
0.0
  0
XRECORD
  5
7DE1B343D9DFA76
102
{ACAD_REACTORS
330
7DE1B343D9DFA59
102
}
330
7DE1B343D9DFA59
100
AcDbXrecord
 10
0.0
 20
0.0
 30
0.0
  0
XRECORD
  5
7DE1B343D9DFA73
102
{ACAD_REACTORS
330
7DE1B343D9DFA59
102
}
330
7DE1B343D9DFA59
100
AcDbXrecord
 10
0.0
 20
0.0
 30
0.0
  0
XRECORD
  5
7DE1B343D9DFA70
102
{ACAD_REACTORS
330
7DE1B343D9DFA59
102
}
330
7DE1B343D9DFA59
100
AcDbXrecord
340
0
  0
XRECORD
  5
7DE1B343D9DFA71
102
{ACAD_REACTORS
330
7DE1B343D9DFA59
102
}
330
7DE1B343D9DFA59
100
AcDbXrecord
 70
     0
  0
XRECORD
  5
7DE1B343D9DFA65
102
{ACAD_REACTORS
330
7DE1B343D9DFA59
102
}
330
7DE1B343D9DFA59
100
AcDbXrecord
  1
{130B7BB2-8DB6-11D6-88E6-0090279574E7}
  0
DICTIONARYVAR
  5
7DE1B343D9DFA57
102
{ACAD_REACTORS
330
7DE1B343D9DFA56
102
}
330
7DE1B343D9DFA56
100
DictionaryVariables
280
     0
  1
1
  0
ENDSEC
  0
EOF
