  0
SECTION
  2
HEADER
  9
$ACADVER
  1
AC1014
  9
$ACADMAINTVER
 70
     9
  9
$DWGCODEPAGE
  3
ANSI_1252
  9
$INSBASE
 10
1.88109756497013
 20
1.404539840909101
 30
0.0
  9
$EXTMIN
 10
0.2410123026043866
 20
-0.0564589826561059
 30
0.0
  9
$EXTMAX
 10
3.726231624351514
 20
1.952560298161275
 30
0.0
  9
$LIMMIN
 10
0.0
 20
0.0
  9
$LIMMAX
 10
18.0
 20
12.0
  9
$ORTHOMODE
 70
     1
  9
$REGENMODE
 70
     1
  9
$FILLMODE
 70
     1
  9
$QTEXTMODE
 70
     0
  9
$MIRRTEXT
 70
     0
  9
$DRAGMODE
 70
     2
  9
$LTSCALE
 40
1.0
  9
$OSMODE
 70
    39
  9
$ATTMODE
 70
     1
  9
$TEXTSIZE
 40
0.125
  9
$TRACEWID
 40
0.05
  9
$TEXTSTYLE
  7
ROMANS
  9
$CLAYER
  8
0
  9
$CELTYPE
  6
BYLAYER
  9
$CECOLOR
 62
   256
  9
$CELTSCALE
 40
1.0
  9
$DELOBJ
 70
     1
  9
$DISPSILH
 70
     1
  9
$DIMSCALE
 40
1.0
  9
$DIMASZ
 40
0.125
  9
$DIMEXO
 40
0.125
  9
$DIMDLI
 40
0.375
  9
$DIMRND
 40
0.0
  9
$DIMDLE
 40
0.0
  9
$DIMEXE
 40
0.125
  9
$DIMTP
 40
0.0
  9
$DIMTM
 40
0.0
  9
$DIMTXT
 40
0.125
  9
$DIMCEN
 40
-0.125
  9
$DIMTSZ
 40
0.0
  9
$DIMTOL
 70
     0
  9
$DIMLIM
 70
     0
  9
$DIMTIH
 70
     1
  9
$DIMTOH
 70
     1
  9
$DIMSE1
 70
     0
  9
$DIMSE2
 70
     0
  9
$DIMTAD
 70
     0
  9
$DIMZIN
 70
     4
  9
$DIMBLK
  1

  9
$DIMASO
 70
     1
  9
$DIMSHO
 70
     1
  9
$DIMPOST
  1

  9
$DIMAPOST
  1

  9
$DIMALT
 70
     0
  9
$DIMALTD
 70
     2
  9
$DIMALTF
 40
25.4
  9
$DIMLFAC
 40
1.0
  9
$DIMTOFL
 70
     0
  9
$DIMTVP
 40
0.0
  9
$DIMTIX
 70
     1
  9
$DIMSOXD
 70
     0
  9
$DIMSAH
 70
     0
  9
$DIMBLK1
  1

  9
$DIMBLK2
  1

  9
$DIMSTYLE
  2
STANDARD
  9
$DIMCLRD
 70
     0
  9
$DIMCLRE
 70
     0
  9
$DIMCLRT
 70
     0
  9
$DIMTFAC
 40
1.0
  9
$DIMGAP
 40
0.09
  9
$DIMJUST
 70
     0
  9
$DIMSD1
 70
     0
  9
$DIMSD2
 70
     0
  9
$DIMTOLJ
 70
     1
  9
$DIMTZIN
 70
     4
  9
$DIMALTZ
 70
     0
  9
$DIMALTTZ
 70
     0
  9
$DIMFIT
 70
     3
  9
$DIMUPT
 70
     0
  9
$DIMUNIT
 70
     2
  9
$DIMDEC
 70
     3
  9
$DIMTDEC
 70
     3
  9
$DIMALTU
 70
     2
  9
$DIMALTTD
 70
     2
  9
$DIMTXSTY
  7
ROMANS
  9
$DIMAUNIT
 70
     0
  9
$LUNITS
 70
     2
  9
$LUPREC
 70
     3
  9
$SKETCHINC
 40
0.1
  9
$FILLETRAD
 40
0.03125
  9
$AUNITS
 70
     0
  9
$AUPREC
 70
     0
  9
$MENU
  1
ACAD
  9
$ELEVATION
 40
0.0
  9
$PELEVATION
 40
0.0
  9
$THICKNESS
 40
0.0
  9
$LIMCHECK
 70
     0
  9
$BLIPMODE
 70
     0
  9
$CHAMFERA
 40
0.0
  9
$CHAMFERB
 40
0.0
  9
$CHAMFERC
 40
0.0
  9
$CHAMFERD
 40
0.0
  9
$SKPOLY
 70
     0
  9
$TDCREATE
 40
2448994.549764699
  9
$TDUPDATE
 40
2452458.305728125
  9
$TDINDWG
 40
0.0012689236
  9
$TDUSRTIMER
 40
0.0012689236
  9
$USRTIMER
 70
     1
  9
$ANGBASE
 50
0.0
  9
$ANGDIR
 70
     0
  9
$PDMODE
 70
     0
  9
$PDSIZE
 40
0.0
  9
$PLINEWID
 40
0.0
  9
$COORDS
 70
     2
  9
$SPLFRAME
 70
     0
  9
$SPLINETYPE
 70
     6
  9
$SPLINESEGS
 70
     8
  9
$ATTDIA
 70
     0
  9
$ATTREQ
 70
     1
  9
$HANDLING
 70
 22529
  9
$HANDSEED
  5
BCD28CE5C6CBFF1
  9
$SURFTAB1
 70
     6
  9
$SURFTAB2
 70
     6
  9
$SURFTYPE
 70
     6
  9
$SURFU
 70
     6
  9
$SURFV
 70
     6
  9
$UCSNAME
  2

  9
$UCSORG
 10
0.0
 20
0.0
 30
0.0
  9
$UCSXDIR
 10
1.0
 20
0.0
 30
0.0
  9
$UCSYDIR
 10
0.0
 20
1.0
 30
0.0
  9
$PUCSNAME
  2

  9
$PUCSORG
 10
0.0
 20
0.0
 30
0.0
  9
$PUCSXDIR
 10
1.0
 20
0.0
 30
0.0
  9
$PUCSYDIR
 10
0.0
 20
1.0
 30
0.0
  9
$USERI1
 70
     0
  9
$USERI2
 70
     0
  9
$USERI3
 70
     0
  9
$USERI4
 70
     0
  9
$USERI5
 70
     0
  9
$USERR1
 40
0.0
  9
$USERR2
 40
0.0
  9
$USERR3
 40
0.0
  9
$USERR4
 40
0.0
  9
$USERR5
 40
0.0
  9
$WORLDVIEW
 70
     1
  9
$SHADEDGE
 70
     3
  9
$SHADEDIF
 70
    70
  9
$TILEMODE
 70
     1
  9
$MAXACTVP
 70
    16
  9
$PINSBASE
 10
0.7586343109334757
 20
50.00000000000001
 30
2.271341465160494
  9
$PLIMCHECK
 70
     0
  9
$PEXTMIN
 10
1.000000000000000E+20
 20
1.000000000000000E+20
 30
1.000000000000000E+20
  9
$PEXTMAX
 10
-1.000000000000000E+20
 20
-1.000000000000000E+20
 30
-1.000000000000000E+20
  9
$PLIMMIN
 10
0.0
 20
0.0
  9
$PLIMMAX
 10
12.0
 20
9.0
  9
$UNITMODE
 70
     0
  9
$VISRETAIN
 70
     0
  9
$PLINEGEN
 70
     1
  9
$PSLTSCALE
 70
     0
  9
$TREEDEPTH
 70
  3020
  9
$PICKSTYLE
 70
     1
  9
$CMLSTYLE
  2
STANDARD
  9
$CMLJUST
 70
     0
  9
$CMLSCALE
 40
1.0
  9
$PROXYGRAPHICS
 70
     1
  9
$MEASUREMENT
 70
     0
  0
ENDSEC
  0
SECTION
  2
CLASSES
  0
CLASS
  1
LWPOLYLINE
  2
AcDbPolyline
  3
AutoCAD 2000
 90
        0
280
     0
281
     1
  0
CLASS
  1
ACDBDICTIONARYWDFLT
  2
AcDbDictionaryWithDefault
  3
AutoCAD 2000
 90
        0
280
     0
281
     0
  0
CLASS
  1
ACDBPLACEHOLDER
  2
AcDbPlaceHolder
  3
AutoCAD 2000
 90
        0
280
     0
281
     0
  0
CLASS
  1
LAYOUT
  2
AcDbLayout
  3
AutoCAD 2000
 90
        0
280
     0
281
     0
  0
CLASS
  1
DICTIONARYVAR
  2
AcDbDictionaryVar
  3
AutoCAD 2000
 90
        0
280
     0
281
     0
  0
CLASS
  1
LONG_TRANSACTION
  2
AcDbLongTransaction
  3
AutoCAD 2000
 90
        0
280
     0
281
     0
  0
CLASS
  1
LWPOLYLINE
  2
AcDbPolyline
  3
AutoCAD 2000
 90
        0
280
     0
281
     1
  0
CLASS
  1
HATCH
  2
AcDbHatch
  3
AutoCAD 2000
 90
        0
280
     0
281
     1
  0
CLASS
  1
XRECORD
  2
AcDbXrecord
  3
AutoCAD 2000
 90
        0
280
     0
281
     0
  0
ENDSEC
  0
SECTION
  2
TABLES
  0
TABLE
  2
VPORT
  5
BCD28CE5C6CBF7D
330
0
100
AcDbSymbolTable
 70
     2
  0
VPORT
  5
BCD28CE5C6CBFCC
330
BCD28CE5C6CBF7D
100
AcDbSymbolTableRecord
100
AcDbViewportTableRecord
  2
*ACTIVE
 70
     0
 10
0.0
 20
0.0
 11
1.0
 21
1.0
 12
4.959505878443518
 22
0.9480926489843195
 13
0.0
 23
0.0
 14
0.015625
 24
0.015625
 15
0.0
 25
0.0
 16
0.0
 26
0.0
 36
1.0
 17
0.0
 27
0.0
 37
0.0
 40
2.282647215150728
 41
4.320930232558139
 42
50.0
 43
0.0
 44
0.0
 50
0.0
 51
0.0
 71
     0
 72
  2000
 73
     1
 74
     0
 75
     0
 76
     0
 77
     0
 78
     0
  0
ENDTAB
  0
TABLE
  2
LTYPE
  5
BCD28CE5C6CBF7A
330
0
100
AcDbSymbolTable
 70
     1
  0
LTYPE
  5
BCD28CE5C6CBF87
330
BCD28CE5C6CBF7A
100
AcDbSymbolTableRecord
100
AcDbLinetypeTableRecord
  2
BYBLOCK
 70
     0
  3

 72
    65
 73
     0
 40
0.0
  0
LTYPE
  5
BCD28CE5C6CBF88
330
BCD28CE5C6CBF7A
100
AcDbSymbolTableRecord
100
AcDbLinetypeTableRecord
  2
BYLAYER
 70
     0
  3

 72
    65
 73
     0
 40
0.0
  0
LTYPE
  5
BCD28CE5C6CBF89
330
BCD28CE5C6CBF7A
100
AcDbSymbolTableRecord
100
AcDbLinetypeTableRecord
  2
CONTINUOUS
 70
     0
  3
Solid line
 72
    65
 73
     0
 40
0.0
  0
ENDTAB
  0
TABLE
  2
LAYER
  5
BCD28CE5C6CBF77
330
0
100
AcDbSymbolTable
 70
     3
  0
LAYER
  5
BCD28CE5C6CBF84
330
BCD28CE5C6CBF77
100
AcDbSymbolTableRecord
100
AcDbLayerTableRecord
  2
0
 70
     0
 62
     7
  6
CONTINUOUS
  0
LAYER
  5
BCD28CE5C6CBF94
330
BCD28CE5C6CBF77
100
AcDbSymbolTableRecord
100
AcDbLayerTableRecord
  2
TEXT
 70
     0
 62
     3
  6
CONTINUOUS
  0
LAYER
  5
BCD28CE5C6CBFA4
330
BCD28CE5C6CBF77
100
AcDbSymbolTableRecord
100
AcDbLayerTableRecord
  2
ASHADE
 70
     4
 62
     7
  6
CONTINUOUS
  0
ENDTAB
  0
TABLE
  2
STYLE
  5
BCD28CE5C6CBF78
330
0
100
AcDbSymbolTable
 70
     4
  0
STYLE
  5
BCD28CE5C6CBF85
330
BCD28CE5C6CBF78
100
AcDbSymbolTableRecord
100
AcDbTextStyleTableRecord
  2
STANDARD
 70
     0
 40
0.0
 41
1.0
 50
0.0
 71
     0
 42
0.3125
  3
txt
  4

  0
STYLE
  5
BCD28CE5C6CBF91
330
BCD28CE5C6CBF78
100
AcDbSymbolTableRecord
100
AcDbTextStyleTableRecord
  2
ITALICC
 70
     0
 40
0.0
 41
1.0
 50
0.0
 71
     0
 42
0.125
  3
italicc
  4

  0
STYLE
  5
BCD28CE5C6CBFA1
330
BCD28CE5C6CBF78
100
AcDbSymbolTableRecord
100
AcDbTextStyleTableRecord
  2
ASHADE
 70
     0
 40
0.2
 41
1.0
 50
0.0
 71
     0
 42
0.3125
  3
simplex
  4

  0
STYLE
  5
BCD28CE5C6CBFBC
330
BCD28CE5C6CBF78
100
AcDbSymbolTableRecord
100
AcDbTextStyleTableRecord
  2
ROMANS
 70
     0
 40
0.0
 41
1.0
 50
0.0
 71
     0
 42
0.125
  3
romans.shx
  4

  0
ENDTAB
  0
TABLE
  2
VIEW
  5
BCD28CE5C6CBF7B
330
0
100
AcDbSymbolTable
 70
     0
  0
ENDTAB
  0
TABLE
  2
UCS
  5
BCD28CE5C6CBF7C
330
0
100
AcDbSymbolTable
 70
     0
  0
ENDTAB
  0
TABLE
  2
APPID
  5
BCD28CE5C6CBF7E
330
0
100
AcDbSymbolTable
 70
     6
  0
APPID
  5
BCD28CE5C6CBF86
330
BCD28CE5C6CBF7E
100
AcDbSymbolTableRecord
100
AcDbRegAppTableRecord
  2
ACAD
 70
     0
  0
APPID
  5
BCD28CE5C6CBFA2
330
BCD28CE5C6CBF7E
100
AcDbSymbolTableRecord
100
AcDbRegAppTableRecord
  2
AVE_RENDER
 70
     0
  0
APPID
  5
BCD28CE5C6CBFA3
330
BCD28CE5C6CBF7E
100
AcDbSymbolTableRecord
100
AcDbRegAppTableRecord
  2
AVE_ENTITY_MATERIAL
 70
     0
  0
APPID
  5
BCD28CE5C6CBFB0
330
BCD28CE5C6CBF7E
100
AcDbSymbolTableRecord
100
AcDbRegAppTableRecord
  2
AVE_FINISH
 70
     0
  0
APPID
  5
BCD28CE5C6CBFB1
330
BCD28CE5C6CBF7E
100
AcDbSymbolTableRecord
100
AcDbRegAppTableRecord
  2
AVE_MATERIAL
 70
     0
  0
APPID
  5
BCD28CE5C6CBFB2
330
BCD28CE5C6CBF7E
100
AcDbSymbolTableRecord
100
AcDbRegAppTableRecord
  2
AVE_GLOBAL
 70
     0
  0
ENDTAB
  0
TABLE
  2
DIMSTYLE
  5
BCD28CE5C6CBF7F
330
0
100
AcDbSymbolTable
 70
     1
  0
DIMSTYLE
105
BCD28CE5C6CBF99
330
BCD28CE5C6CBF7F
100
AcDbSymbolTableRecord
100
AcDbDimStyleTableRecord
  2
STANDARD
 70
     0
  3

  4

  5

  6

  7

 40
1.0
 41
0.125
 42
0.125
 43
0.375
 44
0.125
 45
0.0
 46
0.0
 47
0.0
 48
0.0
140
0.125
141
-0.125
142
0.0
143
25.4
144
1.0
145
0.0
146
1.0
147
0.09
 71
     0
 72
     0
 73
     1
 74
     1
 75
     0
 76
     0
 77
     0
 78
     4
170
     0
171
     2
172
     0
173
     0
174
     1
175
     0
176
     0
177
     0
178
     0
270
     2
271
     3
272
     3
273
     2
274
     2
340
BCD28CE5C6CBFBC
275
     0
280
     0
281
     0
282
     0
283
     1
284
     4
285
     0
286
     0
287
     3
288
     0
  0
ENDTAB
  0
TABLE
  2
BLOCK_RECORD
  5
BCD28CE5C6CBF76
330
0
100
AcDbSymbolTable
 70
     2
  0
BLOCK_RECORD
  5
BCD28CE5C6CBF8D
102
{ACAD_XDICTIONARY
360
BCD28CE5C6CBFEF
102
}
330
BCD28CE5C6CBF76
100
AcDbSymbolTableRecord
100
AcDbBlockTableRecord
  2
*MODEL_SPACE
  0
BLOCK_RECORD
  5
BCD28CE5C6CBF8A
102
{ACAD_XDICTIONARY
360
BCD28CE5C6CBFED
102
}
330
BCD28CE5C6CBF76
100
AcDbSymbolTableRecord
100
AcDbBlockTableRecord
  2
*PAPER_SPACE
  0
BLOCK_RECORD
  5
BCD28CE5C6CBFA5
330
BCD28CE5C6CBF76
100
AcDbSymbolTableRecord
100
AcDbBlockTableRecord
  2
AVE_RENDER
  0
BLOCK_RECORD
  5
BCD28CE5C6CBFB3
330
BCD28CE5C6CBF76
100
AcDbSymbolTableRecord
100
AcDbBlockTableRecord
  2
AVE_GLOBAL
  0
ENDTAB
  0
ENDSEC
  0
SECTION
  2
BLOCKS
  0
BLOCK
  5
BCD28CE5C6CBF97
330
BCD28CE5C6CBF8D
100
AcDbEntity
  8
0
100
AcDbBlockBegin
  2
*MODEL_SPACE
 70
     0
 10
0.0
 20
0.0
 30
0.0
  3
*MODEL_SPACE
  1

  0
ENDBLK
  5
BCD28CE5C6CBF98
330
BCD28CE5C6CBF8D
100
AcDbEntity
  8
0
100
AcDbBlockEnd
  0
BLOCK
  5
BCD28CE5C6CBF95
330
BCD28CE5C6CBF8A
100
AcDbEntity
 67
     1
  8
0
100
AcDbBlockBegin
  2
*PAPER_SPACE
 70
     0
 10
0.0
 20
0.0
 30
0.0
  3
*PAPER_SPACE
  1

  0
ENDBLK
  5
BCD28CE5C6CBF96
330
BCD28CE5C6CBF8A
100
AcDbEntity
 67
     1
  8
0
100
AcDbBlockEnd
  0
BLOCK
  5
BCD28CE5C6CBFA6
330
BCD28CE5C6CBFA5
100
AcDbEntity
  8
0
100
AcDbBlockBegin
  2
AVE_RENDER
 70
     0
 10
0.0
 20
0.0
 30
0.0
  3
AVE_RENDER
  1
AVE_RENDER
  0
ENDBLK
  5
BCD28CE5C6CBFA7
330
BCD28CE5C6CBFA5
100
AcDbEntity
  8
0
100
AcDbBlockEnd
  0
BLOCK
  5
BCD28CE5C6CBFB4
330
BCD28CE5C6CBFB3
100
AcDbEntity
  8
0
100
AcDbBlockBegin
  2
AVE_GLOBAL
 70
     0
 10
0.0
 20
0.0
 30
0.0
  3
AVE_GLOBAL
  1
AVE_GLOBAL
  0
ENDBLK
  5
BCD28CE5C6CBFB5
330
BCD28CE5C6CBFB3
100
AcDbEntity
  8
0
100
AcDbBlockEnd
  0
ENDSEC
  0
SECTION
  2
ENTITIES
  0
LWPOLYLINE
  5
BCD28CE5C6CAA08
330
BCD28CE5C6CBF8D
100
AcDbEntity
  8
0
100
AcDbPolyline
 90
       17
 70
     1
 43
0.0
 10
1.38248083001492
 20
1.886795512491672
 42
-1.0
 10
1.38248083001492
 20
1.949295512491672
 10
2.585506933648139
 20
1.949295512491672
 42
-0.4179260493489547
 10
2.601130681795395
 20
1.933472727681545
 42
-0.4030390290455243
 10
1.383282112066202
 20
0.6997064939264211
 42
-1.0
 10
1.381679547963638
 20
0.7621859448546831
 42
0.0067531206854311
 10
1.41373083001492
 20
0.7634413899285307
 10
1.41373083001492
 20
0.9351689247551448
 42
-0.2679491924311219
 10
1.42935583001492
 20
0.9622322186234084
 10
1.47623083001492
 20
0.9892955124916724
 10
1.47623083001492
 20
0.7683927857609736
 42
0.3686255953935718
 10
2.537084952578063
 20
1.886795512491672
 10
1.47623083001492
 20
1.886795512491672
 10
1.47623083001492
 20
1.659295512491672
 10
1.42935583001492
 20
1.686358806359936
 42
-0.2679491924311219
 10
1.41373083001492
 20
1.713422100228199
 10
1.41373083001492
 20
1.886795512491672
  0
TEXT
  5
BCD28CE5C6CBE38
330
BCD28CE5C6CBF8D
100
AcDbEntity
  8
TEXT
100
AcDbText
 10
1.231017691355339
 20
0.4015596214264756
 30
0.0
 40
0.125
  1
PART #110299
  7
ITALICC
 72
     1
 11
1.98399388183153
 21
0.4015596214264756
 31
0.0
100
AcDbText
  0
TEXT
  5
BCD28CE5C6CBE39
330
BCD28CE5C6CBF8D
100
AcDbEntity
  8
TEXT
100
AcDbText
 10
2.39729904008185
 20
-0.0453630212458995
 30
0.0
 40
0.0522247191011236
  1
Phone  1-800-328-2495
 41
1.272321428571429
 72
     5
 11
3.726231624351514
 21
-0.0453630212458995
 31
0.0
100
AcDbText
  0
TEXT
  5
BCD28CE5C6CBE3A
330
BCD28CE5C6CBF8D
100
AcDbEntity
  8
TEXT
100
AcDbText
 10
2.39729904008185
 20
0.234412259652977
 30
0.0
 40
0.0522247191011236
  1
Stylmark  Incorporated
 41
1.221428571428573
 72
     5
 11
3.726231624351514
 21
0.234412259652977
 31
0.0
100
AcDbText
  0
TEXT
  5
BCD28CE5C6CBE3B
330
BCD28CE5C6CBF8D
100
AcDbEntity
  8
TEXT
100
AcDbText
 10
2.39729904008185
 20
0.1411538326866848
 30
0.0
 40
0.0522247191011236
  1
6536 Main St. N.E. * P.O. Box 32008
 41
0.8388932496075366
 72
     5
 11
3.726231624351514
 21
0.1411538326866848
 31
0.0
100
AcDbText
  0
TEXT
  5
BCD28CE5C6CBE3C
330
BCD28CE5C6CBF8D
100
AcDbEntity
  8
TEXT
100
AcDbText
 10
2.39729904008185
 20
0.0478954057203926
 30
0.0
 40
0.0522247191011236
  1
Minneapolis, MN 55432-0008
 41
1.11444212721585
 72
     5
 11
3.726231624351514
 21
0.0478954057203926
 31
0.0
100
AcDbText
  0
LWPOLYLINE
  5
BCD28CE5C6CBE3D
330
BCD28CE5C6CBF8D
100
AcDbEntity
  8
TEXT
100
AcDbPolyline
 90
        3
 70
     0
 43
0.0006660908203125
 10
0.2413453480145429
 20
0.0682817413915353
 10
0.2413453480145429
 20
-0.0449536980615923
 10
0.3545807874676652
 20
-0.0449536980615923
  0
LWPOLYLINE
  5
BCD28CE5C6CBE42
330
BCD28CE5C6CBF8D
100
AcDbEntity
  8
TEXT
100
AcDbPolyline
 90
        3
 70
     0
 43
0.0006660908203125
 10
0.2679889808270404
 20
0.0682817413915353
 10
0.2679889808270404
 20
-0.0183100652490913
 10
0.3545807874676652
 20
-0.0183100652490913
  0
LWPOLYLINE
  5
BCD28CE5C6CBE47
330
BCD28CE5C6CBF8D
100
AcDbEntity
  8
TEXT
100
AcDbPolyline
 90
        2
 70
     0
 43
0.0001332181640625
 10
0.3146153382489172
 20
0.0782731036962205
 10
0.2413453480145429
 20
0.0682817413915353
  0
LWPOLYLINE
  5
BCD28CE5C6CBE4B
330
BCD28CE5C6CBF8D
100
AcDbEntity
  8
TEXT
100
AcDbPolyline
 90
        2
 70
     0
 43
0.0001332181640625
 10
0.2679889808270404
 20
0.0682817413915353
 10
0.3279371546551677
 20
0.0782731036962205
  0
LWPOLYLINE
  5
BCD28CE5C6CBE4F
330
BCD28CE5C6CBF8D
100
AcDbEntity
  8
TEXT
100
AcDbPolyline
 90
        2
 70
     0
 43
0.0001332181640625
 10
0.2679889808270404
 20
-0.0183100652490913
 10
0.3279371546551677
 20
0.0416381085790343
  0
LWPOLYLINE
  5
BCD28CE5C6CBE53
330
BCD28CE5C6CBF8D
100
AcDbEntity
  8
TEXT
100
AcDbPolyline
 90
        3
 70
     0
 43
0.0006660908203125
 10
0.3545807874676652
 20
0.221482630063411
 10
0.2413453480145429
 20
0.221482630063411
 10
0.2413453480145429
 20
0.1082471906102833
  0
LWPOLYLINE
  5
BCD28CE5C6CBE58
330
BCD28CE5C6CBF8D
100
AcDbEntity
  8
TEXT
100
AcDbPolyline
 90
        3
 70
     0
 43
0.0006660908203125
 10
0.3545807874676652
 20
0.1948389972509099
 10
0.2679889808270404
 20
0.1948389972509099
 10
0.2679889808270404
 20
0.1082471906102833
  0
LWPOLYLINE
  5
BCD28CE5C6CBE5D
330
BCD28CE5C6CBF8D
100
AcDbEntity
  8
TEXT
100
AcDbPolyline
 90
        2
 70
     0
 43
0.0001332181640625
 10
0.2679889808270404
 20
0.1948389972509099
 10
0.3279371546551659
 20
0.1348908234227844
  0
LWPOLYLINE
  5
BCD28CE5C6CBE61
330
BCD28CE5C6CBF8D
100
AcDbEntity
  8
TEXT
100
AcDbPolyline
 90
        2
 70
     0
 43
0.0001332181640625
 10
0.2679889808270404
 20
0.1082471906102833
 10
0.3279371546551659
 20
0.0982558283055946
  0
LWPOLYLINE
  5
BCD28CE5C6CBE65
330
BCD28CE5C6CBF8D
100
AcDbEntity
  8
TEXT
100
AcDbPolyline
 90
        2
 70
     0
 43
0.0001332181640625
 10
0.2413453480145429
 20
0.1082471906102833
 10
0.3146153382489172
 20
0.0982558283055946
  0
LWPOLYLINE
  5
BCD28CE5C6CBE69
330
BCD28CE5C6CBF8D
100
AcDbEntity
  8
TEXT
100
AcDbPolyline
 90
        2
 70
     0
 43
0.0006660908203125
 10
0.2679889808270404
 20
0.0682817413915353
 10
0.2413453480145429
 20
0.0682817413915353
  0
LWPOLYLINE
  5
BCD28CE5C6CBE6D
330
BCD28CE5C6CBF8D
100
AcDbEntity
  8
TEXT
100
AcDbPolyline
 90
        2
 70
     0
 43
0.0006660908203125
 10
0.2679889808270404
 20
0.1082471906102833
 10
0.2413453480145429
 20
0.1082471906102833
  0
LINE
  5
BCD28CE5C6CBE71
330
BCD28CE5C6CBF8D
100
AcDbEntity
  8
TEXT
100
AcDbLine
 10
1.75653577714104
 20
0.157205935406642
 30
0.0
 11
1.64932950375375
 21
0.157205935406642
 31
0.0
  0
LINE
  5
BCD28CE5C6CBE72
330
BCD28CE5C6CBF8D
100
AcDbEntity
  8
TEXT
100
AcDbLine
 10
1.785566675485518
 20
0.2214826300634074
 30
0.0
 11
1.650734766268459
 21
0.2214826300634074
 31
0.0
  0
ARC
  5
BCD28CE5C6CBE73
330
BCD28CE5C6CBF8D
100
AcDbEntity
  8
TEXT
100
AcDbCircle
 10
1.710048862661776
 20
0.0522453808003911
 30
0.0
 40
0.0676855811441166
100
AcDbArc
 50
90.0
 51
153.7768192527749
  0
LWPOLYLINE
  5
BCD28CE5C6CBE74
330
BCD28CE5C6CBF8D
100
AcDbEntity
  8
TEXT
100
AcDbPolyline
 90
        2
 70
     0
 43
0.0
 10
1.64829700829894
 20
-0.0014994579746654
 42
0.2901071551932823
 10
1.691372941166576
 20
-0.0449904029251036
 42
5.328517124445801
  0
ARC
  5
BCD28CE5C6CBE78
330
BCD28CE5C6CBF8D
100
AcDbEntity
  8
TEXT
100
AcDbCircle
 10
1.00491748499029
 20
0.0148019884129462
 30
0.0
 40
0.0601160179737537
100
AcDbArc
 50
180.0000000000003
 51
264.0521544866073
  0
LINE
  5
BCD28CE5C6CBE79
330
BCD28CE5C6CBF8D
100
AcDbEntity
  8
TEXT
100
AcDbLine
 10
1.008432840615838
 20
0.2558705476575456
 30
0.0
 11
0.9483902357718317
 21
0.2558705476575456
 31
0.0
  0
ARC
  5
BCD28CE5C6CBE7A
330
BCD28CE5C6CBF8D
100
AcDbEntity
  8
TEXT
100
AcDbCircle
 10
0.7726584828733203
 20
0.1393951706169056
 30
0.0
 40
0.0820874594465043
100
AcDbArc
 50
90.0
 51
270.0
  0
LWPOLYLINE
  5
BCD28CE5C6CBE7B
330
BCD28CE5C6CBF8D
100
AcDbEntity
  8
TEXT
100
AcDbPolyline
 90
        2
 70
     0
 43
0.0001332181640625
 10
0.3645721497723557
 20
0.1482126398290313
 10
0.3545807874676652
 20
0.221482630063411
  0
LWPOLYLINE
  5
BCD28CE5C6CBE7F
330
BCD28CE5C6CBF8D
100
AcDbEntity
  8
TEXT
100
AcDbPolyline
 90
        2
 70
     0
 43
0.0001332181640625
 10
0.3545807874676652
 20
0.1948389972509099
 10
0.3645721497723557
 20
0.1348908234227844
  0
LWPOLYLINE
  5
BCD28CE5C6CBE83
330
BCD28CE5C6CBF8D
100
AcDbEntity
  8
TEXT
100
AcDbPolyline
 90
        3
 70
     0
 43
0.0006660908203125
 10
0.5077816761395427
 20
0.1082471906102833
 10
0.5077816761395427
 20
0.221482630063411
 10
0.3945462366864168
 20
0.221482630063411
  0
LWPOLYLINE
  5
BCD28CE5C6CBE88
330
BCD28CE5C6CBF8D
100
AcDbEntity
  8
TEXT
100
AcDbPolyline
 90
        3
 70
     0
 43
0.0006660908203125
 10
0.4811380433270416
 20
0.1082471906102833
 10
0.4811380433270416
 20
0.1948389972509099
 10
0.3945462366864168
 20
0.1948389972509099
  0
LWPOLYLINE
  5
BCD28CE5C6CBE8D
330
BCD28CE5C6CBF8D
100
AcDbEntity
  8
TEXT
100
AcDbPolyline
 90
        2
 70
     0
 43
0.0001332181640625
 10
0.4811380433270416
 20
0.1948389972509099
 10
0.4211898694989178
 20
0.1348908234227844
  0
LWPOLYLINE
  5
BCD28CE5C6CBE91
330
BCD28CE5C6CBF8D
100
AcDbEntity
  8
TEXT
100
AcDbPolyline
 90
        2
 70
     0
 43
0.0001332181640625
 10
0.3945462366864168
 20
0.1948389972509099
 10
0.384554874381728
 20
0.1348908234227844
  0
LWPOLYLINE
  5
BCD28CE5C6CBE95
330
BCD28CE5C6CBF8D
100
AcDbEntity
  8
TEXT
100
AcDbPolyline
 90
        2
 70
     0
 43
0.0001332181640625
 10
0.3945462366864168
 20
0.221482630063411
 10
0.384554874381728
 20
0.1482126398290313
  0
LWPOLYLINE
  5
BCD28CE5C6CBE99
330
BCD28CE5C6CBF8D
100
AcDbEntity
  8
TEXT
100
AcDbPolyline
 90
        2
 70
     0
 43
0.0001332181640625
 10
0.4345116859051666
 20
0.0982558283055946
 10
0.5077816761395427
 20
0.1082471906102833
  0
LWPOLYLINE
  5
BCD28CE5C6CBE9D
330
BCD28CE5C6CBF8D
100
AcDbEntity
  8
TEXT
100
AcDbPolyline
 90
        2
 70
     0
 43
0.0001332181640625
 10
0.4811380433270416
 20
0.1082471906102833
 10
0.4211898694989178
 20
0.0982558283055946
  0
LWPOLYLINE
  5
BCD28CE5C6CBEA1
330
BCD28CE5C6CBF8D
100
AcDbEntity
  8
TEXT
100
AcDbPolyline
 90
        2
 70
     0
 43
0.0001332181640625
 10
0.5077816761395427
 20
0.0682817413915353
 10
0.4345116859051666
 20
0.0782731036962205
  0
LWPOLYLINE
  5
BCD28CE5C6CBEA5
330
BCD28CE5C6CBF8D
100
AcDbEntity
  8
TEXT
100
AcDbPolyline
 90
        2
 70
     0
 43
0.0001332181640625
 10
0.4811380433270416
 20
0.0682817413915353
 10
0.4211898694989178
 20
0.0782731036962205
  0
LWPOLYLINE
  5
BCD28CE5C6CBEA9
330
BCD28CE5C6CBF8D
100
AcDbEntity
  8
TEXT
100
AcDbPolyline
 90
        2
 70
     0
 43
0.0001332181640625
 10
0.4811380433270416
 20
-0.0183100652490913
 10
0.4211898694989178
 20
0.0416381085790343
  0
LWPOLYLINE
  5
BCD28CE5C6CBEAD
330
BCD28CE5C6CBF8D
100
AcDbEntity
  8
TEXT
100
AcDbPolyline
 90
        3
 70
     0
 43
0.0006660908203125
 10
0.3945462366864168
 20
-0.0183100652490913
 10
0.4811380433270416
 20
-0.0183100652490913
 10
0.4811380433270416
 20
0.0682817413915353
  0
LWPOLYLINE
  5
BCD28CE5C6CBEB2
330
BCD28CE5C6CBF8D
100
AcDbEntity
  8
TEXT
100
AcDbPolyline
 90
        3
 70
     0
 43
0.0006660908203125
 10
0.3945462366864168
 20
-0.0449536980615923
 10
0.5077816761395427
 20
-0.0449536980615923
 10
0.5077816761395427
 20
0.0682817413915353
  0
LWPOLYLINE
  5
BCD28CE5C6CBEB7
330
BCD28CE5C6CBF8D
100
AcDbEntity
  8
TEXT
100
AcDbPolyline
 90
        5
 70
     0
 43
0.0001332181640625
 10
0.3645721497723557
 20
0.0283162921727838
 10
0.3645721497723557
 20
0.0416381085790343
 10
0.3279371546551677
 20
0.0416381085790343
 10
0.3279371546551677
 20
0.0782731036962205
 10
0.3146153382489172
 20
0.0782731036962205
  0
LWPOLYLINE
  5
BCD28CE5C6CBEBE
330
BCD28CE5C6CBF8D
100
AcDbEntity
  8
TEXT
100
AcDbPolyline
 90
        2
 70
     0
 43
0.0006660908203125
 10
0.3545807874676652
 20
-0.0183100652490913
 10
0.3545807874676652
 20
-0.0449536980615923
  0
LWPOLYLINE
  5
BCD28CE5C6CBEC2
330
BCD28CE5C6CBF8D
100
AcDbEntity
  8
TEXT
100
AcDbPolyline
 90
        2
 70
     0
 43
0.0001332181640625
 10
0.3545807874676652
 20
-0.0183100652490913
 10
0.3645721497723557
 20
0.0416381085790343
  0
LWPOLYLINE
  5
BCD28CE5C6CBEC6
330
BCD28CE5C6CBF8D
100
AcDbEntity
  8
TEXT
100
AcDbPolyline
 90
        2
 70
     0
 43
0.0001332181640625
 10
0.3545807874676652
 20
-0.0449536980615923
 10
0.3645721497723557
 20
0.0283162921727838
  0
LWPOLYLINE
  5
BCD28CE5C6CBECA
330
BCD28CE5C6CBF8D
100
AcDbEntity
  8
TEXT
100
AcDbPolyline
 90
        5
 70
     0
 43
0.0001332181640625
 10
0.3146153382489172
 20
0.0982558283055946
 10
0.3279371546551659
 20
0.0982558283055946
 10
0.3279371546551659
 20
0.1348908234227844
 10
0.3645721497723557
 20
0.1348908234227844
 10
0.3645721497723557
 20
0.1482126398290313
  0
LWPOLYLINE
  5
BCD28CE5C6CBED1
330
BCD28CE5C6CBF8D
100
AcDbEntity
  8
TEXT
100
AcDbPolyline
 90
        5
 70
     0
 43
0.0001332181640625
 10
0.384554874381728
 20
0.1482126398290313
 10
0.384554874381728
 20
0.1348908234227844
 10
0.4211898694989178
 20
0.1348908234227844
 10
0.4211898694989178
 20
0.0982558283055946
 10
0.4345116859051666
 20
0.0982558283055946
  0
LWPOLYLINE
  5
BCD28CE5C6CBED8
330
BCD28CE5C6CBF8D
100
AcDbEntity
  8
TEXT
100
AcDbPolyline
 90
        2
 70
     0
 43
0.0001332181640625
 10
0.3945462366864168
 20
-0.0183100652490913
 10
0.384554874381728
 20
0.0416381085790343
  0
LWPOLYLINE
  5
BCD28CE5C6CBEDC
330
BCD28CE5C6CBF8D
100
AcDbEntity
  8
TEXT
100
AcDbPolyline
 90
        2
 70
     0
 43
0.0001332181640625
 10
0.384554874381728
 20
0.0283162921727838
 10
0.3945462366864168
 20
-0.0449536980615923
  0
LWPOLYLINE
  5
BCD28CE5C6CBEE0
330
BCD28CE5C6CBF8D
100
AcDbEntity
  8
TEXT
100
AcDbPolyline
 90
        2
 70
     0
 43
0.0006660908203125
 10
0.3945462366864168
 20
-0.0183100652490913
 10
0.3945462366864168
 20
-0.0449536980615923
  0
LWPOLYLINE
  5
BCD28CE5C6CBEE4
330
BCD28CE5C6CBF8D
100
AcDbEntity
  8
TEXT
100
AcDbPolyline
 90
        5
 70
     0
 43
0.0001332181640625
 10
0.4345116859051666
 20
0.0782731036962205
 10
0.4211898694989178
 20
0.0782731036962205
 10
0.4211898694989178
 20
0.0416381085790343
 10
0.384554874381728
 20
0.0416381085790343
 10
0.384554874381728
 20
0.0283162921727838
  0
LWPOLYLINE
  5
BCD28CE5C6CBEEB
330
BCD28CE5C6CBF8D
100
AcDbEntity
  8
TEXT
100
AcDbPolyline
 90
        2
 70
     0
 43
0.0006660908203125
 10
0.4811380433270416
 20
0.1082471906102833
 10
0.5077816761395427
 20
0.1082471906102833
  0
LWPOLYLINE
  5
BCD28CE5C6CBEEF
330
BCD28CE5C6CBF8D
100
AcDbEntity
  8
TEXT
100
AcDbPolyline
 90
        2
 70
     0
 43
0.0006660908203125
 10
0.4811380433270416
 20
0.0682817413915353
 10
0.5077816761395427
 20
0.0682817413915353
  0
LINE
  5
BCD28CE5C6CBEF3
330
BCD28CE5C6CBF8D
100
AcDbEntity
  8
TEXT
100
AcDbLine
 10
0.7778958129875675
 20
0.157205935406642
 30
0.0
 11
0.9448014670165388
 21
0.157205935406642
 31
0.0
  0
LINE
  5
BCD28CE5C6CBEF4
330
BCD28CE5C6CBF8D
100
AcDbEntity
  8
TEXT
100
AcDbLine
 10
0.8434959492318686
 20
0.1214012137960141
 30
0.0
 11
0.7778958129875675
 21
0.1214012137960141
 31
0.0
  0
LINE
  5
BCD28CE5C6CBEF5
330
BCD28CE5C6CBF8D
100
AcDbEntity
  8
TEXT
100
AcDbLine
 10
0.6905710234268159
 20
-0.0449904029251036
 30
0.0
 11
0.8434959492318686
 21
-0.0449904029251036
 31
0.0
  0
LINE
  5
BCD28CE5C6CBEF6
330
BCD28CE5C6CBF8D
100
AcDbEntity
  8
TEXT
100
AcDbLine
 10
0.8484363231381482
 20
0.0233666034083358
 30
0.0
 11
0.6905710234268141
 21
0.0233666034083358
 31
0.0
  0
LINE
  5
BCD28CE5C6CBEF7
330
BCD28CE5C6CBF8D
100
AcDbEntity
  8
TEXT
100
AcDbLine
 10
0.7726584828733194
 20
0.0573077111704004
 30
0.0
 11
0.8484363231381482
 21
0.0573077111704004
 31
0.0
  0
ARC
  5
BCD28CE5C6CBEF8
330
BCD28CE5C6CBF8D
100
AcDbEntity
  8
TEXT
100
AcDbCircle
 10
0.7778958129875684
 20
0.1393035746013298
 30
0.0
 40
0.017902360805315
100
AcDbArc
 50
90.0
 51
270.0
  0
LINE
  5
BCD28CE5C6CBEF9
330
BCD28CE5C6CBF8D
100
AcDbEntity
  8
TEXT
100
AcDbLine
 10
0.6905710234268141
 20
0.0233666034083358
 30
0.0
 11
0.6905710234268159
 21
-0.0449904029251036
 31
0.0
  0
LINE
  5
BCD28CE5C6CBEFA
330
BCD28CE5C6CBF8D
100
AcDbEntity
  8
TEXT
100
AcDbLine
 10
0.9448014670165388
 20
0.157205935406642
 30
0.0
 11
0.9448014670165388
 21
0.0148019884129462
 31
0.0
  0
ARC
  5
BCD28CE5C6CBEFB
330
BCD28CE5C6CBF8D
100
AcDbEntity
  8
TEXT
100
AcDbCircle
 10
0.8434959492318693
 20
0.0382054054354535
 30
0.0
 40
0.0831958083605586
100
AcDbArc
 50
270.0
 51
90.0
  0
ARC
  5
BCD28CE5C6CBEFC
330
BCD28CE5C6CBF8D
100
AcDbEntity
  8
TEXT
100
AcDbCircle
 10
0.848436323138149
 20
0.0403371572893698
 30
0.0
 40
0.0169705538810321
100
AcDbArc
 50
270.0
 51
90.0
  0
LWPOLYLINE
  5
BCD28CE5C6CBEFD
330
BCD28CE5C6CBF8D
100
AcDbEntity
  8
TEXT
100
AcDbPolyline
 90
        2
 70
     0
 43
0.0006660908203125
 10
0.3545807874676652
 20
0.1948389972509099
 10
0.3545807874676652
 20
0.221482630063411
  0
LWPOLYLINE
  5
BCD28CE5C6CBF01
330
BCD28CE5C6CBF8D
100
AcDbEntity
  8
TEXT
100
AcDbPolyline
 90
        2
 70
     0
 43
0.0006660908203125
 10
0.3945462366864168
 20
0.1948389972509099
 10
0.3945462366864168
 20
0.221482630063411
  0
LINE
  5
BCD28CE5C6CBF05
330
BCD28CE5C6CBF8D
100
AcDbEntity
  8
TEXT
100
AcDbLine
 10
0.9483902357718317
 20
0.2214826300634074
 30
0.0
 11
0.7726584828733194
 21
0.2214826300634074
 31
0.0
  0
LINE
  5
BCD28CE5C6CBF06
330
BCD28CE5C6CBF8D
100
AcDbEntity
  8
TEXT
100
AcDbLine
 10
0.9483902357718317
 20
0.2558705476575456
 30
0.0
 11
0.9483902357718317
 21
0.2214826300634074
 31
0.0
  0
LINE
  5
BCD28CE5C6CBF07
330
BCD28CE5C6CBF8D
100
AcDbEntity
  8
TEXT
100
AcDbLine
 10
1.138862127791683
 20
0.1206106339502868
 30
0.0
 11
1.080231806759746
 21
0.2214826300634074
 31
0.0
  0
LINE
  5
BCD28CE5C6CBF08
330
BCD28CE5C6CBF8D
100
AcDbEntity
  8
TEXT
100
AcDbLine
 10
1.197610690597549
 20
0.2214826300634074
 30
0.0
 11
1.138862127791683
 21
0.1206106339502868
 31
0.0
  0
LINE
  5
BCD28CE5C6CBF09
330
BCD28CE5C6CBF8D
100
AcDbEntity
  8
TEXT
100
AcDbLine
 10
1.29454131595729
 20
0.0373974351778956
 30
0.0
 11
1.29454131595729
 21
0.289494107802218
 31
0.0
  0
LINE
  5
BCD28CE5C6CBF0A
330
BCD28CE5C6CBF8D
100
AcDbEntity
  8
TEXT
100
AcDbLine
 10
1.32685317009495
 20
0.2214826300634074
 30
0.0
 11
1.32685317009495
 21
0.0206184233309992
 31
0.0
  0
LINE
  5
BCD28CE5C6CBF0B
330
BCD28CE5C6CBF8D
100
AcDbEntity
  8
TEXT
100
AcDbLine
 10
1.32685317009495
 20
0.0206184233309992
 30
0.0
 11
1.309859533210349
 21
0.0206184233309992
 31
0.0
  0
LINE
  5
BCD28CE5C6CBF0C
330
BCD28CE5C6CBF8D
100
AcDbEntity
  8
TEXT
100
AcDbLine
 10
1.295680889453485
 20
-0.0449904029251036
 30
0.0
 11
1.39368422315292
 21
-0.0449904029251036
 31
0.0
  0
LINE
  5
BCD28CE5C6CBF0D
330
BCD28CE5C6CBF8D
100
AcDbEntity
  8
TEXT
100
AcDbLine
 10
1.129261890794729
 20
-0.0250318968200907
 30
0.0
 11
1.226561596888174
 21
0.1393183141151775
 31
0.0
  0
ARC
  5
BCD28CE5C6CBF0E
330
BCD28CE5C6CBF8D
100
AcDbEntity
  8
TEXT
100
AcDbCircle
 10
1.095218330882515
 20
-0.0054426806514079
 30
0.0
 40
0.0392772371940762
100
AcDbArc
 50
270.1604552698595
 51
330.0831797321295
  0
LINE
  5
BCD28CE5C6CBF0F
330
BCD28CE5C6CBF8D
100
AcDbEntity
  8
TEXT
100
AcDbLine
 10
0.9986880744966445
 20
-0.0449904029251036
 30
0.0
 11
1.095328325571638
 21
-0.0447197638268213
 31
0.0
  0
LWPOLYLINE
  5
BCD28CE5C6CBF10
330
BCD28CE5C6CBF8D
100
AcDbEntity
  8
TEXT
100
AcDbPolyline
 90
        6
 70
     1
 43
0.0
 10
1.041211878071794
 20
0.157205935406642
 10
1.010895283851585
 20
0.157205935406642
 10
1.010895283851585
 20
0.0340949373517476
 42
0.407328721240804
 10
1.022438935013062
 20
0.0222760226753616
 10
1.083060634057793
 20
0.0222760226753616
 10
1.100525974465111
 20
0.0550882517188407
  0
LINE
  5
BCD28CE5C6CBF18
330
BCD28CE5C6CBF8D
100
AcDbEntity
  8
TEXT
100
AcDbLine
 10
1.226561596888174
 20
0.1393183141151775
 30
0.0
 11
1.226561596888174
 21
0.0065609392898212
 31
0.0
  0
ARC
  5
BCD28CE5C6CBF19
330
BCD28CE5C6CBF8D
100
AcDbEntity
  8
TEXT
100
AcDbCircle
 10
1.309859533210347
 20
0.0360002295744246
 30
0.0
 40
0.0153818062434269
100
AcDbArc
 50
174.7883570302258
 51
270.0
  0
LWPOLYLINE
  5
BCD28CE5C6CBF1A
330
BCD28CE5C6CBF8D
100
AcDbEntity
  8
TEXT
100
AcDbPolyline
 90
        2
 70
     0
 43
0.0
 10
1.226561596888172
 20
0.0065609392898247
 42
0.3318488747599744
 10
1.295680889453485
 20
-0.0449904029251036
 42
-6.868794160588311
  0
LINE
  5
BCD28CE5C6CBF1E
330
BCD28CE5C6CBF8D
100
AcDbEntity
  8
TEXT
100
AcDbLine
 10
1.451073292142181
 20
-0.0449904029251036
 30
0.0
 11
1.518131338924021
 21
-0.0449904029251036
 31
0.0
  0
LINE
  5
BCD28CE5C6CBF1F
330
BCD28CE5C6CBF8D
100
AcDbEntity
  8
TEXT
100
AcDbLine
 10
1.451073292142181
 20
0.149652146240532
 30
0.0
 11
1.451073292142181
 21
-0.0449904029251036
 31
0.0
  0
LINE
  5
BCD28CE5C6CBF20
330
BCD28CE5C6CBF8D
100
AcDbEntity
  8
TEXT
100
AcDbLine
 10
1.39368422315292
 20
0.157205935406642
 30
0.0
 11
1.443519502976067
 21
0.157205935406642
 31
0.0
  0
LINE
  5
BCD28CE5C6CBF21
330
BCD28CE5C6CBF8D
100
AcDbEntity
  8
TEXT
100
AcDbLine
 10
1.39368422315292
 20
-0.0449904029251036
 30
0.0
 11
1.39368422315292
 21
0.157205935406642
 31
0.0
  0
LWPOLYLINE
  5
BCD28CE5C6CBF22
330
BCD28CE5C6CBF8D
100
AcDbEntity
  8
TEXT
100
AcDbPolyline
 90
        2
 70
     0
 43
0.0
 10
1.443519502976065
 20
0.157205935406642
 42
-0.4142135623731017
 10
1.451073292142179
 20
0.149652146240532
 42
-0.9999999999999998
  0
LINE
  5
BCD28CE5C6CBF26
330
BCD28CE5C6CBF8D
100
AcDbEntity
  8
TEXT
100
AcDbLine
 10
1.64932950375375
 20
0.157205935406642
 30
0.0
 11
1.64932950375375
 21
0.0821535293324354
 31
0.0
  0
LINE
  5
BCD28CE5C6CBF27
330
BCD28CE5C6CBF8D
100
AcDbEntity
  8
TEXT
100
AcDbLine
 10
1.518131338924021
 20
0.157205935406642
 30
0.0
 11
1.572264935844971
 21
0.157205935406642
 31
0.0
  0
LINE
  5
BCD28CE5C6CBF28
330
BCD28CE5C6CBF8D
100
AcDbEntity
  8
TEXT
100
AcDbLine
 10
1.518131338924021
 20
-0.0449904029251036
 30
0.0
 11
1.518131338924021
 21
0.157205935406642
 31
0.0
  0
LWPOLYLINE
  5
BCD28CE5C6CBF29
330
BCD28CE5C6CBF8D
100
AcDbEntity
  8
TEXT
100
AcDbPolyline
 90
        2
 70
     0
 43
0.0
 10
1.572264935844969
 20
0.157205935406642
 42
-0.4142135623731017
 10
1.579818725011083
 20
0.149652146240532
 42
-0.9999999999999998
  0
LWPOLYLINE
  5
BCD28CE5C6CBF2D
330
BCD28CE5C6CBF8D
100
AcDbEntity
  8
TEXT
100
AcDbPolyline
 90
        4
 70
     0
 43
0.0
 10
1.579818725011083
 20
0.149652146240532
 10
1.579818725011083
 20
-0.0449904029251036
 10
1.64829700829894
 20
-0.0449904029251036
 10
1.64829700829894
 20
-0.0014994579746654
 42
-1.714843617202739
  0
LINE
  5
BCD28CE5C6CBF33
330
BCD28CE5C6CBF8D
100
AcDbEntity
  8
TEXT
100
AcDbLine
 10
1.008432840615838
 20
0.2214826300634074
 30
0.0
 11
1.008432840615838
 21
0.2558705476575456
 31
0.0
  0
LINE
  5
BCD28CE5C6CBF34
330
BCD28CE5C6CBF8D
100
AcDbEntity
  8
TEXT
100
AcDbLine
 10
1.080231806759746
 20
0.2214826300634074
 30
0.0
 11
1.008432840615838
 21
0.2214826300634074
 31
0.0
  0
LINE
  5
BCD28CE5C6CBF35
330
BCD28CE5C6CBF8D
100
AcDbEntity
  8
TEXT
100
AcDbLine
 10
1.227732603390925
 20
0.2214826300634074
 30
0.0
 11
1.197610690597549
 21
0.2214826300634074
 31
0.0
  0
LINE
  5
BCD28CE5C6CBF36
330
BCD28CE5C6CBF8D
100
AcDbEntity
  8
TEXT
100
AcDbLine
 10
1.227732603390925
 20
0.289494107802218
 30
0.0
 11
1.227732603390925
 21
0.2214826300634074
 31
0.0
  0
LINE
  5
BCD28CE5C6CBF37
330
BCD28CE5C6CBF8D
100
AcDbEntity
  8
TEXT
100
AcDbLine
 10
1.29454131595729
 20
0.289494107802218
 30
0.0
 11
1.227732603390925
 21
0.289494107802218
 31
0.0
  0
LWPOLYLINE
  5
BCD28CE5C6CBF38
330
BCD28CE5C6CBF8D
100
AcDbEntity
  8
TEXT
100
AcDbPolyline
 90
        3
 70
     0
 43
0.0
 10
1.614953075555292
 20
0.221482630063411
 10
1.496652916739248
 20
0.221482630063411
 10
1.496652916739248
 20
0.194315133302515
 42
-1.960274751411753
  0
LINE
  5
BCD28CE5C6CBF3D
330
BCD28CE5C6CBF8D
100
AcDbEntity
  8
TEXT
100
AcDbLine
 10
1.460871226026087
 20
0.2214826300634074
 30
0.0
 11
1.32685317009495
 21
0.2214826300634074
 31
0.0
  0
LWPOLYLINE
  5
BCD28CE5C6CBF3E
330
BCD28CE5C6CBF8D
100
AcDbEntity
  8
TEXT
100
AcDbPolyline
 90
        2
 70
     0
 43
0.0
 10
1.460871226026087
 20
0.221482630063411
 42
-0.3328679258950098
 10
1.496652916739248
 20
0.194315133302515
 42
6.772930709997214
  0
LINE
  5
BCD28CE5C6CBF42
330
BCD28CE5C6CBF8D
100
AcDbEntity
  8
TEXT
100
AcDbLine
 10
1.650734766268459
 20
0.2214826300634074
 30
0.0
 11
1.650734766268459
 21
0.1931600842937635
 31
0.0
  0
LWPOLYLINE
  5
BCD28CE5C6CBF43
330
BCD28CE5C6CBF8D
100
AcDbEntity
  8
TEXT
100
AcDbPolyline
 90
        2
 70
     0
 43
0.0
 10
1.614953075555292
 20
0.221482630063411
 42
-0.3277054968067132
 10
1.650734766268457
 20
0.1931600842937671
 42
6.667889725900311
  0
LINE
  5
BCD28CE5C6CBF47
330
BCD28CE5C6CBF8D
100
AcDbEntity
  8
TEXT
100
AcDbLine
 10
1.864526614360559
 20
0.1162706515099801
 30
0.0
 11
1.820775843178658
 21
0.1985209275061253
 31
0.0
  0
LINE
  5
BCD28CE5C6CBF48
330
BCD28CE5C6CBF8D
100
AcDbEntity
  8
TEXT
100
AcDbLine
 10
1.864526614360559
 20
0.2214826300634074
 30
0.0
 11
1.864526614360559
 21
0.1162706515099801
 31
0.0
  0
LINE
  5
BCD28CE5C6CBF49
330
BCD28CE5C6CBF8D
100
AcDbEntity
  8
TEXT
100
AcDbLine
 10
2.092210353298928
 20
0.1456173036518693
 30
0.0
 11
2.092210353298928
 21
0.2869468358310081
 31
0.0
  0
LINE
  5
BCD28CE5C6CBF4A
330
BCD28CE5C6CBF8D
100
AcDbEntity
  8
TEXT
100
AcDbLine
 10
2.139308511854913
 20
0.2214826300634074
 30
0.0
 11
2.092210353298928
 21
0.1456173036518693
 31
0.0
  0
LINE
  5
BCD28CE5C6CBF4B
330
BCD28CE5C6CBF8D
100
AcDbEntity
  8
TEXT
100
AcDbLine
 10
2.149743228618836
 20
0.1115893871224338
 30
0.0
 11
2.214300344584541
 21
0.2214826300634074
 31
0.0
  0
LINE
  5
BCD28CE5C6CBF4C
330
BCD28CE5C6CBF8D
100
AcDbEntity
  8
TEXT
100
AcDbLine
 10
2.028375362076155
 20
-0.0449904029251036
 30
0.0
 11
2.092753546394776
 21
-0.0449904029251036
 31
0.0
  0
LWPOLYLINE
  5
BCD28CE5C6CBF4D
330
BCD28CE5C6CBF8D
100
AcDbEntity
  8
TEXT
100
AcDbPolyline
 90
        2
 70
     0
 43
0.0
 10
1.868466291665597
 20
-0.0014994579746654
 42
-0.2901071551932486
 10
1.825390358797953
 20
-0.0449904029251036
 42
-5.328517124445184
  0
ARC
  5
BCD28CE5C6CBF51
330
BCD28CE5C6CBF8D
100
AcDbEntity
  8
TEXT
100
AcDbCircle
 10
1.756535777141038
 20
0.1288465604066447
 30
0.0
 40
0.028359375
100
AcDbArc
 50
25.78218179591245
 51
90.0
  0
LINE
  5
BCD28CE5C6CBF52
330
BCD28CE5C6CBF8D
100
AcDbEntity
  8
TEXT
100
AcDbLine
 10
1.792336852445161
 20
0.1199309619445097
 30
0.0
 11
1.782072092031597
 21
0.141181501517204
 31
0.0
  0
LINE
  5
BCD28CE5C6CBF53
330
BCD28CE5C6CBF8D
100
AcDbEntity
  8
TEXT
100
AcDbLine
 10
1.710048862661778
 20
0.1199309619445097
 30
0.0
 11
1.792336852445161
 21
0.1199309619445097
 31
0.0
  0
LWPOLYLINE
  5
BCD28CE5C6CBF54
330
BCD28CE5C6CBF8D
100
AcDbEntity
  8
TEXT
100
AcDbPolyline
 90
        4
 70
     1
 43
0.0
 10
1.80526789372806
 20
0.0579735750589217
 10
1.716607575068202
 20
0.0579735750589217
 42
0.9999999999999998
 10
1.716607575068202
 20
0.0155750345550609
 10
1.80526789372806
 20
0.0155750345550609
 42
1.0
  0
LWPOLYLINE
  5
BCD28CE5C6CBF5A
330
BCD28CE5C6CBF8D
100
AcDbEntity
  8
TEXT
100
AcDbPolyline
 90
        2
 70
     0
 43
0.0
 10
1.691372941166576
 20
-0.0449904029251036
 10
1.825390358797953
 20
-0.0449904029251036
 42
0.9999999999999998
  0
LINE
  5
BCD28CE5C6CBF5E
330
BCD28CE5C6CBF8D
100
AcDbEntity
  8
TEXT
100
AcDbLine
 10
1.951727380783592
 20
0.157205935406642
 30
0.0
 11
2.02837536207615
 21
0.157205935406642
 31
0.0
  0
LINE
  5
BCD28CE5C6CBF5F
330
BCD28CE5C6CBF8D
100
AcDbEntity
  8
TEXT
100
AcDbLine
 10
2.02837536207615
 20
0.157205935406642
 30
0.0
 11
2.028375362076155
 21
-0.0449904029251036
 31
0.0
  0
ARC
  5
BCD28CE5C6CBF60
330
BCD28CE5C6CBF8D
100
AcDbEntity
  8
TEXT
100
AcDbCircle
 10
1.95172738078359
 20
0.1323000601239792
 30
0.0
 40
0.0249058752826653
100
AcDbArc
 50
89.99971217465335
 51
179.9999999999985
  0
LINE
  5
BCD28CE5C6CBF61
330
BCD28CE5C6CBF8D
100
AcDbEntity
  8
TEXT
100
AcDbLine
 10
1.926821505500933
 20
-0.0449904029251036
 30
0.0
 11
1.926821505500928
 21
0.1323001025063648
 31
0.0
  0
LWPOLYLINE
  5
BCD28CE5C6CBF62
330
BCD28CE5C6CBF8D
100
AcDbEntity
  8
TEXT
100
AcDbPolyline
 90
        2
 70
     0
 43
0.0
 10
1.868466291665597
 20
-0.0449904029251036
 10
1.926821505500931
 20
-0.0449904029251036
  0
LWPOLYLINE
  5
BCD28CE5C6CBF66
330
BCD28CE5C6CBF8D
100
AcDbEntity
  8
TEXT
100
AcDbPolyline
 90
        2
 70
     0
 43
0.0
 10
1.868466291665597
 20
-0.0014994579746654
 10
1.868466291665597
 20
-0.0449904029251036
  0
LINE
  5
BCD28CE5C6CBF6A
330
BCD28CE5C6CBF8D
100
AcDbEntity
  8
TEXT
100
AcDbLine
 10
2.245235451982446
 20
-0.0449904029251036
 30
0.0
 11
2.149743228618836
 21
0.1115893871224338
 31
0.0
  0
LINE
  5
BCD28CE5C6CBF6B
330
BCD28CE5C6CBF8D
100
AcDbEntity
  8
TEXT
100
AcDbLine
 10
2.16865707960624
 20
-0.0449904029251036
 30
0.0
 11
2.245235451982446
 21
-0.0449904029251036
 31
0.0
  0
LINE
  5
BCD28CE5C6CBF6C
330
BCD28CE5C6CBF8D
100
AcDbEntity
  8
TEXT
100
AcDbLine
 10
2.092753546394776
 20
0.0865891655510767
 30
0.0
 11
2.16865707960624
 21
-0.0449904029251036
 31
0.0
  0
LINE
  5
BCD28CE5C6CBF6D
330
BCD28CE5C6CBF8D
100
AcDbEntity
  8
TEXT
100
AcDbLine
 10
2.092753546394776
 20
-0.0449904029251036
 30
0.0
 11
2.092753546394776
 21
0.0865891655510767
 31
0.0
  0
LINE
  5
BCD28CE5C6CBF6E
330
BCD28CE5C6CBF8D
100
AcDbEntity
  8
TEXT
100
AcDbLine
 10
2.092210353298928
 20
0.2869468358310081
 30
0.0
 11
2.023895474749655
 21
0.2869468358310081
 31
0.0
  0
ARC
  5
BCD28CE5C6CBF6F
330
BCD28CE5C6CBF8D
100
AcDbEntity
  8
TEXT
100
AcDbCircle
 10
1.783539735708449
 20
0.179899062942505
 30
0.0
 40
0.0416329381542859
100
AcDbArc
 50
26.56974201007528
 51
87.20939649401342
  0
LINE
  5
BCD28CE5C6CBF70
330
BCD28CE5C6CBF8D
100
AcDbEntity
  8
TEXT
100
AcDbLine
 10
1.92842352066006
 20
0.2214826300634074
 30
0.0
 11
1.864526614360559
 21
0.2214826300634074
 31
0.0
  0
LINE
  5
BCD28CE5C6CBF71
330
BCD28CE5C6CBF8D
100
AcDbEntity
  8
TEXT
100
AcDbLine
 10
1.92842352066006
 20
0.1939349802025327
 30
0.0
 11
1.92842352066006
 21
0.2214826300634074
 31
0.0
  0
ARC
  5
BCD28CE5C6CBF72
330
BCD28CE5C6CBF8D
100
AcDbEntity
  8
TEXT
100
AcDbCircle
 10
1.959616337723168
 20
0.1902369027811426
 30
0.0
 40
0.0314112657011332
100
AcDbArc
 50
95.88484768694724
 51
173.2388340632136
  0
LINE
  5
BCD28CE5C6CBF73
330
BCD28CE5C6CBF8D
100
AcDbEntity
  8
TEXT
100
AcDbLine
 10
2.02389547474965
 20
0.2214826300634074
 30
0.0
 11
1.956395757100133
 21
0.2214826300634074
 31
0.0
  0
LINE
  5
BCD28CE5C6CBF74
330
BCD28CE5C6CBF8D
100
AcDbEntity
  8
TEXT
100
AcDbLine
 10
2.023895474749655
 20
0.2869468358310081
 30
0.0
 11
2.02389547474965
 21
0.2214826300634074
 31
0.0
  0
LINE
  5
BCD28CE5C6CBF75
330
BCD28CE5C6CBF8D
100
AcDbEntity
  8
TEXT
100
AcDbLine
 10
2.214300344584541
 20
0.2214826300634074
 30
0.0
 11
2.139308511854915
 21
0.2214826300634074
 31
0.0
  0
INSERT
  5
BCD28CE5C6CBFA8
330
BCD28CE5C6CBF8D
100
AcDbEntity
  8
ASHADE
 62
     1
100
AcDbBlockReference
  2
AVE_RENDER
 10
0.0
 20
0.0
 30
0.0
1001
AVE_RENDER
1002
{
1070
     6
1000
Pref
1070
    30
1070
    20
1070
     1
1070
     0
1000

1070
    10
1070
     1
1070
    30
1040
1.0
1070
     1
1040
0.3
1040
0.7
1040
0.0
1040
10.0
1010
-1.0
1020
-1.0
1030
-1.0
1040
0.3
1070
    49
1070
     0
1070
     0
1010
1.0
1020
1.0
1030
1.0
1040
45.0
1070
     1
1070
     0
1000
WCS
1040
0.0
1002
}
  0
INSERT
  5
BCD28CE5C6CBFA9
330
BCD28CE5C6CBF8D
100
AcDbEntity
  8
ASHADE
 62
     3
100
AcDbBlockReference
  2
AVE_RENDER
 10
0.0
 20
0.0
 30
0.0
1001
AVE_RENDER
1002
{
1070
     0
1000
Full Opt
1070
     0
1070
     1
1070
     1
1070
     1
1070
     0
1070
     0
1070
     0
1070
     1
1070
     1
1040
0.0001
1040
0.0001
1002
}
  0
INSERT
  5
BCD28CE5C6CBFAA
330
BCD28CE5C6CBF8D
100
AcDbEntity
  8
ASHADE
 62
     4
100
AcDbBlockReference
  2
AVE_RENDER
 10
0.0
 20
0.0
 30
0.0
1001
AVE_RENDER
1002
{
1070
     0
1000
Quick Opt
1070
     0
1070
     1
1070
     1
1070
     1
1070
     0
1070
     0
1070
     1
1002
}
  0
INSERT
  5
BCD28CE5C6CBFAB
330
BCD28CE5C6CBF8D
100
AcDbEntity
  8
ASHADE
 62
     5
100
AcDbBlockReference
  2
AVE_RENDER
 10
0.0
 20
0.0
 30
0.0
1001
AVE_RENDER
1002
{
1070
     1
1000
Scanl Opt
1070
     2
1070
     0
1070
     2
1040
2.0
1040
4.0
1070
     0
1070
     1
1070
     0
1040
0.03
1002
}
  0
INSERT
  5
BCD28CE5C6CBFAC
330
BCD28CE5C6CBF8D
100
AcDbEntity
  8
ASHADE
 62
     6
100
AcDbBlockReference
  2
AVE_RENDER
 10
0.0
 20
0.0
 30
0.0
1001
AVE_RENDER
1002
{
1070
     2
1000
Raytr Opt
1070
     2
1070
     0
1070
     2
1040
2.0
1040
4.0
1070
     0
1070
     1
1070
     1
1040
0.03
1070
     3
1040
0.03
1002
}
  0
INSERT
  5
BCD28CE5C6CBFAD
330
BCD28CE5C6CBF8D
100
AcDbEntity
  8
ASHADE
 62
     7
100
AcDbBlockReference
  2
AVE_RENDER
 10
0.0
 20
0.0
 30
0.0
1001
AVE_RENDER
1002
{
1070
     0
1000
RFile Opt
1070
     5
1070
   640
1070
   480
1070
 10000
1070
     3
1070
    32
1070
    24
1070
     0
1070
     0
1070
     0
1070
     1
1070
     0
1070
     0
1070
     0
1002
}
  0
INSERT
  5
BCD28CE5C6CBFAE
330
BCD28CE5C6CBF8D
100
AcDbEntity
  8
ASHADE
 62
     8
100
AcDbBlockReference
  2
AVE_RENDER
 10
0.0
 20
0.0
 30
0.0
1001
AVE_RENDER
1002
{
1070
     0
1000
Fog Opt
1070
     0
1070
     0
1040
0.0
1040
1.0
1040
0.0
1040
1.0
1010
0.5
1020
0.5
1030
0.5
1002
}
  0
INSERT
  5
BCD28CE5C6CBFAF
330
BCD28CE5C6CBF8D
100
AcDbEntity
  8
ASHADE
 62
     9
100
AcDbBlockReference
  2
AVE_RENDER
 10
0.0
 20
0.0
 30
0.0
1001
AVE_RENDER
1002
{
1070
     0
1000
BG Opt
1070
     0
1070
     1
1010
0.0
1020
0.0
1030
0.0
1010
1.0
1020
0.0
1030
0.0
1010
0.0
1020
1.0
1030
0.0
1010
0.0
1020
0.0
1030
1.0
1040
0.5
1040
0.33
1040
0.0
1000

1070
     1
1000

1070
     1
1070
     1
1040
1.0
1040
1.0
1040
0.0
1040
0.0
1070
     0
1002
}
  0
INSERT
  5
BCD28CE5C6CBFB6
330
BCD28CE5C6CBF8D
100
AcDbEntity
  8
ASHADE
 62
     1
100
AcDbBlockReference
  2
AVE_GLOBAL
 10
0.0
 20
0.0
 30
0.0
1001
AVE_MATERIAL
1002
{
1000
*GLOBAL*
1000
1
1000
Global finish.
1002
{
1002
}
1002
{
1070
    63
1002
{
1002
{
1010
-1.0
1020
-1.0
1030
-1.0
1002
}
1040
0.1000000014901161
1000

1040
0.0
1002
{
1002
}
1040
0.0
1002
{
1002
}
1040
0.0
1002
}
1002
{
1002
{
1010
-1.0
1020
-1.0
1030
-1.0
1002
}
1040
0.6999999880790711
1000

1040
0.0
1002
{
1002
}
1040
0.0
1002
{
1002
}
1040
0.0
1002
}
1002
{
1002
{
1010
-1.0
1020
-1.0
1030
-1.0
1002
}
1040
0.2000000029802322
1000

1040
0.0
1002
{
1002
}
1040
0.0
1002
{
1002
}
1040
0.0
1002
}
1002
{
1070
     0
1002
{
1070
     1
1002
{
1040
1.0
1040
1.0
1000

1040
0.0
1002
{
1002
}
1040
0.0
1002
{
1002
}
1040
0.0
1002
}
1002
}
1040
1.0
1040
0.0
1040
0.0
1002
}
1002
{
1040
1.0
1040
1.0
1000

1040
0.0
1002
{
1002
}
1040
0.0
1002
{
1002
}
1040
0.0
1002
}
1002
{
1040
0.5
1040
1.0
1000

1040
0.0
1002
{
1002
}
1040
0.0
1002
{
1002
}
1040
0.0
1002
}
1002
{
1070
     0
1040
0.0
1002
{
1002
}
1040
1.0
1002
{
1002
}
1040
0.0
1002
}
1002
{
1040
0.0
1002
{
1002
{
1010
0.0
1020
0.0
1030
0.0
1002
}
1040
1.0
1000

1040
0.0
1002
{
1002
}
1040
0.0
1002
{
1002
}
1040
0.0
1002
}
1002
}
1002
{
1002
{
1070
     1
1002
{
1040
0.0
1040
1.0
1000

1040
0.0
1002
{
1002
}
1040
0.0
1002
{
1002
}
1040
0.0
1002
}
1002
}
1040
0.0
1002
{
1002
}
1010
1.0
1020
0.0
1030
0.0
1010
0.0
1020
1.0
1030
0.0
1010
0.0
1020
0.0
1030
1.0
1070
     0
1002
}
1002
{
1002
{
1040
1.0
1040
1.0
1002
{
1070
     1
1002
{
1040
1.0
1040
1.0
1000

1040
0.0
1002
{
1002
}
1040
0.0
1002
{
1002
}
1040
0.0
1002
}
1002
}
1002
}
1070
     0
1040
0.0
1002
{
1002
}
1002
}
1002
{
1002
}
1002
}
1002
{
1071
        3
1070
     3
1070
     0
1002
{
1070
     2
1070
     0
1070
     0
1040
0.0
1002
}
1070
     0
1070
     2
1002
{
1002
}
1002
}
1002
{
1040
8030.0
1040
190.3000030517578
1040
0.3050000071525574
1040
228.0
1040
545.0
1040
14.0
1040
17.39999961853027
1040
0.4560000002384186
1002
}
1002
}
  0
ENDSEC
  0
SECTION
  2
OBJECTS
  0
DICTIONARY
  5
BCD28CE5C6CBF81
330
0
100
AcDbDictionary
  3
ACAD_GROUP
350
BCD28CE5C6CBF82
  3
ACAD_LAYOUT
350
BCD28CE5C6CBFC2
  3
ACAD_MLINESTYLE
350
BCD28CE5C6CBF83
  3
ACAD_PLOTSETTINGS
350
BCD28CE5C6CBFC3
  3
ACAD_PLOTSTYLENAME
350
BCD28CE5C6CBFC0
  3
ACDBHEADERROUNDTRIPXREC
350
BCD28CE5C6CBFCD
  3
ACDBVARIABLEDICTIONARY
350
BCD28CE5C6CBFCA
  0
DICTIONARY
  5
BCD28CE5C6CBFEF
330
BCD28CE5C6CBF8D
100
AcDbDictionary
280
     1
  3
ACAD_LAYOUTSELFREF
360
BCD28CE5C6CBFF0
  0
DICTIONARY
  5
BCD28CE5C6CBFED
330
BCD28CE5C6CBF8A
100
AcDbDictionary
280
     1
  3
ACAD_LAYOUTSELFREF
360
BCD28CE5C6CBFEE
  0
DICTIONARY
  5
BCD28CE5C6CBF82
102
{ACAD_REACTORS
330
BCD28CE5C6CBF81
102
}
330
BCD28CE5C6CBF81
100
AcDbDictionary
  0
DICTIONARY
  5
BCD28CE5C6CBFC2
102
{ACAD_REACTORS
330
BCD28CE5C6CBF81
102
}
330
BCD28CE5C6CBF81
100
AcDbDictionary
  0
DICTIONARY
  5
BCD28CE5C6CBF83
102
{ACAD_REACTORS
330
BCD28CE5C6CBF81
102
}
330
BCD28CE5C6CBF81
100
AcDbDictionary
  3
STANDARD
350
BCD28CE5C6CBF90
  0
DICTIONARY
  5
BCD28CE5C6CBFC3
102
{ACAD_REACTORS
330
BCD28CE5C6CBF81
102
}
330
BCD28CE5C6CBF81
100
AcDbDictionary
  0
ACDBDICTIONARYWDFLT
  5
BCD28CE5C6CBFC0
102
{ACAD_REACTORS
330
BCD28CE5C6CBF81
102
}
330
BCD28CE5C6CBF81
100
AcDbDictionary
281
     1
  3
Normal
350
BCD28CE5C6CBFC1
100
AcDbDictionaryWithDefault
340
BCD28CE5C6CBFC1
  0
DICTIONARY
  5
BCD28CE5C6CBFCD
102
{ACAD_REACTORS
330
BCD28CE5C6CBF81
102
}
330
BCD28CE5C6CBF81
100
AcDbDictionary
  3
CEPSNTYPE
350
BCD28CE5C6CBFD7
  3
FINGERPRINTGUID
350
BCD28CE5C6CBFD8
  3
HYPERLINKBASE
350
BCD28CE5C6CBFD0
  3
INSUNITS
350
BCD28CE5C6CBFD6
  3
LAYOUTDICT
350
BCD28CE5C6CBFD2
  3
LWETCUNION
350
BCD28CE5C6CBFD5
  3
PLOTSETDICT
350
BCD28CE5C6CBFD3
  3
PLOTSTYLNAMDICT
350
BCD28CE5C6CBFD4
  3
PSVPSCALE
350
BCD28CE5C6CBFDA
  3
PUCSBASE
350
BCD28CE5C6CBFDD
  3
PUCSORGBACK
350
BCD28CE5C6CBFE3
  3
PUCSORGBOTTOM
350
BCD28CE5C6CBFDF
  3
PUCSORGFRONT
350
BCD28CE5C6CBFE2
  3
PUCSORGLEFT
350
BCD28CE5C6CBFE0
  3
PUCSORGRIGHT
350
BCD28CE5C6CBFE1
  3
PUCSORGTOP
350
BCD28CE5C6CBFDE
  3
PUCSORTHOREF
350
BCD28CE5C6CBFDB
  3
PUCSORTHOVIEW
350
BCD28CE5C6CBFDC
  3
STYLESHEET
350
BCD28CE5C6CBFD1
  3
TSTACKALIGN
350
BCD28CE5C6CBFCE
  3
TSTACKSIZE
350
BCD28CE5C6CBFCF
  3
UCSBASE
350
BCD28CE5C6CBFE6
  3
UCSORGBACK
350
BCD28CE5C6CBFEC
  3
UCSORGBOTTOM
350
BCD28CE5C6CBFE8
  3
UCSORGFRONT
350
BCD28CE5C6CBFEB
  3
UCSORGLEFT
350
BCD28CE5C6CBFE9
  3
UCSORGRIGHT
350
BCD28CE5C6CBFEA
  3
UCSORGTOP
350
BCD28CE5C6CBFE7
  3
UCSORTHOREF
350
BCD28CE5C6CBFE4
  3
UCSORTHOVIEW
350
BCD28CE5C6CBFE5
  3
VERSIONGUID
350
BCD28CE5C6CBFD9
  0
DICTIONARY
  5
BCD28CE5C6CBFCA
102
{ACAD_REACTORS
330
BCD28CE5C6CBF81
102
}
330
BCD28CE5C6CBF81
100
AcDbDictionary
  3
DIMASSOC
350
BCD28CE5C6CBFCB
  0
XRECORD
  5
BCD28CE5C6CBFF0
102
{ACAD_REACTORS
330
BCD28CE5C6CBFEF
102
}
330
BCD28CE5C6CBFEF
100
AcDbXrecord
340
BCD28CE5C6CBF8D
  0
XRECORD
  5
BCD28CE5C6CBFEE
102
{ACAD_REACTORS
330
BCD28CE5C6CBFED
102
}
330
BCD28CE5C6CBFED
100
AcDbXrecord
340
BCD28CE5C6CBF8A
  0
MLINESTYLE
  5
BCD28CE5C6CBF90
102
{ACAD_REACTORS
330
BCD28CE5C6CBF83
102
}
330
BCD28CE5C6CBF83
100
AcDbMlineStyle
  2
STANDARD
 70
     0
  3

 62
     0
 51
90.0
 52
90.0
 71
     2
 49
0.5
 62
   256
  6
BYLAYER
 49
-0.5
 62
   256
  6
BYLAYER
  0
ACDBPLACEHOLDER
  5
BCD28CE5C6CBFC1
102
{ACAD_REACTORS
330
BCD28CE5C6CBFC0
102
}
330
BCD28CE5C6CBFC0
100
AcDbPlaceHolder
280
     0
  0
XRECORD
  5
BCD28CE5C6CBFD7
102
{ACAD_REACTORS
330
BCD28CE5C6CBFCD
102
}
330
BCD28CE5C6CBFCD
100
AcDbXrecord
 90
        0
  0
XRECORD
  5
BCD28CE5C6CBFD8
102
{ACAD_REACTORS
330
BCD28CE5C6CBFCD
102
}
330
BCD28CE5C6CBFCD
100
AcDbXrecord
  1
{0E916D10-8DB6-11D6-88E6-0090279574E7}
  0
XRECORD
  5
BCD28CE5C6CBFD0
102
{ACAD_REACTORS
330
BCD28CE5C6CBFCD
102
}
330
BCD28CE5C6CBFCD
100
AcDbXrecord
  1

  0
XRECORD
  5
BCD28CE5C6CBFD6
102
{ACAD_REACTORS
330
BCD28CE5C6CBFCD
102
}
330
BCD28CE5C6CBFCD
100
AcDbXrecord
 90
        0
  0
XRECORD
  5
BCD28CE5C6CBFD2
102
{ACAD_REACTORS
330
BCD28CE5C6CBFCD
102
}
330
BCD28CE5C6CBFCD
100
AcDbXrecord
340
BCD28CE5C6CBFC2
  0
XRECORD
  5
BCD28CE5C6CBFD5
102
{ACAD_REACTORS
330
BCD28CE5C6CBFCD
102
}
330
BCD28CE5C6CBFCD
100
AcDbXrecord
 90
    14877
  0
XRECORD
  5
BCD28CE5C6CBFD3
102
{ACAD_REACTORS
330
BCD28CE5C6CBFCD
102
}
330
BCD28CE5C6CBFCD
100
AcDbXrecord
340
BCD28CE5C6CBFC3
  0
XRECORD
  5
BCD28CE5C6CBFD4
102
{ACAD_REACTORS
330
BCD28CE5C6CBFCD
102
}
330
BCD28CE5C6CBFCD
100
AcDbXrecord
340
BCD28CE5C6CBFC0
  0
XRECORD
  5
BCD28CE5C6CBFDA
102
{ACAD_REACTORS
330
BCD28CE5C6CBFCD
102
}
330
BCD28CE5C6CBFCD
100
AcDbXrecord
 40
0.0
  0
XRECORD
  5
BCD28CE5C6CBFDD
102
{ACAD_REACTORS
330
BCD28CE5C6CBFCD
102
}
330
BCD28CE5C6CBFCD
100
AcDbXrecord
340
0
  0
XRECORD
  5
BCD28CE5C6CBFE3
102
{ACAD_REACTORS
330
BCD28CE5C6CBFCD
102
}
330
BCD28CE5C6CBFCD
100
AcDbXrecord
 10
0.0
 20
0.0
 30
0.0
  0
XRECORD
  5
BCD28CE5C6CBFDF
102
{ACAD_REACTORS
330
BCD28CE5C6CBFCD
102
}
330
BCD28CE5C6CBFCD
100
AcDbXrecord
 10
0.0
 20
0.0
 30
0.0
  0
XRECORD
  5
BCD28CE5C6CBFE2
102
{ACAD_REACTORS
330
BCD28CE5C6CBFCD
102
}
330
BCD28CE5C6CBFCD
100
AcDbXrecord
 10
0.0
 20
0.0
 30
0.0
  0
XRECORD
  5
BCD28CE5C6CBFE0
102
{ACAD_REACTORS
330
BCD28CE5C6CBFCD
102
}
330
BCD28CE5C6CBFCD
100
AcDbXrecord
 10
0.0
 20
0.0
 30
0.0
  0
XRECORD
  5
BCD28CE5C6CBFE1
102
{ACAD_REACTORS
330
BCD28CE5C6CBFCD
102
}
330
BCD28CE5C6CBFCD
100
AcDbXrecord
 10
0.0
 20
0.0
 30
0.0
  0
XRECORD
  5
BCD28CE5C6CBFDE
102
{ACAD_REACTORS
330
BCD28CE5C6CBFCD
102
}
330
BCD28CE5C6CBFCD
100
AcDbXrecord
 10
0.0
 20
0.0
 30
0.0
  0
XRECORD
  5
BCD28CE5C6CBFDB
102
{ACAD_REACTORS
330
BCD28CE5C6CBFCD
102
}
330
BCD28CE5C6CBFCD
100
AcDbXrecord
340
0
  0
XRECORD
  5
BCD28CE5C6CBFDC
102
{ACAD_REACTORS
330
BCD28CE5C6CBFCD
102
}
330
BCD28CE5C6CBFCD
100
AcDbXrecord
 70
     0
  0
XRECORD
  5
BCD28CE5C6CBFD1
102
{ACAD_REACTORS
330
BCD28CE5C6CBFCD
102
}
330
BCD28CE5C6CBFCD
100
AcDbXrecord
  1

  0
XRECORD
  5
BCD28CE5C6CBFCE
102
{ACAD_REACTORS
330
BCD28CE5C6CBFCD
102
}
330
BCD28CE5C6CBFCD
100
AcDbXrecord
 90
        1
  0
XRECORD
  5
BCD28CE5C6CBFCF
102
{ACAD_REACTORS
330
BCD28CE5C6CBFCD
102
}
330
BCD28CE5C6CBFCD
100
AcDbXrecord
 90
       70
  0
XRECORD
  5
BCD28CE5C6CBFE6
102
{ACAD_REACTORS
330
BCD28CE5C6CBFCD
102
}
330
BCD28CE5C6CBFCD
100
AcDbXrecord
340
0
  0
XRECORD
  5
BCD28CE5C6CBFEC
102
{ACAD_REACTORS
330
BCD28CE5C6CBFCD
102
}
330
BCD28CE5C6CBFCD
100
AcDbXrecord
 10
0.0
 20
0.0
 30
0.0
  0
XRECORD
  5
BCD28CE5C6CBFE8
102
{ACAD_REACTORS
330
BCD28CE5C6CBFCD
102
}
330
BCD28CE5C6CBFCD
100
AcDbXrecord
 10
0.0
 20
0.0
 30
0.0
  0
XRECORD
  5
BCD28CE5C6CBFEB
102
{ACAD_REACTORS
330
BCD28CE5C6CBFCD
102
}
330
BCD28CE5C6CBFCD
100
AcDbXrecord
 10
0.0
 20
0.0
 30
0.0
  0
XRECORD
  5
BCD28CE5C6CBFE9
102
{ACAD_REACTORS
330
BCD28CE5C6CBFCD
102
}
330
BCD28CE5C6CBFCD
100
AcDbXrecord
 10
0.0
 20
0.0
 30
0.0
  0
XRECORD
  5
BCD28CE5C6CBFEA
102
{ACAD_REACTORS
330
BCD28CE5C6CBFCD
102
}
330
BCD28CE5C6CBFCD
100
AcDbXrecord
 10
0.0
 20
0.0
 30
0.0
  0
XRECORD
  5
BCD28CE5C6CBFE7
102
{ACAD_REACTORS
330
BCD28CE5C6CBFCD
102
}
330
BCD28CE5C6CBFCD
100
AcDbXrecord
 10
0.0
 20
0.0
 30
0.0
  0
XRECORD
  5
BCD28CE5C6CBFE4
102
{ACAD_REACTORS
330
BCD28CE5C6CBFCD
102
}
330
BCD28CE5C6CBFCD
100
AcDbXrecord
340
0
  0
XRECORD
  5
BCD28CE5C6CBFE5
102
{ACAD_REACTORS
330
BCD28CE5C6CBFCD
102
}
330
BCD28CE5C6CBFCD
100
AcDbXrecord
 70
     0
  0
XRECORD
  5
BCD28CE5C6CBFD9
102
{ACAD_REACTORS
330
BCD28CE5C6CBFCD
102
}
330
BCD28CE5C6CBFCD
100
AcDbXrecord
  1
{0E916D12-8DB6-11D6-88E6-0090279574E7}
  0
DICTIONARYVAR
  5
BCD28CE5C6CBFCB
102
{ACAD_REACTORS
330
BCD28CE5C6CBFCA
102
}
330
BCD28CE5C6CBFCA
100
DictionaryVariables
280
     0
  1
1
  0
ENDSEC
  0
EOF
