  0
SECTION
  2
HEADER
  9
$ACADVER
  1
AC1014
  9
$ACADMAINTVER
 70
     9
  9
$DWGCODEPAGE
  3
ANSI_1252
  9
$INSBASE
 10
1.730182894658161
 20
1.967882926377233
 30
0.0
  9
$EXTMIN
 10
-0.0127986845689812
 20
0.1045656960348022
 30
0.0
  9
$EXTMAX
 10
3.472420637178146
 20
1.967882926377233
 30
0.0
  9
$LIMMIN
 10
0.0
 20
0.0
  9
$LIMMAX
 10
18.0
 20
12.0
  9
$ORTHOMODE
 70
     1
  9
$REGENMODE
 70
     1
  9
$FILLMODE
 70
     1
  9
$QTEXTMODE
 70
     0
  9
$MIRRTEXT
 70
     0
  9
$DRAGMODE
 70
     2
  9
$LTSCALE
 40
1.0
  9
$OSMODE
 70
    39
  9
$ATTMODE
 70
     1
  9
$TEXTSIZE
 40
0.125
  9
$TRACEWID
 40
0.05
  9
$TEXTSTYLE
  7
ROMANS
  9
$CLAYER
  8
0
  9
$CELTYPE
  6
BYLAYER
  9
$CECOLOR
 62
   256
  9
$CELTSCALE
 40
1.0
  9
$DELOBJ
 70
     1
  9
$DISPSILH
 70
     1
  9
$DIMSCALE
 40
1.0
  9
$DIMASZ
 40
0.125
  9
$DIMEXO
 40
0.125
  9
$DIMDLI
 40
0.375
  9
$DIMRND
 40
0.0
  9
$DIMDLE
 40
0.0
  9
$DIMEXE
 40
0.125
  9
$DIMTP
 40
0.0
  9
$DIMTM
 40
0.0
  9
$DIMTXT
 40
0.125
  9
$DIMCEN
 40
-0.125
  9
$DIMTSZ
 40
0.0
  9
$DIMTOL
 70
     0
  9
$DIMLIM
 70
     0
  9
$DIMTIH
 70
     1
  9
$DIMTOH
 70
     1
  9
$DIMSE1
 70
     0
  9
$DIMSE2
 70
     0
  9
$DIMTAD
 70
     0
  9
$DIMZIN
 70
     4
  9
$DIMBLK
  1

  9
$DIMASO
 70
     1
  9
$DIMSHO
 70
     1
  9
$DIMPOST
  1

  9
$DIMAPOST
  1

  9
$DIMALT
 70
     0
  9
$DIMALTD
 70
     2
  9
$DIMALTF
 40
25.4
  9
$DIMLFAC
 40
1.0
  9
$DIMTOFL
 70
     0
  9
$DIMTVP
 40
0.0
  9
$DIMTIX
 70
     1
  9
$DIMSOXD
 70
     0
  9
$DIMSAH
 70
     0
  9
$DIMBLK1
  1

  9
$DIMBLK2
  1

  9
$DIMSTYLE
  2
STANDARD
  9
$DIMCLRD
 70
     0
  9
$DIMCLRE
 70
     0
  9
$DIMCLRT
 70
     0
  9
$DIMTFAC
 40
1.0
  9
$DIMGAP
 40
0.09
  9
$DIMJUST
 70
     0
  9
$DIMSD1
 70
     0
  9
$DIMSD2
 70
     0
  9
$DIMTOLJ
 70
     1
  9
$DIMTZIN
 70
     4
  9
$DIMALTZ
 70
     0
  9
$DIMALTTZ
 70
     0
  9
$DIMFIT
 70
     3
  9
$DIMUPT
 70
     0
  9
$DIMUNIT
 70
     2
  9
$DIMDEC
 70
     3
  9
$DIMTDEC
 70
     3
  9
$DIMALTU
 70
     2
  9
$DIMALTTD
 70
     2
  9
$DIMTXSTY
  7
ROMANS
  9
$DIMAUNIT
 70
     0
  9
$LUNITS
 70
     2
  9
$LUPREC
 70
     3
  9
$SKETCHINC
 40
0.1
  9
$FILLETRAD
 40
0.03125
  9
$AUNITS
 70
     0
  9
$AUPREC
 70
     0
  9
$MENU
  1
ACAD
  9
$ELEVATION
 40
0.0
  9
$PELEVATION
 40
0.0
  9
$THICKNESS
 40
0.0
  9
$LIMCHECK
 70
     0
  9
$BLIPMODE
 70
     0
  9
$CHAMFERA
 40
0.0
  9
$CHAMFERB
 40
0.0
  9
$CHAMFERC
 40
0.0
  9
$CHAMFERD
 40
0.0
  9
$SKPOLY
 70
     0
  9
$TDCREATE
 40
2448994.548521875
  9
$TDUPDATE
 40
2452458.305637025
  9
$TDINDWG
 40
0.0007460417
  9
$TDUSRTIMER
 40
0.0007460417
  9
$USRTIMER
 70
     1
  9
$ANGBASE
 50
0.0
  9
$ANGDIR
 70
     0
  9
$PDMODE
 70
     0
  9
$PDSIZE
 40
0.0
  9
$PLINEWID
 40
0.0
  9
$COORDS
 70
     2
  9
$SPLFRAME
 70
     0
  9
$SPLINETYPE
 70
     6
  9
$SPLINESEGS
 70
     8
  9
$ATTDIA
 70
     0
  9
$ATTREQ
 70
     1
  9
$HANDLING
 70
 22529
  9
$HANDSEED
  5
BCD28CE5C6CBBFB
  9
$SURFTAB1
 70
     6
  9
$SURFTAB2
 70
     6
  9
$SURFTYPE
 70
     6
  9
$SURFU
 70
     6
  9
$SURFV
 70
     6
  9
$UCSNAME
  2

  9
$UCSORG
 10
0.0
 20
0.0
 30
0.0
  9
$UCSXDIR
 10
1.0
 20
0.0
 30
0.0
  9
$UCSYDIR
 10
0.0
 20
1.0
 30
0.0
  9
$PUCSNAME
  2

  9
$PUCSORG
 10
0.0
 20
0.0
 30
0.0
  9
$PUCSXDIR
 10
1.0
 20
0.0
 30
0.0
  9
$PUCSYDIR
 10
0.0
 20
1.0
 30
0.0
  9
$USERI1
 70
     0
  9
$USERI2
 70
     0
  9
$USERI3
 70
     0
  9
$USERI4
 70
     0
  9
$USERI5
 70
     0
  9
$USERR1
 40
0.0
  9
$USERR2
 40
0.0
  9
$USERR3
 40
0.0
  9
$USERR4
 40
0.0
  9
$USERR5
 40
0.0
  9
$WORLDVIEW
 70
     1
  9
$SHADEDGE
 70
     3
  9
$SHADEDIF
 70
    70
  9
$TILEMODE
 70
     1
  9
$MAXACTVP
 70
    16
  9
$PINSBASE
 10
0.7098867324538924
 20
50.00000000000001
 30
1.978658544668064
  9
$PLIMCHECK
 70
     0
  9
$PEXTMIN
 10
1.000000000000000E+20
 20
1.000000000000000E+20
 30
1.000000000000000E+20
  9
$PEXTMAX
 10
-1.000000000000000E+20
 20
-1.000000000000000E+20
 30
-1.000000000000000E+20
  9
$PLIMMIN
 10
0.0
 20
0.0
  9
$PLIMMAX
 10
12.0
 20
9.0
  9
$UNITMODE
 70
     0
  9
$VISRETAIN
 70
     0
  9
$PLINEGEN
 70
     1
  9
$PSLTSCALE
 70
     0
  9
$TREEDEPTH
 70
  3020
  9
$PICKSTYLE
 70
     1
  9
$CMLSTYLE
  2
STANDARD
  9
$CMLJUST
 70
     0
  9
$CMLSCALE
 40
1.0
  9
$PROXYGRAPHICS
 70
     1
  9
$MEASUREMENT
 70
     0
  0
ENDSEC
  0
SECTION
  2
CLASSES
  0
CLASS
  1
LWPOLYLINE
  2
AcDbPolyline
  3
AutoCAD 2000
 90
        0
280
     0
281
     1
  0
CLASS
  1
ACDBDICTIONARYWDFLT
  2
AcDbDictionaryWithDefault
  3
AutoCAD 2000
 90
        0
280
     0
281
     0
  0
CLASS
  1
ACDBPLACEHOLDER
  2
AcDbPlaceHolder
  3
AutoCAD 2000
 90
        0
280
     0
281
     0
  0
CLASS
  1
LAYOUT
  2
AcDbLayout
  3
AutoCAD 2000
 90
        0
280
     0
281
     0
  0
CLASS
  1
DICTIONARYVAR
  2
AcDbDictionaryVar
  3
AutoCAD 2000
 90
        0
280
     0
281
     0
  0
CLASS
  1
LONG_TRANSACTION
  2
AcDbLongTransaction
  3
AutoCAD 2000
 90
        0
280
     0
281
     0
  0
CLASS
  1
LWPOLYLINE
  2
AcDbPolyline
  3
AutoCAD 2000
 90
        0
280
     0
281
     1
  0
CLASS
  1
HATCH
  2
AcDbHatch
  3
AutoCAD 2000
 90
        0
280
     0
281
     1
  0
CLASS
  1
XRECORD
  2
AcDbXrecord
  3
AutoCAD 2000
 90
        0
280
     0
281
     0
  0
ENDSEC
  0
SECTION
  2
TABLES
  0
TABLE
  2
VPORT
  5
BCD28CE5C6CBBA2
330
0
100
AcDbSymbolTable
 70
     2
  0
VPORT
  5
BCD28CE5C6CBBD6
330
BCD28CE5C6CBBA2
100
AcDbSymbolTableRecord
100
AcDbViewportTableRecord
  2
*ACTIVE
 70
     0
 10
0.0
 20
0.0
 11
1.0
 21
1.0
 12
4.706016352854017
 22
1.036010764348333
 13
0.0
 23
0.0
 14
0.015625
 24
0.015625
 15
0.0
 25
0.0
 16
0.0
 26
0.0
 36
1.0
 17
0.0
 27
0.0
 37
0.0
 40
2.282470917715285
 41
4.320930232558139
 42
50.0
 43
0.0
 44
0.0
 50
0.0
 51
0.0
 71
     0
 72
  2000
 73
     1
 74
     0
 75
     0
 76
     0
 77
     0
 78
     0
  0
ENDTAB
  0
TABLE
  2
LTYPE
  5
BCD28CE5C6CBB9F
330
0
100
AcDbSymbolTable
 70
     1
  0
LTYPE
  5
BCD28CE5C6CBBAC
330
BCD28CE5C6CBB9F
100
AcDbSymbolTableRecord
100
AcDbLinetypeTableRecord
  2
BYBLOCK
 70
     0
  3

 72
    65
 73
     0
 40
0.0
  0
LTYPE
  5
BCD28CE5C6CBBAD
330
BCD28CE5C6CBB9F
100
AcDbSymbolTableRecord
100
AcDbLinetypeTableRecord
  2
BYLAYER
 70
     0
  3

 72
    65
 73
     0
 40
0.0
  0
LTYPE
  5
BCD28CE5C6CBBAE
330
BCD28CE5C6CBB9F
100
AcDbSymbolTableRecord
100
AcDbLinetypeTableRecord
  2
CONTINUOUS
 70
     0
  3
Solid line
 72
    65
 73
     0
 40
0.0
  0
ENDTAB
  0
TABLE
  2
LAYER
  5
BCD28CE5C6CBB9C
330
0
100
AcDbSymbolTable
 70
     2
  0
LAYER
  5
BCD28CE5C6CBBA9
330
BCD28CE5C6CBB9C
100
AcDbSymbolTableRecord
100
AcDbLayerTableRecord
  2
0
 70
     0
 62
     7
  6
CONTINUOUS
  0
LAYER
  5
BCD28CE5C6CBBB9
330
BCD28CE5C6CBB9C
100
AcDbSymbolTableRecord
100
AcDbLayerTableRecord
  2
TEXT
 70
     0
 62
     3
  6
CONTINUOUS
  0
ENDTAB
  0
TABLE
  2
STYLE
  5
BCD28CE5C6CBB9D
330
0
100
AcDbSymbolTable
 70
     3
  0
STYLE
  5
BCD28CE5C6CBBAA
330
BCD28CE5C6CBB9D
100
AcDbSymbolTableRecord
100
AcDbTextStyleTableRecord
  2
STANDARD
 70
     0
 40
0.0
 41
1.0
 50
0.0
 71
     0
 42
0.3125
  3
txt
  4

  0
STYLE
  5
BCD28CE5C6CBBB6
330
BCD28CE5C6CBB9D
100
AcDbSymbolTableRecord
100
AcDbTextStyleTableRecord
  2
ITALICC
 70
     0
 40
0.0
 41
1.0
 50
0.0
 71
     0
 42
0.125
  3
italicc
  4

  0
STYLE
  5
BCD28CE5C6CBBC6
330
BCD28CE5C6CBB9D
100
AcDbSymbolTableRecord
100
AcDbTextStyleTableRecord
  2
ROMANS
 70
     0
 40
0.0
 41
1.0
 50
0.0
 71
     0
 42
0.125
  3
romans.shx
  4

  0
ENDTAB
  0
TABLE
  2
VIEW
  5
BCD28CE5C6CBBA0
330
0
100
AcDbSymbolTable
 70
     0
  0
ENDTAB
  0
TABLE
  2
UCS
  5
BCD28CE5C6CBBA1
330
0
100
AcDbSymbolTable
 70
     0
  0
ENDTAB
  0
TABLE
  2
APPID
  5
BCD28CE5C6CBBA3
330
0
100
AcDbSymbolTable
 70
     1
  0
APPID
  5
BCD28CE5C6CBBAB
330
BCD28CE5C6CBBA3
100
AcDbSymbolTableRecord
100
AcDbRegAppTableRecord
  2
ACAD
 70
     0
  0
ENDTAB
  0
TABLE
  2
DIMSTYLE
  5
BCD28CE5C6CBBA4
330
0
100
AcDbSymbolTable
 70
     1
  0
DIMSTYLE
105
BCD28CE5C6CBBBE
330
BCD28CE5C6CBBA4
100
AcDbSymbolTableRecord
100
AcDbDimStyleTableRecord
  2
STANDARD
 70
     0
  3

  4

  5

  6

  7

 40
1.0
 41
0.125
 42
0.125
 43
0.375
 44
0.125
 45
0.0
 46
0.0
 47
0.0
 48
0.0
140
0.125
141
-0.125
142
0.0
143
25.4
144
1.0
145
0.0
146
1.0
147
0.09
 71
     0
 72
     0
 73
     1
 74
     1
 75
     0
 76
     0
 77
     0
 78
     4
170
     0
171
     2
172
     0
173
     0
174
     1
175
     0
176
     0
177
     0
178
     0
270
     2
271
     3
272
     3
273
     2
274
     2
340
BCD28CE5C6CBBC6
275
     0
280
     0
281
     0
282
     0
283
     1
284
     4
285
     0
286
     0
287
     3
288
     0
  0
ENDTAB
  0
TABLE
  2
BLOCK_RECORD
  5
BCD28CE5C6CBB9B
330
0
100
AcDbSymbolTable
 70
     0
  0
BLOCK_RECORD
  5
BCD28CE5C6CBBB2
102
{ACAD_XDICTIONARY
360
BCD28CE5C6CBBF9
102
}
330
BCD28CE5C6CBB9B
100
AcDbSymbolTableRecord
100
AcDbBlockTableRecord
  2
*MODEL_SPACE
  0
BLOCK_RECORD
  5
BCD28CE5C6CBBAF
102
{ACAD_XDICTIONARY
360
BCD28CE5C6CBBF7
102
}
330
BCD28CE5C6CBB9B
100
AcDbSymbolTableRecord
100
AcDbBlockTableRecord
  2
*PAPER_SPACE
  0
ENDTAB
  0
ENDSEC
  0
SECTION
  2
BLOCKS
  0
BLOCK
  5
BCD28CE5C6CBBBC
330
BCD28CE5C6CBBB2
100
AcDbEntity
  8
0
100
AcDbBlockBegin
  2
*MODEL_SPACE
 70
     0
 10
0.0
 20
0.0
 30
0.0
  3
*MODEL_SPACE
  1

  0
ENDBLK
  5
BCD28CE5C6CBBBD
330
BCD28CE5C6CBBB2
100
AcDbEntity
  8
0
100
AcDbBlockEnd
  0
BLOCK
  5
BCD28CE5C6CBBBA
330
BCD28CE5C6CBBAF
100
AcDbEntity
 67
     1
  8
0
100
AcDbBlockBegin
  2
*PAPER_SPACE
 70
     0
 10
0.0
 20
0.0
 30
0.0
  3
*PAPER_SPACE
  1

  0
ENDBLK
  5
BCD28CE5C6CBBBB
330
BCD28CE5C6CBBAF
100
AcDbEntity
 67
     1
  8
0
100
AcDbBlockEnd
  0
ENDSEC
  0
SECTION
  2
ENTITIES
  0
LWPOLYLINE
  5
BCD28CE5C6CA7DA
330
BCD28CE5C6CBBB2
100
AcDbEntity
  8
0
100
AcDbPolyline
 90
       12
 70
     1
 43
0.0
 10
1.792682894658162
 20
1.842882926377233
 10
2.480182894658161
 20
1.842882926377233
 10
2.480182894658161
 20
1.967882926377233
 10
0.980182894658162
 20
1.967882926377233
 10
0.980182894658162
 20
1.842882926377233
 10
1.667682894658162
 20
1.842882926377233
 10
1.667682894658162
 20
1.592882926377233
 10
1.730182894658162
 20
1.592882926377233
 10
1.730182894658162
 20
0.9678829263772335
 10
1.667682894658162
 20
0.9678829263772335
 10
1.667682894658162
 20
0.8428829263772335
 10
1.792682894658162
 20
0.8428829263772335
  0
TEXT
  5
BCD28CE5C6CBA5D
330
BCD28CE5C6CBBB2
100
AcDbEntity
  8
TEXT
100
AcDbText
 10
0.9772067041819719
 20
0.5625843001173837
 30
0.0
 40
0.125
  1
PART #110298
  7
ITALICC
 72
     1
 11
1.730182894658162
 21
0.5625843001173837
 31
0.0
100
AcDbText
  0
TEXT
  5
BCD28CE5C6CBA5E
330
BCD28CE5C6CBBB2
100
AcDbEntity
  8
TEXT
100
AcDbText
 10
2.143488052908482
 20
0.1156616574450086
 30
0.0
 40
0.0522247191011236
  1
Phone  1-800-328-2495
 41
1.272321428571429
 72
     5
 11
3.472420637178146
 21
0.1156616574450086
 31
0.0
100
AcDbText
  0
TEXT
  5
BCD28CE5C6CBA5F
330
BCD28CE5C6CBBB2
100
AcDbEntity
  8
TEXT
100
AcDbText
 10
2.143488052908482
 20
0.395436938343885
 30
0.0
 40
0.0522247191011236
  1
Stylmark  Incorporated
 41
1.221428571428573
 72
     5
 11
3.472420637178146
 21
0.395436938343885
 31
0.0
100
AcDbText
  0
TEXT
  5
BCD28CE5C6CBA60
330
BCD28CE5C6CBBB2
100
AcDbEntity
  8
TEXT
100
AcDbText
 10
2.143488052908482
 20
0.3021785113775929
 30
0.0
 40
0.0522247191011236
  1
6536 Main St. N.E. * P.O. Box 32008
 41
0.8388932496075366
 72
     5
 11
3.472420637178146
 21
0.3021785113775929
 31
0.0
100
AcDbText
  0
TEXT
  5
BCD28CE5C6CBA61
330
BCD28CE5C6CBBB2
100
AcDbEntity
  8
TEXT
100
AcDbText
 10
2.143488052908482
 20
0.2089200844113007
 30
0.0
 40
0.0522247191011236
  1
Minneapolis, MN 55432-0008
 41
1.11444212721585
 72
     5
 11
3.472420637178146
 21
0.2089200844113007
 31
0.0
100
AcDbText
  0
LWPOLYLINE
  5
BCD28CE5C6CBA62
330
BCD28CE5C6CBBB2
100
AcDbEntity
  8
TEXT
100
AcDbPolyline
 90
        3
 70
     0
 43
0.0006660908203125
 10
-0.0124656391588249
 20
0.2293064200824434
 10
-0.0124656391588249
 20
0.1160709806293158
 10
0.1007698002942974
 20
0.1160709806293158
  0
LWPOLYLINE
  5
BCD28CE5C6CBA67
330
BCD28CE5C6CBBB2
100
AcDbEntity
  8
TEXT
100
AcDbPolyline
 90
        3
 70
     0
 43
0.0006660908203125
 10
0.0141779936536726
 20
0.2293064200824434
 10
0.0141779936536726
 20
0.1427146134418168
 10
0.1007698002942974
 20
0.1427146134418168
  0
LWPOLYLINE
  5
BCD28CE5C6CBA6C
330
BCD28CE5C6CBBB2
100
AcDbEntity
  8
TEXT
100
AcDbPolyline
 90
        2
 70
     0
 43
0.0001332181640625
 10
0.0608043510755494
 20
0.2392977823871286
 10
-0.0124656391588249
 20
0.2293064200824434
  0
LWPOLYLINE
  5
BCD28CE5C6CBA70
330
BCD28CE5C6CBBB2
100
AcDbEntity
  8
TEXT
100
AcDbPolyline
 90
        2
 70
     0
 43
0.0001332181640625
 10
0.0141779936536726
 20
0.2293064200824434
 10
0.0741261674817999
 20
0.2392977823871286
  0
LWPOLYLINE
  5
BCD28CE5C6CBA74
330
BCD28CE5C6CBBB2
100
AcDbEntity
  8
TEXT
100
AcDbPolyline
 90
        2
 70
     0
 43
0.0001332181640625
 10
0.0141779936536726
 20
0.1427146134418168
 10
0.0741261674817999
 20
0.2026627872699423
  0
LWPOLYLINE
  5
BCD28CE5C6CBA78
330
BCD28CE5C6CBBB2
100
AcDbEntity
  8
TEXT
100
AcDbPolyline
 90
        3
 70
     0
 43
0.0006660908203125
 10
0.1007698002942974
 20
0.382507308754319
 10
-0.0124656391588249
 20
0.382507308754319
 10
-0.0124656391588249
 20
0.2692718693011914
  0
LWPOLYLINE
  5
BCD28CE5C6CBA7D
330
BCD28CE5C6CBBB2
100
AcDbEntity
  8
TEXT
100
AcDbPolyline
 90
        3
 70
     0
 43
0.0006660908203125
 10
0.1007698002942974
 20
0.355863675941818
 10
0.0141779936536726
 20
0.355863675941818
 10
0.0141779936536726
 20
0.2692718693011914
  0
LWPOLYLINE
  5
BCD28CE5C6CBA82
330
BCD28CE5C6CBBB2
100
AcDbEntity
  8
TEXT
100
AcDbPolyline
 90
        2
 70
     0
 43
0.0001332181640625
 10
0.0141779936536726
 20
0.355863675941818
 10
0.0741261674817981
 20
0.2959155021136924
  0
LWPOLYLINE
  5
BCD28CE5C6CBA86
330
BCD28CE5C6CBBB2
100
AcDbEntity
  8
TEXT
100
AcDbPolyline
 90
        2
 70
     0
 43
0.0001332181640625
 10
0.0141779936536726
 20
0.2692718693011914
 10
0.0741261674817981
 20
0.2592805069965026
  0
LWPOLYLINE
  5
BCD28CE5C6CBA8A
330
BCD28CE5C6CBBB2
100
AcDbEntity
  8
TEXT
100
AcDbPolyline
 90
        2
 70
     0
 43
0.0001332181640625
 10
-0.0124656391588249
 20
0.2692718693011914
 10
0.0608043510755494
 20
0.2592805069965026
  0
LWPOLYLINE
  5
BCD28CE5C6CBA8E
330
BCD28CE5C6CBBB2
100
AcDbEntity
  8
TEXT
100
AcDbPolyline
 90
        2
 70
     0
 43
0.0006660908203125
 10
0.0141779936536726
 20
0.2293064200824434
 10
-0.0124656391588249
 20
0.2293064200824434
  0
LWPOLYLINE
  5
BCD28CE5C6CBA92
330
BCD28CE5C6CBBB2
100
AcDbEntity
  8
TEXT
100
AcDbPolyline
 90
        2
 70
     0
 43
0.0006660908203125
 10
0.0141779936536726
 20
0.2692718693011914
 10
-0.0124656391588249
 20
0.2692718693011914
  0
LINE
  5
BCD28CE5C6CBA96
330
BCD28CE5C6CBBB2
100
AcDbEntity
  8
TEXT
100
AcDbLine
 10
1.502724789967672
 20
0.31823061409755
 30
0.0
 11
1.395518516580383
 21
0.31823061409755
 31
0.0
  0
LINE
  5
BCD28CE5C6CBA97
330
BCD28CE5C6CBBB2
100
AcDbEntity
  8
TEXT
100
AcDbLine
 10
1.53175568831215
 20
0.3825073087543155
 30
0.0
 11
1.396923779095091
 21
0.3825073087543155
 31
0.0
  0
ARC
  5
BCD28CE5C6CBA98
330
BCD28CE5C6CBBB2
100
AcDbEntity
  8
TEXT
100
AcDbCircle
 10
1.456237875488408
 20
0.2132700594912992
 30
0.0
 40
0.0676855811441166
100
AcDbArc
 50
90.0
 51
153.7768192527749
  0
LWPOLYLINE
  5
BCD28CE5C6CBA99
330
BCD28CE5C6CBBB2
100
AcDbEntity
  8
TEXT
100
AcDbPolyline
 90
        2
 70
     0
 43
0.0
 10
1.394486021125573
 20
0.1595252207162426
 42
0.2901071551932823
 10
1.437561953993208
 20
0.1160342757658045
 42
5.328517124445801
  0
ARC
  5
BCD28CE5C6CBA9D
330
BCD28CE5C6CBBB2
100
AcDbEntity
  8
TEXT
100
AcDbCircle
 10
0.7511064978169231
 20
0.1758266671038543
 30
0.0
 40
0.0601160179737537
100
AcDbArc
 50
180.0000000000003
 51
264.0521544866073
  0
LINE
  5
BCD28CE5C6CBA9E
330
BCD28CE5C6CBBB2
100
AcDbEntity
  8
TEXT
100
AcDbLine
 10
0.7546218534424709
 20
0.4168952263484537
 30
0.0
 11
0.6945792485984639
 21
0.4168952263484537
 31
0.0
  0
ARC
  5
BCD28CE5C6CBA9F
330
BCD28CE5C6CBBB2
100
AcDbEntity
  8
TEXT
100
AcDbCircle
 10
0.5188474956999525
 20
0.3004198493078137
 30
0.0
 40
0.0820874594465043
100
AcDbArc
 50
90.0
 51
270.0
  0
LWPOLYLINE
  5
BCD28CE5C6CBAA0
330
BCD28CE5C6CBBB2
100
AcDbEntity
  8
TEXT
100
AcDbPolyline
 90
        2
 70
     0
 43
0.0001332181640625
 10
0.1107611625989879
 20
0.3092373185199394
 10
0.1007698002942974
 20
0.382507308754319
  0
LWPOLYLINE
  5
BCD28CE5C6CBAA4
330
BCD28CE5C6CBBB2
100
AcDbEntity
  8
TEXT
100
AcDbPolyline
 90
        2
 70
     0
 43
0.0001332181640625
 10
0.1007698002942974
 20
0.355863675941818
 10
0.1107611625989879
 20
0.2959155021136924
  0
LWPOLYLINE
  5
BCD28CE5C6CBAA8
330
BCD28CE5C6CBBB2
100
AcDbEntity
  8
TEXT
100
AcDbPolyline
 90
        3
 70
     0
 43
0.0006660908203125
 10
0.2539706889661748
 20
0.2692718693011914
 10
0.2539706889661748
 20
0.382507308754319
 10
0.1407352495130489
 20
0.382507308754319
  0
LWPOLYLINE
  5
BCD28CE5C6CBAAD
330
BCD28CE5C6CBBB2
100
AcDbEntity
  8
TEXT
100
AcDbPolyline
 90
        3
 70
     0
 43
0.0006660908203125
 10
0.2273270561536738
 20
0.2692718693011914
 10
0.2273270561536738
 20
0.355863675941818
 10
0.1407352495130489
 20
0.355863675941818
  0
LWPOLYLINE
  5
BCD28CE5C6CBAB2
330
BCD28CE5C6CBBB2
100
AcDbEntity
  8
TEXT
100
AcDbPolyline
 90
        2
 70
     0
 43
0.0001332181640625
 10
0.2273270561536738
 20
0.355863675941818
 10
0.16737888232555
 20
0.2959155021136924
  0
LWPOLYLINE
  5
BCD28CE5C6CBAB6
330
BCD28CE5C6CBBB2
100
AcDbEntity
  8
TEXT
100
AcDbPolyline
 90
        2
 70
     0
 43
0.0001332181640625
 10
0.1407352495130489
 20
0.355863675941818
 10
0.1307438872083602
 20
0.2959155021136924
  0
LWPOLYLINE
  5
BCD28CE5C6CBABA
330
BCD28CE5C6CBBB2
100
AcDbEntity
  8
TEXT
100
AcDbPolyline
 90
        2
 70
     0
 43
0.0001332181640625
 10
0.1407352495130489
 20
0.382507308754319
 10
0.1307438872083602
 20
0.3092373185199394
  0
LWPOLYLINE
  5
BCD28CE5C6CBABE
330
BCD28CE5C6CBBB2
100
AcDbEntity
  8
TEXT
100
AcDbPolyline
 90
        2
 70
     0
 43
0.0001332181640625
 10
0.1807006987317987
 20
0.2592805069965026
 10
0.2539706889661748
 20
0.2692718693011914
  0
LWPOLYLINE
  5
BCD28CE5C6CBAC2
330
BCD28CE5C6CBBB2
100
AcDbEntity
  8
TEXT
100
AcDbPolyline
 90
        2
 70
     0
 43
0.0001332181640625
 10
0.2273270561536738
 20
0.2692718693011914
 10
0.16737888232555
 20
0.2592805069965026
  0
LWPOLYLINE
  5
BCD28CE5C6CBAC6
330
BCD28CE5C6CBBB2
100
AcDbEntity
  8
TEXT
100
AcDbPolyline
 90
        2
 70
     0
 43
0.0001332181640625
 10
0.2539706889661748
 20
0.2293064200824434
 10
0.1807006987317987
 20
0.2392977823871286
  0
LWPOLYLINE
  5
BCD28CE5C6CBACA
330
BCD28CE5C6CBBB2
100
AcDbEntity
  8
TEXT
100
AcDbPolyline
 90
        2
 70
     0
 43
0.0001332181640625
 10
0.2273270561536738
 20
0.2293064200824434
 10
0.16737888232555
 20
0.2392977823871286
  0
LWPOLYLINE
  5
BCD28CE5C6CBACE
330
BCD28CE5C6CBBB2
100
AcDbEntity
  8
TEXT
100
AcDbPolyline
 90
        2
 70
     0
 43
0.0001332181640625
 10
0.2273270561536738
 20
0.1427146134418168
 10
0.16737888232555
 20
0.2026627872699423
  0
LWPOLYLINE
  5
BCD28CE5C6CBAD2
330
BCD28CE5C6CBBB2
100
AcDbEntity
  8
TEXT
100
AcDbPolyline
 90
        3
 70
     0
 43
0.0006660908203125
 10
0.1407352495130489
 20
0.1427146134418168
 10
0.2273270561536738
 20
0.1427146134418168
 10
0.2273270561536738
 20
0.2293064200824434
  0
LWPOLYLINE
  5
BCD28CE5C6CBAD7
330
BCD28CE5C6CBBB2
100
AcDbEntity
  8
TEXT
100
AcDbPolyline
 90
        3
 70
     0
 43
0.0006660908203125
 10
0.1407352495130489
 20
0.1160709806293158
 10
0.2539706889661748
 20
0.1160709806293158
 10
0.2539706889661748
 20
0.2293064200824434
  0
LWPOLYLINE
  5
BCD28CE5C6CBADC
330
BCD28CE5C6CBBB2
100
AcDbEntity
  8
TEXT
100
AcDbPolyline
 90
        5
 70
     0
 43
0.0001332181640625
 10
0.1107611625989879
 20
0.1893409708636918
 10
0.1107611625989879
 20
0.2026627872699423
 10
0.0741261674817999
 20
0.2026627872699423
 10
0.0741261674817999
 20
0.2392977823871286
 10
0.0608043510755494
 20
0.2392977823871286
  0
LWPOLYLINE
  5
BCD28CE5C6CBAE3
330
BCD28CE5C6CBBB2
100
AcDbEntity
  8
TEXT
100
AcDbPolyline
 90
        2
 70
     0
 43
0.0006660908203125
 10
0.1007698002942974
 20
0.1427146134418168
 10
0.1007698002942974
 20
0.1160709806293158
  0
LWPOLYLINE
  5
BCD28CE5C6CBAE7
330
BCD28CE5C6CBBB2
100
AcDbEntity
  8
TEXT
100
AcDbPolyline
 90
        2
 70
     0
 43
0.0001332181640625
 10
0.1007698002942974
 20
0.1427146134418168
 10
0.1107611625989879
 20
0.2026627872699423
  0
LWPOLYLINE
  5
BCD28CE5C6CBAEB
330
BCD28CE5C6CBBB2
100
AcDbEntity
  8
TEXT
100
AcDbPolyline
 90
        2
 70
     0
 43
0.0001332181640625
 10
0.1007698002942974
 20
0.1160709806293158
 10
0.1107611625989879
 20
0.1893409708636918
  0
LWPOLYLINE
  5
BCD28CE5C6CBAEF
330
BCD28CE5C6CBBB2
100
AcDbEntity
  8
TEXT
100
AcDbPolyline
 90
        5
 70
     0
 43
0.0001332181640625
 10
0.0608043510755494
 20
0.2592805069965026
 10
0.0741261674817981
 20
0.2592805069965026
 10
0.0741261674817981
 20
0.2959155021136924
 10
0.1107611625989879
 20
0.2959155021136924
 10
0.1107611625989879
 20
0.3092373185199394
  0
LWPOLYLINE
  5
BCD28CE5C6CBAF6
330
BCD28CE5C6CBBB2
100
AcDbEntity
  8
TEXT
100
AcDbPolyline
 90
        5
 70
     0
 43
0.0001332181640625
 10
0.1307438872083602
 20
0.3092373185199394
 10
0.1307438872083602
 20
0.2959155021136924
 10
0.16737888232555
 20
0.2959155021136924
 10
0.16737888232555
 20
0.2592805069965026
 10
0.1807006987317987
 20
0.2592805069965026
  0
LWPOLYLINE
  5
BCD28CE5C6CBAFD
330
BCD28CE5C6CBBB2
100
AcDbEntity
  8
TEXT
100
AcDbPolyline
 90
        2
 70
     0
 43
0.0001332181640625
 10
0.1407352495130489
 20
0.1427146134418168
 10
0.1307438872083602
 20
0.2026627872699423
  0
LWPOLYLINE
  5
BCD28CE5C6CBB01
330
BCD28CE5C6CBBB2
100
AcDbEntity
  8
TEXT
100
AcDbPolyline
 90
        2
 70
     0
 43
0.0001332181640625
 10
0.1307438872083602
 20
0.1893409708636918
 10
0.1407352495130489
 20
0.1160709806293158
  0
LWPOLYLINE
  5
BCD28CE5C6CBB05
330
BCD28CE5C6CBBB2
100
AcDbEntity
  8
TEXT
100
AcDbPolyline
 90
        2
 70
     0
 43
0.0006660908203125
 10
0.1407352495130489
 20
0.1427146134418168
 10
0.1407352495130489
 20
0.1160709806293158
  0
LWPOLYLINE
  5
BCD28CE5C6CBB09
330
BCD28CE5C6CBBB2
100
AcDbEntity
  8
TEXT
100
AcDbPolyline
 90
        5
 70
     0
 43
0.0001332181640625
 10
0.1807006987317987
 20
0.2392977823871286
 10
0.16737888232555
 20
0.2392977823871286
 10
0.16737888232555
 20
0.2026627872699423
 10
0.1307438872083602
 20
0.2026627872699423
 10
0.1307438872083602
 20
0.1893409708636918
  0
LWPOLYLINE
  5
BCD28CE5C6CBB10
330
BCD28CE5C6CBBB2
100
AcDbEntity
  8
TEXT
100
AcDbPolyline
 90
        2
 70
     0
 43
0.0006660908203125
 10
0.2273270561536738
 20
0.2692718693011914
 10
0.2539706889661748
 20
0.2692718693011914
  0
LWPOLYLINE
  5
BCD28CE5C6CBB14
330
BCD28CE5C6CBBB2
100
AcDbEntity
  8
TEXT
100
AcDbPolyline
 90
        2
 70
     0
 43
0.0006660908203125
 10
0.2273270561536738
 20
0.2293064200824434
 10
0.2539706889661748
 20
0.2293064200824434
  0
LINE
  5
BCD28CE5C6CBB18
330
BCD28CE5C6CBBB2
100
AcDbEntity
  8
TEXT
100
AcDbLine
 10
0.5240848258141997
 20
0.31823061409755
 30
0.0
 11
0.690990479843171
 21
0.31823061409755
 31
0.0
  0
LINE
  5
BCD28CE5C6CBB19
330
BCD28CE5C6CBBB2
100
AcDbEntity
  8
TEXT
100
AcDbLine
 10
0.5896849620585007
 20
0.2824258924869221
 30
0.0
 11
0.5240848258141997
 21
0.2824258924869221
 31
0.0
  0
LINE
  5
BCD28CE5C6CBB1A
330
BCD28CE5C6CBBB2
100
AcDbEntity
  8
TEXT
100
AcDbLine
 10
0.4367600362534481
 20
0.1160342757658045
 30
0.0
 11
0.5896849620585007
 21
0.1160342757658045
 31
0.0
  0
LINE
  5
BCD28CE5C6CBB1B
330
BCD28CE5C6CBBB2
100
AcDbEntity
  8
TEXT
100
AcDbLine
 10
0.5946253359647804
 20
0.1843912820992438
 30
0.0
 11
0.4367600362534463
 21
0.1843912820992438
 31
0.0
  0
LINE
  5
BCD28CE5C6CBB1C
330
BCD28CE5C6CBBB2
100
AcDbEntity
  8
TEXT
100
AcDbLine
 10
0.5188474956999516
 20
0.2183323898613084
 30
0.0
 11
0.5946253359647804
 21
0.2183323898613084
 31
0.0
  0
ARC
  5
BCD28CE5C6CBB1D
330
BCD28CE5C6CBBB2
100
AcDbEntity
  8
TEXT
100
AcDbCircle
 10
0.5240848258142006
 20
0.3003282532922379
 30
0.0
 40
0.017902360805315
100
AcDbArc
 50
90.0
 51
270.0
  0
LINE
  5
BCD28CE5C6CBB1E
330
BCD28CE5C6CBBB2
100
AcDbEntity
  8
TEXT
100
AcDbLine
 10
0.4367600362534463
 20
0.1843912820992438
 30
0.0
 11
0.4367600362534481
 21
0.1160342757658045
 31
0.0
  0
LINE
  5
BCD28CE5C6CBB1F
330
BCD28CE5C6CBBB2
100
AcDbEntity
  8
TEXT
100
AcDbLine
 10
0.690990479843171
 20
0.31823061409755
 30
0.0
 11
0.690990479843171
 21
0.1758266671038543
 31
0.0
  0
ARC
  5
BCD28CE5C6CBB20
330
BCD28CE5C6CBBB2
100
AcDbEntity
  8
TEXT
100
AcDbCircle
 10
0.5896849620585016
 20
0.1992300841263616
 30
0.0
 40
0.0831958083605586
100
AcDbArc
 50
270.0
 51
90.0
  0
ARC
  5
BCD28CE5C6CBB21
330
BCD28CE5C6CBBB2
100
AcDbEntity
  8
TEXT
100
AcDbCircle
 10
0.5946253359647813
 20
0.2013618359802779
 30
0.0
 40
0.0169705538810321
100
AcDbArc
 50
270.0
 51
90.0
  0
LWPOLYLINE
  5
BCD28CE5C6CBB22
330
BCD28CE5C6CBBB2
100
AcDbEntity
  8
TEXT
100
AcDbPolyline
 90
        2
 70
     0
 43
0.0006660908203125
 10
0.1007698002942974
 20
0.355863675941818
 10
0.1007698002942974
 20
0.382507308754319
  0
LWPOLYLINE
  5
BCD28CE5C6CBB26
330
BCD28CE5C6CBBB2
100
AcDbEntity
  8
TEXT
100
AcDbPolyline
 90
        2
 70
     0
 43
0.0006660908203125
 10
0.1407352495130489
 20
0.355863675941818
 10
0.1407352495130489
 20
0.382507308754319
  0
LINE
  5
BCD28CE5C6CBB2A
330
BCD28CE5C6CBBB2
100
AcDbEntity
  8
TEXT
100
AcDbLine
 10
0.6945792485984639
 20
0.3825073087543155
 30
0.0
 11
0.5188474956999516
 21
0.3825073087543155
 31
0.0
  0
LINE
  5
BCD28CE5C6CBB2B
330
BCD28CE5C6CBBB2
100
AcDbEntity
  8
TEXT
100
AcDbLine
 10
0.6945792485984639
 20
0.4168952263484537
 30
0.0
 11
0.6945792485984639
 21
0.3825073087543155
 31
0.0
  0
LINE
  5
BCD28CE5C6CBB2C
330
BCD28CE5C6CBBB2
100
AcDbEntity
  8
TEXT
100
AcDbLine
 10
0.885051140618316
 20
0.2816353126411949
 30
0.0
 11
0.8264208195863782
 21
0.3825073087543155
 31
0.0
  0
LINE
  5
BCD28CE5C6CBB2D
330
BCD28CE5C6CBBB2
100
AcDbEntity
  8
TEXT
100
AcDbLine
 10
0.9437997034241815
 20
0.3825073087543155
 30
0.0
 11
0.885051140618316
 21
0.2816353126411949
 31
0.0
  0
LINE
  5
BCD28CE5C6CBB2E
330
BCD28CE5C6CBBB2
100
AcDbEntity
  8
TEXT
100
AcDbLine
 10
1.040730328783922
 20
0.1984221138688037
 30
0.0
 11
1.040730328783922
 21
0.4505187864931261
 31
0.0
  0
LINE
  5
BCD28CE5C6CBB2F
330
BCD28CE5C6CBBB2
100
AcDbEntity
  8
TEXT
100
AcDbLine
 10
1.073042182921583
 20
0.3825073087543155
 30
0.0
 11
1.073042182921583
 21
0.1816431020219073
 31
0.0
  0
LINE
  5
BCD28CE5C6CBB30
330
BCD28CE5C6CBBB2
100
AcDbEntity
  8
TEXT
100
AcDbLine
 10
1.073042182921583
 20
0.1816431020219073
 30
0.0
 11
1.056048546036981
 21
0.1816431020219073
 31
0.0
  0
LINE
  5
BCD28CE5C6CBB31
330
BCD28CE5C6CBBB2
100
AcDbEntity
  8
TEXT
100
AcDbLine
 10
1.041869902280117
 20
0.1160342757658045
 30
0.0
 11
1.139873235979552
 21
0.1160342757658045
 31
0.0
  0
LINE
  5
BCD28CE5C6CBB32
330
BCD28CE5C6CBBB2
100
AcDbEntity
  8
TEXT
100
AcDbLine
 10
0.8754509036213617
 20
0.1359927818708174
 30
0.0
 11
0.9727506097148063
 21
0.3003429928060855
 31
0.0
  0
ARC
  5
BCD28CE5C6CBB33
330
BCD28CE5C6CBBB2
100
AcDbEntity
  8
TEXT
100
AcDbCircle
 10
0.8414073437091477
 20
0.1555819980395002
 30
0.0
 40
0.0392772371940762
100
AcDbArc
 50
270.1604552698595
 51
330.0831797321295
  0
LINE
  5
BCD28CE5C6CBB34
330
BCD28CE5C6CBBB2
100
AcDbEntity
  8
TEXT
100
AcDbLine
 10
0.7448770873232766
 20
0.1160342757658045
 30
0.0
 11
0.8415173383982709
 21
0.1163049148640868
 31
0.0
  0
LWPOLYLINE
  5
BCD28CE5C6CBB35
330
BCD28CE5C6CBBB2
100
AcDbEntity
  8
TEXT
100
AcDbPolyline
 90
        6
 70
     1
 43
0.0
 10
0.7874008908984262
 20
0.31823061409755
 10
0.7570842966782181
 20
0.31823061409755
 10
0.7570842966782181
 20
0.1951196160426557
 42
0.407328721240804
 10
0.7686279478396945
 20
0.1833007013662696
 10
0.8292496468844252
 20
0.1833007013662696
 10
0.8467149872917431
 20
0.2161129304097487
  0
LINE
  5
BCD28CE5C6CBB3D
330
BCD28CE5C6CBBB2
100
AcDbEntity
  8
TEXT
100
AcDbLine
 10
0.9727506097148063
 20
0.3003429928060855
 30
0.0
 11
0.9727506097148063
 21
0.1675856179807292
 31
0.0
  0
ARC
  5
BCD28CE5C6CBB3E
330
BCD28CE5C6CBBB2
100
AcDbEntity
  8
TEXT
100
AcDbCircle
 10
1.056048546036979
 20
0.1970249082653327
 30
0.0
 40
0.0153818062434269
100
AcDbArc
 50
174.7883570302258
 51
270.0
  0
LWPOLYLINE
  5
BCD28CE5C6CBB3F
330
BCD28CE5C6CBBB2
100
AcDbEntity
  8
TEXT
100
AcDbPolyline
 90
        2
 70
     0
 43
0.0
 10
0.9727506097148046
 20
0.1675856179807328
 42
0.3318488747599744
 10
1.041869902280117
 20
0.1160342757658045
 42
-6.868794160588311
  0
LINE
  5
BCD28CE5C6CBB43
330
BCD28CE5C6CBBB2
100
AcDbEntity
  8
TEXT
100
AcDbLine
 10
1.197262304968813
 20
0.1160342757658045
 30
0.0
 11
1.264320351750653
 21
0.1160342757658045
 31
0.0
  0
LINE
  5
BCD28CE5C6CBB44
330
BCD28CE5C6CBBB2
100
AcDbEntity
  8
TEXT
100
AcDbLine
 10
1.197262304968813
 20
0.3106768249314401
 30
0.0
 11
1.197262304968813
 21
0.1160342757658045
 31
0.0
  0
LINE
  5
BCD28CE5C6CBB45
330
BCD28CE5C6CBBB2
100
AcDbEntity
  8
TEXT
100
AcDbLine
 10
1.139873235979552
 20
0.31823061409755
 30
0.0
 11
1.189708515802699
 21
0.31823061409755
 31
0.0
  0
LINE
  5
BCD28CE5C6CBB46
330
BCD28CE5C6CBBB2
100
AcDbEntity
  8
TEXT
100
AcDbLine
 10
1.139873235979552
 20
0.1160342757658045
 30
0.0
 11
1.139873235979552
 21
0.31823061409755
 31
0.0
  0
LWPOLYLINE
  5
BCD28CE5C6CBB47
330
BCD28CE5C6CBBB2
100
AcDbEntity
  8
TEXT
100
AcDbPolyline
 90
        2
 70
     0
 43
0.0
 10
1.189708515802698
 20
0.31823061409755
 42
-0.4142135623731017
 10
1.197262304968811
 20
0.3106768249314401
 42
-0.9999999999999998
  0
LINE
  5
BCD28CE5C6CBB4B
330
BCD28CE5C6CBBB2
100
AcDbEntity
  8
TEXT
100
AcDbLine
 10
1.395518516580383
 20
0.31823061409755
 30
0.0
 11
1.395518516580383
 21
0.2431782080233434
 31
0.0
  0
LINE
  5
BCD28CE5C6CBB4C
330
BCD28CE5C6CBBB2
100
AcDbEntity
  8
TEXT
100
AcDbLine
 10
1.264320351750653
 20
0.31823061409755
 30
0.0
 11
1.318453948671603
 21
0.31823061409755
 31
0.0
  0
LINE
  5
BCD28CE5C6CBB4D
330
BCD28CE5C6CBBB2
100
AcDbEntity
  8
TEXT
100
AcDbLine
 10
1.264320351750653
 20
0.1160342757658045
 30
0.0
 11
1.264320351750653
 21
0.31823061409755
 31
0.0
  0
LWPOLYLINE
  5
BCD28CE5C6CBB4E
330
BCD28CE5C6CBBB2
100
AcDbEntity
  8
TEXT
100
AcDbPolyline
 90
        2
 70
     0
 43
0.0
 10
1.318453948671601
 20
0.31823061409755
 42
-0.4142135623731017
 10
1.326007737837715
 20
0.3106768249314401
 42
-0.9999999999999998
  0
LWPOLYLINE
  5
BCD28CE5C6CBB52
330
BCD28CE5C6CBBB2
100
AcDbEntity
  8
TEXT
100
AcDbPolyline
 90
        4
 70
     0
 43
0.0
 10
1.326007737837715
 20
0.3106768249314401
 10
1.326007737837715
 20
0.1160342757658045
 10
1.394486021125573
 20
0.1160342757658045
 10
1.394486021125573
 20
0.1595252207162426
 42
-1.714843617202739
  0
LINE
  5
BCD28CE5C6CBB58
330
BCD28CE5C6CBBB2
100
AcDbEntity
  8
TEXT
100
AcDbLine
 10
0.7546218534424709
 20
0.3825073087543155
 30
0.0
 11
0.7546218534424709
 21
0.4168952263484537
 31
0.0
  0
LINE
  5
BCD28CE5C6CBB59
330
BCD28CE5C6CBBB2
100
AcDbEntity
  8
TEXT
100
AcDbLine
 10
0.8264208195863782
 20
0.3825073087543155
 30
0.0
 11
0.7546218534424709
 21
0.3825073087543155
 31
0.0
  0
LINE
  5
BCD28CE5C6CBB5A
330
BCD28CE5C6CBBB2
100
AcDbEntity
  8
TEXT
100
AcDbLine
 10
0.9739216162175578
 20
0.3825073087543155
 30
0.0
 11
0.9437997034241815
 21
0.3825073087543155
 31
0.0
  0
LINE
  5
BCD28CE5C6CBB5B
330
BCD28CE5C6CBBB2
100
AcDbEntity
  8
TEXT
100
AcDbLine
 10
0.9739216162175578
 20
0.4505187864931261
 30
0.0
 11
0.9739216162175578
 21
0.3825073087543155
 31
0.0
  0
LINE
  5
BCD28CE5C6CBB5C
330
BCD28CE5C6CBBB2
100
AcDbEntity
  8
TEXT
100
AcDbLine
 10
1.040730328783922
 20
0.4505187864931261
 30
0.0
 11
0.9739216162175578
 21
0.4505187864931261
 31
0.0
  0
LWPOLYLINE
  5
BCD28CE5C6CBB5D
330
BCD28CE5C6CBBB2
100
AcDbEntity
  8
TEXT
100
AcDbPolyline
 90
        3
 70
     0
 43
0.0
 10
1.361142088381925
 20
0.382507308754319
 10
1.24284192956588
 20
0.382507308754319
 10
1.24284192956588
 20
0.3553398119934231
 42
-1.960274751411753
  0
LINE
  5
BCD28CE5C6CBB62
330
BCD28CE5C6CBBB2
100
AcDbEntity
  8
TEXT
100
AcDbLine
 10
1.207060238852719
 20
0.3825073087543155
 30
0.0
 11
1.073042182921583
 21
0.3825073087543155
 31
0.0
  0
LWPOLYLINE
  5
BCD28CE5C6CBB63
330
BCD28CE5C6CBBB2
100
AcDbEntity
  8
TEXT
100
AcDbPolyline
 90
        2
 70
     0
 43
0.0
 10
1.207060238852719
 20
0.382507308754319
 42
-0.3328679258950098
 10
1.24284192956588
 20
0.3553398119934231
 42
6.772930709997214
  0
LINE
  5
BCD28CE5C6CBB67
330
BCD28CE5C6CBBB2
100
AcDbEntity
  8
TEXT
100
AcDbLine
 10
1.396923779095091
 20
0.3825073087543155
 30
0.0
 11
1.396923779095091
 21
0.3541847629846716
 31
0.0
  0
LWPOLYLINE
  5
BCD28CE5C6CBB68
330
BCD28CE5C6CBBB2
100
AcDbEntity
  8
TEXT
100
AcDbPolyline
 90
        2
 70
     0
 43
0.0
 10
1.361142088381925
 20
0.382507308754319
 42
-0.3277054968067132
 10
1.39692377909509
 20
0.3541847629846751
 42
6.667889725900311
  0
LINE
  5
BCD28CE5C6CBB6C
330
BCD28CE5C6CBBB2
100
AcDbEntity
  8
TEXT
100
AcDbLine
 10
1.610715627187192
 20
0.2772953302008881
 30
0.0
 11
1.56696485600529
 21
0.3595456061970333
 31
0.0
  0
LINE
  5
BCD28CE5C6CBB6D
330
BCD28CE5C6CBBB2
100
AcDbEntity
  8
TEXT
100
AcDbLine
 10
1.610715627187192
 20
0.3825073087543155
 30
0.0
 11
1.610715627187192
 21
0.2772953302008881
 31
0.0
  0
LINE
  5
BCD28CE5C6CBB6E
330
BCD28CE5C6CBBB2
100
AcDbEntity
  8
TEXT
100
AcDbLine
 10
1.838399366125561
 20
0.3066419823427774
 30
0.0
 11
1.838399366125561
 21
0.4479715145219162
 31
0.0
  0
LINE
  5
BCD28CE5C6CBB6F
330
BCD28CE5C6CBBB2
100
AcDbEntity
  8
TEXT
100
AcDbLine
 10
1.885497524681545
 20
0.3825073087543155
 30
0.0
 11
1.838399366125561
 21
0.3066419823427774
 31
0.0
  0
LINE
  5
BCD28CE5C6CBB70
330
BCD28CE5C6CBBB2
100
AcDbEntity
  8
TEXT
100
AcDbLine
 10
1.895932241445468
 20
0.2726140658133419
 30
0.0
 11
1.960489357411173
 21
0.3825073087543155
 31
0.0
  0
LINE
  5
BCD28CE5C6CBB71
330
BCD28CE5C6CBBB2
100
AcDbEntity
  8
TEXT
100
AcDbLine
 10
1.774564374902787
 20
0.1160342757658045
 30
0.0
 11
1.838942559221408
 21
0.1160342757658045
 31
0.0
  0
LWPOLYLINE
  5
BCD28CE5C6CBB72
330
BCD28CE5C6CBBB2
100
AcDbEntity
  8
TEXT
100
AcDbPolyline
 90
        2
 70
     0
 43
0.0
 10
1.614655304492229
 20
0.1595252207162426
 42
-0.2901071551932486
 10
1.571579371624585
 20
0.1160342757658045
 42
-5.328517124445184
  0
ARC
  5
BCD28CE5C6CBB76
330
BCD28CE5C6CBBB2
100
AcDbEntity
  8
TEXT
100
AcDbCircle
 10
1.50272478996767
 20
0.2898712390975527
 30
0.0
 40
0.028359375
100
AcDbArc
 50
25.78218179591245
 51
90.0
  0
LINE
  5
BCD28CE5C6CBB77
330
BCD28CE5C6CBBB2
100
AcDbEntity
  8
TEXT
100
AcDbLine
 10
1.538525865271793
 20
0.2809556406354177
 30
0.0
 11
1.528261104858229
 21
0.302206180208112
 31
0.0
  0
LINE
  5
BCD28CE5C6CBB78
330
BCD28CE5C6CBBB2
100
AcDbEntity
  8
TEXT
100
AcDbLine
 10
1.45623787548841
 20
0.2809556406354177
 30
0.0
 11
1.538525865271793
 21
0.2809556406354177
 31
0.0
  0
LWPOLYLINE
  5
BCD28CE5C6CBB79
330
BCD28CE5C6CBBB2
100
AcDbEntity
  8
TEXT
100
AcDbPolyline
 90
        4
 70
     1
 43
0.0
 10
1.551456906554692
 20
0.2189982537498297
 10
1.462796587894834
 20
0.2189982537498297
 42
0.9999999999999998
 10
1.462796587894834
 20
0.176599713245969
 10
1.551456906554692
 20
0.176599713245969
 42
1.0
  0
LWPOLYLINE
  5
BCD28CE5C6CBB7F
330
BCD28CE5C6CBBB2
100
AcDbEntity
  8
TEXT
100
AcDbPolyline
 90
        2
 70
     0
 43
0.0
 10
1.437561953993208
 20
0.1160342757658045
 10
1.571579371624585
 20
0.1160342757658045
 42
0.9999999999999998
  0
LINE
  5
BCD28CE5C6CBB83
330
BCD28CE5C6CBBB2
100
AcDbEntity
  8
TEXT
100
AcDbLine
 10
1.697916393610224
 20
0.31823061409755
 30
0.0
 11
1.774564374902782
 21
0.31823061409755
 31
0.0
  0
LINE
  5
BCD28CE5C6CBB84
330
BCD28CE5C6CBBB2
100
AcDbEntity
  8
TEXT
100
AcDbLine
 10
1.774564374902782
 20
0.31823061409755
 30
0.0
 11
1.774564374902787
 21
0.1160342757658045
 31
0.0
  0
ARC
  5
BCD28CE5C6CBB85
330
BCD28CE5C6CBBB2
100
AcDbEntity
  8
TEXT
100
AcDbCircle
 10
1.697916393610223
 20
0.2933247388148873
 30
0.0
 40
0.0249058752826653
100
AcDbArc
 50
89.99971217465335
 51
179.9999999999985
  0
LINE
  5
BCD28CE5C6CBB86
330
BCD28CE5C6CBBB2
100
AcDbEntity
  8
TEXT
100
AcDbLine
 10
1.673010518327565
 20
0.1160342757658045
 30
0.0
 11
1.67301051832756
 21
0.2933247811972729
 31
0.0
  0
LWPOLYLINE
  5
BCD28CE5C6CBB87
330
BCD28CE5C6CBBB2
100
AcDbEntity
  8
TEXT
100
AcDbPolyline
 90
        2
 70
     0
 43
0.0
 10
1.614655304492229
 20
0.1160342757658045
 10
1.673010518327563
 20
0.1160342757658045
  0
LWPOLYLINE
  5
BCD28CE5C6CBB8B
330
BCD28CE5C6CBBB2
100
AcDbEntity
  8
TEXT
100
AcDbPolyline
 90
        2
 70
     0
 43
0.0
 10
1.614655304492229
 20
0.1595252207162426
 10
1.614655304492229
 20
0.1160342757658045
  0
LINE
  5
BCD28CE5C6CBB8F
330
BCD28CE5C6CBBB2
100
AcDbEntity
  8
TEXT
100
AcDbLine
 10
1.991424464809078
 20
0.1160342757658045
 30
0.0
 11
1.895932241445468
 21
0.2726140658133419
 31
0.0
  0
LINE
  5
BCD28CE5C6CBB90
330
BCD28CE5C6CBBB2
100
AcDbEntity
  8
TEXT
100
AcDbLine
 10
1.914846092432872
 20
0.1160342757658045
 30
0.0
 11
1.991424464809078
 21
0.1160342757658045
 31
0.0
  0
LINE
  5
BCD28CE5C6CBB91
330
BCD28CE5C6CBBB2
100
AcDbEntity
  8
TEXT
100
AcDbLine
 10
1.838942559221408
 20
0.2476138442419847
 30
0.0
 11
1.914846092432872
 21
0.1160342757658045
 31
0.0
  0
LINE
  5
BCD28CE5C6CBB92
330
BCD28CE5C6CBBB2
100
AcDbEntity
  8
TEXT
100
AcDbLine
 10
1.838942559221408
 20
0.1160342757658045
 30
0.0
 11
1.838942559221408
 21
0.2476138442419847
 31
0.0
  0
LINE
  5
BCD28CE5C6CBB93
330
BCD28CE5C6CBBB2
100
AcDbEntity
  8
TEXT
100
AcDbLine
 10
1.838399366125561
 20
0.4479715145219162
 30
0.0
 11
1.770084487576287
 21
0.4479715145219162
 31
0.0
  0
ARC
  5
BCD28CE5C6CBB94
330
BCD28CE5C6CBBB2
100
AcDbEntity
  8
TEXT
100
AcDbCircle
 10
1.529728748535081
 20
0.3409237416334131
 30
0.0
 40
0.0416329381542859
100
AcDbArc
 50
26.56974201007528
 51
87.20939649401342
  0
LINE
  5
BCD28CE5C6CBB95
330
BCD28CE5C6CBBB2
100
AcDbEntity
  8
TEXT
100
AcDbLine
 10
1.674612533486692
 20
0.3825073087543155
 30
0.0
 11
1.610715627187192
 21
0.3825073087543155
 31
0.0
  0
LINE
  5
BCD28CE5C6CBB96
330
BCD28CE5C6CBBB2
100
AcDbEntity
  8
TEXT
100
AcDbLine
 10
1.674612533486692
 20
0.3549596588934408
 30
0.0
 11
1.674612533486692
 21
0.3825073087543155
 31
0.0
  0
ARC
  5
BCD28CE5C6CBB97
330
BCD28CE5C6CBBB2
100
AcDbEntity
  8
TEXT
100
AcDbCircle
 10
1.7058053505498
 20
0.3512615814720506
 30
0.0
 40
0.0314112657011332
100
AcDbArc
 50
95.88484768694724
 51
173.2388340632136
  0
LINE
  5
BCD28CE5C6CBB98
330
BCD28CE5C6CBBB2
100
AcDbEntity
  8
TEXT
100
AcDbLine
 10
1.770084487576282
 20
0.3825073087543155
 30
0.0
 11
1.702584769926765
 21
0.3825073087543155
 31
0.0
  0
LINE
  5
BCD28CE5C6CBB99
330
BCD28CE5C6CBBB2
100
AcDbEntity
  8
TEXT
100
AcDbLine
 10
1.770084487576287
 20
0.4479715145219162
 30
0.0
 11
1.770084487576282
 21
0.3825073087543155
 31
0.0
  0
LINE
  5
BCD28CE5C6CBB9A
330
BCD28CE5C6CBBB2
100
AcDbEntity
  8
TEXT
100
AcDbLine
 10
1.960489357411173
 20
0.3825073087543155
 30
0.0
 11
1.885497524681547
 21
0.3825073087543155
 31
0.0
  0
ENDSEC
  0
SECTION
  2
OBJECTS
  0
DICTIONARY
  5
BCD28CE5C6CBBA6
330
0
100
AcDbDictionary
  3
ACAD_GROUP
350
BCD28CE5C6CBBA7
  3
ACAD_LAYOUT
350
BCD28CE5C6CBBCC
  3
ACAD_MLINESTYLE
350
BCD28CE5C6CBBA8
  3
ACAD_PLOTSETTINGS
350
BCD28CE5C6CBBCD
  3
ACAD_PLOTSTYLENAME
350
BCD28CE5C6CBBCA
  3
ACDBHEADERROUNDTRIPXREC
350
BCD28CE5C6CBBD7
  3
ACDBVARIABLEDICTIONARY
350
BCD28CE5C6CBBD4
  0
DICTIONARY
  5
BCD28CE5C6CBBF9
330
BCD28CE5C6CBBB2
100
AcDbDictionary
280
     1
  3
ACAD_LAYOUTSELFREF
360
BCD28CE5C6CBBFA
  0
DICTIONARY
  5
BCD28CE5C6CBBF7
330
BCD28CE5C6CBBAF
100
AcDbDictionary
280
     1
  3
ACAD_LAYOUTSELFREF
360
BCD28CE5C6CBBF8
  0
DICTIONARY
  5
BCD28CE5C6CBBA7
102
{ACAD_REACTORS
330
BCD28CE5C6CBBA6
102
}
330
BCD28CE5C6CBBA6
100
AcDbDictionary
  0
DICTIONARY
  5
BCD28CE5C6CBBCC
102
{ACAD_REACTORS
330
BCD28CE5C6CBBA6
102
}
330
BCD28CE5C6CBBA6
100
AcDbDictionary
  0
DICTIONARY
  5
BCD28CE5C6CBBA8
102
{ACAD_REACTORS
330
BCD28CE5C6CBBA6
102
}
330
BCD28CE5C6CBBA6
100
AcDbDictionary
  3
STANDARD
350
BCD28CE5C6CBBB5
  0
DICTIONARY
  5
BCD28CE5C6CBBCD
102
{ACAD_REACTORS
330
BCD28CE5C6CBBA6
102
}
330
BCD28CE5C6CBBA6
100
AcDbDictionary
  0
ACDBDICTIONARYWDFLT
  5
BCD28CE5C6CBBCA
102
{ACAD_REACTORS
330
BCD28CE5C6CBBA6
102
}
330
BCD28CE5C6CBBA6
100
AcDbDictionary
281
     1
  3
Normal
350
BCD28CE5C6CBBCB
100
AcDbDictionaryWithDefault
340
BCD28CE5C6CBBCB
  0
DICTIONARY
  5
BCD28CE5C6CBBD7
102
{ACAD_REACTORS
330
BCD28CE5C6CBBA6
102
}
330
BCD28CE5C6CBBA6
100
AcDbDictionary
  3
CEPSNTYPE
350
BCD28CE5C6CBBE1
  3
FINGERPRINTGUID
350
BCD28CE5C6CBBE2
  3
HYPERLINKBASE
350
BCD28CE5C6CBBDA
  3
INSUNITS
350
BCD28CE5C6CBBE0
  3
LAYOUTDICT
350
BCD28CE5C6CBBDC
  3
LWETCUNION
350
BCD28CE5C6CBBDF
  3
PLOTSETDICT
350
BCD28CE5C6CBBDD
  3
PLOTSTYLNAMDICT
350
BCD28CE5C6CBBDE
  3
PSVPSCALE
350
BCD28CE5C6CBBE4
  3
PUCSBASE
350
BCD28CE5C6CBBE7
  3
PUCSORGBACK
350
BCD28CE5C6CBBED
  3
PUCSORGBOTTOM
350
BCD28CE5C6CBBE9
  3
PUCSORGFRONT
350
BCD28CE5C6CBBEC
  3
PUCSORGLEFT
350
BCD28CE5C6CBBEA
  3
PUCSORGRIGHT
350
BCD28CE5C6CBBEB
  3
PUCSORGTOP
350
BCD28CE5C6CBBE8
  3
PUCSORTHOREF
350
BCD28CE5C6CBBE5
  3
PUCSORTHOVIEW
350
BCD28CE5C6CBBE6
  3
STYLESHEET
350
BCD28CE5C6CBBDB
  3
TSTACKALIGN
350
BCD28CE5C6CBBD8
  3
TSTACKSIZE
350
BCD28CE5C6CBBD9
  3
UCSBASE
350
BCD28CE5C6CBBF0
  3
UCSORGBACK
350
BCD28CE5C6CBBF6
  3
UCSORGBOTTOM
350
BCD28CE5C6CBBF2
  3
UCSORGFRONT
350
BCD28CE5C6CBBF5
  3
UCSORGLEFT
350
BCD28CE5C6CBBF3
  3
UCSORGRIGHT
350
BCD28CE5C6CBBF4
  3
UCSORGTOP
350
BCD28CE5C6CBBF1
  3
UCSORTHOREF
350
BCD28CE5C6CBBEE
  3
UCSORTHOVIEW
350
BCD28CE5C6CBBEF
  3
VERSIONGUID
350
BCD28CE5C6CBBE3
  0
DICTIONARY
  5
BCD28CE5C6CBBD4
102
{ACAD_REACTORS
330
BCD28CE5C6CBBA6
102
}
330
BCD28CE5C6CBBA6
100
AcDbDictionary
  3
DIMASSOC
350
BCD28CE5C6CBBD5
  0
XRECORD
  5
BCD28CE5C6CBBFA
102
{ACAD_REACTORS
330
BCD28CE5C6CBBF9
102
}
330
BCD28CE5C6CBBF9
100
AcDbXrecord
340
BCD28CE5C6CBBB2
  0
XRECORD
  5
BCD28CE5C6CBBF8
102
{ACAD_REACTORS
330
BCD28CE5C6CBBF7
102
}
330
BCD28CE5C6CBBF7
100
AcDbXrecord
340
BCD28CE5C6CBBAF
  0
MLINESTYLE
  5
BCD28CE5C6CBBB5
102
{ACAD_REACTORS
330
BCD28CE5C6CBBA8
102
}
330
BCD28CE5C6CBBA8
100
AcDbMlineStyle
  2
STANDARD
 70
     0
  3

 62
     0
 51
90.0
 52
90.0
 71
     2
 49
0.5
 62
   256
  6
BYLAYER
 49
-0.5
 62
   256
  6
BYLAYER
  0
ACDBPLACEHOLDER
  5
BCD28CE5C6CBBCB
102
{ACAD_REACTORS
330
BCD28CE5C6CBBCA
102
}
330
BCD28CE5C6CBBCA
100
AcDbPlaceHolder
280
     0
  0
XRECORD
  5
BCD28CE5C6CBBE1
102
{ACAD_REACTORS
330
BCD28CE5C6CBBD7
102
}
330
BCD28CE5C6CBBD7
100
AcDbXrecord
 90
        0
  0
XRECORD
  5
BCD28CE5C6CBBE2
102
{ACAD_REACTORS
330
BCD28CE5C6CBBD7
102
}
330
BCD28CE5C6CBBD7
100
AcDbXrecord
  1
{09F12AC0-8DB6-11D6-88E6-0090279574E7}
  0
XRECORD
  5
BCD28CE5C6CBBDA
102
{ACAD_REACTORS
330
BCD28CE5C6CBBD7
102
}
330
BCD28CE5C6CBBD7
100
AcDbXrecord
  1

  0
XRECORD
  5
BCD28CE5C6CBBE0
102
{ACAD_REACTORS
330
BCD28CE5C6CBBD7
102
}
330
BCD28CE5C6CBBD7
100
AcDbXrecord
 90
        0
  0
XRECORD
  5
BCD28CE5C6CBBDC
102
{ACAD_REACTORS
330
BCD28CE5C6CBBD7
102
}
330
BCD28CE5C6CBBD7
100
AcDbXrecord
340
BCD28CE5C6CBBCC
  0
XRECORD
  5
BCD28CE5C6CBBDF
102
{ACAD_REACTORS
330
BCD28CE5C6CBBD7
102
}
330
BCD28CE5C6CBBD7
100
AcDbXrecord
 90
    14877
  0
XRECORD
  5
BCD28CE5C6CBBDD
102
{ACAD_REACTORS
330
BCD28CE5C6CBBD7
102
}
330
BCD28CE5C6CBBD7
100
AcDbXrecord
340
BCD28CE5C6CBBCD
  0
XRECORD
  5
BCD28CE5C6CBBDE
102
{ACAD_REACTORS
330
BCD28CE5C6CBBD7
102
}
330
BCD28CE5C6CBBD7
100
AcDbXrecord
340
BCD28CE5C6CBBCA
  0
XRECORD
  5
BCD28CE5C6CBBE4
102
{ACAD_REACTORS
330
BCD28CE5C6CBBD7
102
}
330
BCD28CE5C6CBBD7
100
AcDbXrecord
 40
0.0
  0
XRECORD
  5
BCD28CE5C6CBBE7
102
{ACAD_REACTORS
330
BCD28CE5C6CBBD7
102
}
330
BCD28CE5C6CBBD7
100
AcDbXrecord
340
0
  0
XRECORD
  5
BCD28CE5C6CBBED
102
{ACAD_REACTORS
330
BCD28CE5C6CBBD7
102
}
330
BCD28CE5C6CBBD7
100
AcDbXrecord
 10
0.0
 20
0.0
 30
0.0
  0
XRECORD
  5
BCD28CE5C6CBBE9
102
{ACAD_REACTORS
330
BCD28CE5C6CBBD7
102
}
330
BCD28CE5C6CBBD7
100
AcDbXrecord
 10
0.0
 20
0.0
 30
0.0
  0
XRECORD
  5
BCD28CE5C6CBBEC
102
{ACAD_REACTORS
330
BCD28CE5C6CBBD7
102
}
330
BCD28CE5C6CBBD7
100
AcDbXrecord
 10
0.0
 20
0.0
 30
0.0
  0
XRECORD
  5
BCD28CE5C6CBBEA
102
{ACAD_REACTORS
330
BCD28CE5C6CBBD7
102
}
330
BCD28CE5C6CBBD7
100
AcDbXrecord
 10
0.0
 20
0.0
 30
0.0
  0
XRECORD
  5
BCD28CE5C6CBBEB
102
{ACAD_REACTORS
330
BCD28CE5C6CBBD7
102
}
330
BCD28CE5C6CBBD7
100
AcDbXrecord
 10
0.0
 20
0.0
 30
0.0
  0
XRECORD
  5
BCD28CE5C6CBBE8
102
{ACAD_REACTORS
330
BCD28CE5C6CBBD7
102
}
330
BCD28CE5C6CBBD7
100
AcDbXrecord
 10
0.0
 20
0.0
 30
0.0
  0
XRECORD
  5
BCD28CE5C6CBBE5
102
{ACAD_REACTORS
330
BCD28CE5C6CBBD7
102
}
330
BCD28CE5C6CBBD7
100
AcDbXrecord
340
0
  0
XRECORD
  5
BCD28CE5C6CBBE6
102
{ACAD_REACTORS
330
BCD28CE5C6CBBD7
102
}
330
BCD28CE5C6CBBD7
100
AcDbXrecord
 70
     0
  0
XRECORD
  5
BCD28CE5C6CBBDB
102
{ACAD_REACTORS
330
BCD28CE5C6CBBD7
102
}
330
BCD28CE5C6CBBD7
100
AcDbXrecord
  1

  0
XRECORD
  5
BCD28CE5C6CBBD8
102
{ACAD_REACTORS
330
BCD28CE5C6CBBD7
102
}
330
BCD28CE5C6CBBD7
100
AcDbXrecord
 90
        1
  0
XRECORD
  5
BCD28CE5C6CBBD9
102
{ACAD_REACTORS
330
BCD28CE5C6CBBD7
102
}
330
BCD28CE5C6CBBD7
100
AcDbXrecord
 90
       70
  0
XRECORD
  5
BCD28CE5C6CBBF0
102
{ACAD_REACTORS
330
BCD28CE5C6CBBD7
102
}
330
BCD28CE5C6CBBD7
100
AcDbXrecord
340
0
  0
XRECORD
  5
BCD28CE5C6CBBF6
102
{ACAD_REACTORS
330
BCD28CE5C6CBBD7
102
}
330
BCD28CE5C6CBBD7
100
AcDbXrecord
 10
0.0
 20
0.0
 30
0.0
  0
XRECORD
  5
BCD28CE5C6CBBF2
102
{ACAD_REACTORS
330
BCD28CE5C6CBBD7
102
}
330
BCD28CE5C6CBBD7
100
AcDbXrecord
 10
0.0
 20
0.0
 30
0.0
  0
XRECORD
  5
BCD28CE5C6CBBF5
102
{ACAD_REACTORS
330
BCD28CE5C6CBBD7
102
}
330
BCD28CE5C6CBBD7
100
AcDbXrecord
 10
0.0
 20
0.0
 30
0.0
  0
XRECORD
  5
BCD28CE5C6CBBF3
102
{ACAD_REACTORS
330
BCD28CE5C6CBBD7
102
}
330
BCD28CE5C6CBBD7
100
AcDbXrecord
 10
0.0
 20
0.0
 30
0.0
  0
XRECORD
  5
BCD28CE5C6CBBF4
102
{ACAD_REACTORS
330
BCD28CE5C6CBBD7
102
}
330
BCD28CE5C6CBBD7
100
AcDbXrecord
 10
0.0
 20
0.0
 30
0.0
  0
XRECORD
  5
BCD28CE5C6CBBF1
102
{ACAD_REACTORS
330
BCD28CE5C6CBBD7
102
}
330
BCD28CE5C6CBBD7
100
AcDbXrecord
 10
0.0
 20
0.0
 30
0.0
  0
XRECORD
  5
BCD28CE5C6CBBEE
102
{ACAD_REACTORS
330
BCD28CE5C6CBBD7
102
}
330
BCD28CE5C6CBBD7
100
AcDbXrecord
340
0
  0
XRECORD
  5
BCD28CE5C6CBBEF
102
{ACAD_REACTORS
330
BCD28CE5C6CBBD7
102
}
330
BCD28CE5C6CBBD7
100
AcDbXrecord
 70
     0
  0
XRECORD
  5
BCD28CE5C6CBBE3
102
{ACAD_REACTORS
330
BCD28CE5C6CBBD7
102
}
330
BCD28CE5C6CBBD7
100
AcDbXrecord
  1
{09F12AC2-8DB6-11D6-88E6-0090279574E7}
  0
DICTIONARYVAR
  5
BCD28CE5C6CBBD5
102
{ACAD_REACTORS
330
BCD28CE5C6CBBD4
102
}
330
BCD28CE5C6CBBD4
100
DictionaryVariables
280
     0
  1
1
  0
ENDSEC
  0
EOF
