  0
SECTION
  2
HEADER
  9
$ACADVER
  1
AC1014
  9
$ACADMAINTVER
 70
     9
  9
$DWGCODEPAGE
  3
ANSI_1252
  9
$INSBASE
 10
0.0
 20
0.0
 30
0.0
  9
$EXTMIN
 10
-0.6039340570262695
 20
1.726885657495593
 30
0.0
  9
$EXTMAX
 10
2.881285264720858
 20
2.797603971977093
 30
0.0
  9
$LIMMIN
 10
0.0
 20
0.0
  9
$LIMMAX
 10
11.0
 20
8.5
  9
$ORTHOMODE
 70
     1
  9
$REGENMODE
 70
     1
  9
$FILLMODE
 70
     1
  9
$QTEXTMODE
 70
     0
  9
$MIRRTEXT
 70
     0
  9
$DRAGMODE
 70
     2
  9
$LTSCALE
 40
1.0
  9
$OSMODE
 70
    39
  9
$ATTMODE
 70
     1
  9
$TEXTSIZE
 40
0.125
  9
$TRACEWID
 40
0.05
  9
$TEXTSTYLE
  7
ROMANS
  9
$CLAYER
  8
TEXT
  9
$CELTYPE
  6
BYLAYER
  9
$CECOLOR
 62
   256
  9
$CELTSCALE
 40
1.0
  9
$DELOBJ
 70
     1
  9
$DISPSILH
 70
     1
  9
$DIMSCALE
 40
1.0
  9
$DIMASZ
 40
0.125
  9
$DIMEXO
 40
0.125
  9
$DIMDLI
 40
0.375
  9
$DIMRND
 40
0.0
  9
$DIMDLE
 40
0.0
  9
$DIMEXE
 40
0.125
  9
$DIMTP
 40
0.0
  9
$DIMTM
 40
0.0
  9
$DIMTXT
 40
0.125
  9
$DIMCEN
 40
-0.125
  9
$DIMTSZ
 40
0.0
  9
$DIMTOL
 70
     0
  9
$DIMLIM
 70
     0
  9
$DIMTIH
 70
     1
  9
$DIMTOH
 70
     1
  9
$DIMSE1
 70
     0
  9
$DIMSE2
 70
     0
  9
$DIMTAD
 70
     0
  9
$DIMZIN
 70
     4
  9
$DIMBLK
  1

  9
$DIMASO
 70
     1
  9
$DIMSHO
 70
     1
  9
$DIMPOST
  1

  9
$DIMAPOST
  1

  9
$DIMALT
 70
     0
  9
$DIMALTD
 70
     2
  9
$DIMALTF
 40
25.4
  9
$DIMLFAC
 40
0.5
  9
$DIMTOFL
 70
     0
  9
$DIMTVP
 40
0.0
  9
$DIMTIX
 70
     1
  9
$DIMSOXD
 70
     0
  9
$DIMSAH
 70
     0
  9
$DIMBLK1
  1

  9
$DIMBLK2
  1

  9
$DIMSTYLE
  2
STANDARD
  9
$DIMCLRD
 70
     0
  9
$DIMCLRE
 70
     0
  9
$DIMCLRT
 70
     0
  9
$DIMTFAC
 40
1.0
  9
$DIMGAP
 40
0.09
  9
$DIMJUST
 70
     0
  9
$DIMSD1
 70
     0
  9
$DIMSD2
 70
     0
  9
$DIMTOLJ
 70
     1
  9
$DIMTZIN
 70
     4
  9
$DIMALTZ
 70
     0
  9
$DIMALTTZ
 70
     0
  9
$DIMFIT
 70
     3
  9
$DIMUPT
 70
     0
  9
$DIMUNIT
 70
     2
  9
$DIMDEC
 70
     3
  9
$DIMTDEC
 70
     3
  9
$DIMALTU
 70
     2
  9
$DIMALTTD
 70
     2
  9
$DIMTXSTY
  7
ROMANS
  9
$DIMAUNIT
 70
     0
  9
$LUNITS
 70
     2
  9
$LUPREC
 70
     3
  9
$SKETCHINC
 40
0.1
  9
$FILLETRAD
 40
0.03125
  9
$AUNITS
 70
     0
  9
$AUPREC
 70
     0
  9
$MENU
  1
ACAD
  9
$ELEVATION
 40
0.0
  9
$PELEVATION
 40
0.0
  9
$THICKNESS
 40
0.0
  9
$LIMCHECK
 70
     0
  9
$BLIPMODE
 70
     0
  9
$CHAMFERA
 40
0.0
  9
$CHAMFERB
 40
0.0
  9
$CHAMFERC
 40
0.0
  9
$CHAMFERD
 40
0.0
  9
$SKPOLY
 70
     0
  9
$TDCREATE
 40
2449496.400067361
  9
$TDUPDATE
 40
2452458.305544537
  9
$TDINDWG
 40
0.1891310069
  9
$TDUSRTIMER
 40
0.1891310069
  9
$USRTIMER
 70
     1
  9
$ANGBASE
 50
0.0
  9
$ANGDIR
 70
     0
  9
$PDMODE
 70
     0
  9
$PDSIZE
 40
0.0
  9
$PLINEWID
 40
0.0
  9
$COORDS
 70
     2
  9
$SPLFRAME
 70
     0
  9
$SPLINETYPE
 70
     6
  9
$SPLINESEGS
 70
     8
  9
$ATTDIA
 70
     0
  9
$ATTREQ
 70
     1
  9
$HANDLING
 70
 22529
  9
$HANDSEED
  5
B5D
  9
$SURFTAB1
 70
     6
  9
$SURFTAB2
 70
     6
  9
$SURFTYPE
 70
     6
  9
$SURFU
 70
     6
  9
$SURFV
 70
     6
  9
$UCSNAME
  2

  9
$UCSORG
 10
0.0
 20
0.0
 30
0.0
  9
$UCSXDIR
 10
1.0
 20
0.0
 30
0.0
  9
$UCSYDIR
 10
0.0
 20
1.0
 30
0.0
  9
$PUCSNAME
  2

  9
$PUCSORG
 10
0.0
 20
0.0
 30
0.0
  9
$PUCSXDIR
 10
1.0
 20
0.0
 30
0.0
  9
$PUCSYDIR
 10
0.0
 20
1.0
 30
0.0
  9
$USERI1
 70
     0
  9
$USERI2
 70
     0
  9
$USERI3
 70
     0
  9
$USERI4
 70
     0
  9
$USERI5
 70
     0
  9
$USERR1
 40
0.0
  9
$USERR2
 40
0.0
  9
$USERR3
 40
0.0
  9
$USERR4
 40
0.0
  9
$USERR5
 40
0.0
  9
$WORLDVIEW
 70
     1
  9
$SHADEDGE
 70
     3
  9
$SHADEDIF
 70
    70
  9
$TILEMODE
 70
     1
  9
$MAXACTVP
 70
    16
  9
$PINSBASE
 10
0.0
 20
0.0
 30
0.0
  9
$PLIMCHECK
 70
     0
  9
$PEXTMIN
 10
1.000000000000000E+20
 20
1.000000000000000E+20
 30
1.000000000000000E+20
  9
$PEXTMAX
 10
-1.000000000000000E+20
 20
-1.000000000000000E+20
 30
-1.000000000000000E+20
  9
$PLIMMIN
 10
0.0
 20
0.0
  9
$PLIMMAX
 10
12.0
 20
9.0
  9
$UNITMODE
 70
     0
  9
$VISRETAIN
 70
     0
  9
$PLINEGEN
 70
     1
  9
$PSLTSCALE
 70
     0
  9
$TREEDEPTH
 70
  3020
  9
$PICKSTYLE
 70
     1
  9
$CMLSTYLE
  2
STANDARD
  9
$CMLJUST
 70
     0
  9
$CMLSCALE
 40
1.0
  9
$PROXYGRAPHICS
 70
     1
  9
$MEASUREMENT
 70
     0
  0
ENDSEC
  0
SECTION
  2
CLASSES
  0
CLASS
  1
LWPOLYLINE
  2
AcDbPolyline
  3
AutoCAD 2000
 90
        0
280
     0
281
     1
  0
CLASS
  1
ACDBDICTIONARYWDFLT
  2
AcDbDictionaryWithDefault
  3
AutoCAD 2000
 90
        0
280
     0
281
     0
  0
CLASS
  1
ACDBPLACEHOLDER
  2
AcDbPlaceHolder
  3
AutoCAD 2000
 90
        0
280
     0
281
     0
  0
CLASS
  1
LAYOUT
  2
AcDbLayout
  3
AutoCAD 2000
 90
        0
280
     0
281
     0
  0
CLASS
  1
DICTIONARYVAR
  2
AcDbDictionaryVar
  3
AutoCAD 2000
 90
        0
280
     0
281
     0
  0
CLASS
  1
LONG_TRANSACTION
  2
AcDbLongTransaction
  3
AutoCAD 2000
 90
        0
280
     0
281
     0
  0
CLASS
  1
LWPOLYLINE
  2
AcDbPolyline
  3
AutoCAD 2000
 90
        0
280
     0
281
     1
  0
CLASS
  1
HATCH
  2
AcDbHatch
  3
AutoCAD 2000
 90
        0
280
     0
281
     1
  0
CLASS
  1
XRECORD
  2
AcDbXrecord
  3
AutoCAD 2000
 90
        0
280
     0
281
     0
  0
ENDSEC
  0
SECTION
  2
TABLES
  0
TABLE
  2
VPORT
  5
8
330
0
100
AcDbSymbolTable
 70
     2
  0
VPORT
  5
B38
330
8
100
AcDbSymbolTableRecord
100
AcDbViewportTableRecord
  2
*ACTIVE
 70
     0
 10
0.0
 20
0.0
 11
1.0
 21
1.0
 12
4.060606353031479
 22
2.262249949585351
 13
0.0
 23
0.0
 14
0.25
 24
0.25
 15
0.0
 25
0.0
 16
0.0
 26
0.0
 36
1.0
 17
0.0
 27
0.0
 37
0.0
 40
2.163700262220118
 41
4.320930232558139
 42
50.0
 43
0.0
 44
0.0
 50
0.0
 51
0.0
 71
     0
 72
  2000
 73
     1
 74
     1
 75
     0
 76
     0
 77
     0
 78
     0
  0
ENDTAB
  0
TABLE
  2
LTYPE
  5
5
330
0
100
AcDbSymbolTable
 70
     1
  0
LTYPE
  5
12
330
5
100
AcDbSymbolTableRecord
100
AcDbLinetypeTableRecord
  2
BYBLOCK
 70
     0
  3

 72
    65
 73
     0
 40
0.0
  0
LTYPE
  5
13
330
5
100
AcDbSymbolTableRecord
100
AcDbLinetypeTableRecord
  2
BYLAYER
 70
     0
  3

 72
    65
 73
     0
 40
0.0
  0
LTYPE
  5
14
330
5
100
AcDbSymbolTableRecord
100
AcDbLinetypeTableRecord
  2
CONTINUOUS
 70
     0
  3
Solid line
 72
    65
 73
     0
 40
0.0
  0
ENDTAB
  0
TABLE
  2
LAYER
  5
2
330
0
100
AcDbSymbolTable
 70
     2
  0
LAYER
  5
F
330
2
100
AcDbSymbolTableRecord
100
AcDbLayerTableRecord
  2
0
 70
     0
 62
     7
  6
CONTINUOUS
  0
LAYER
  5
2C
330
2
100
AcDbSymbolTableRecord
100
AcDbLayerTableRecord
  2
TEXT
 70
     0
 62
     3
  6
CONTINUOUS
  0
ENDTAB
  0
TABLE
  2
STYLE
  5
3
330
0
100
AcDbSymbolTable
 70
     3
  0
STYLE
  5
10
330
3
100
AcDbSymbolTableRecord
100
AcDbTextStyleTableRecord
  2
STANDARD
 70
     0
 40
0.0
 41
1.0
 50
0.0
 71
     0
 42
0.125
  3
txt
  4

  0
STYLE
  5
2B2
330
3
100
AcDbSymbolTableRecord
100
AcDbTextStyleTableRecord
  2
ROMANS
 70
     0
 40
0.0
 41
1.0
 50
0.0
 71
     0
 42
0.125
  3
romans.shx
  4

  0
STYLE
  5
A24
330
3
100
AcDbSymbolTableRecord
100
AcDbTextStyleTableRecord
  2
ITALICC
 70
     0
 40
0.0
 41
1.0
 50
0.0
 71
     0
 42
0.125
  3
italicc
  4

  0
ENDTAB
  0
TABLE
  2
VIEW
  5
6
330
0
100
AcDbSymbolTable
 70
     0
  0
ENDTAB
  0
TABLE
  2
UCS
  5
7
330
0
100
AcDbSymbolTable
 70
     0
  0
ENDTAB
  0
TABLE
  2
APPID
  5
9
330
0
100
AcDbSymbolTable
 70
     1
  0
APPID
  5
11
330
9
100
AcDbSymbolTableRecord
100
AcDbRegAppTableRecord
  2
ACAD
 70
     0
  0
ENDTAB
  0
TABLE
  2
DIMSTYLE
  5
A
330
0
100
AcDbSymbolTable
 70
     1
  0
DIMSTYLE
105
2A7
330
A
100
AcDbSymbolTableRecord
100
AcDbDimStyleTableRecord
  2
STANDARD
 70
     0
  3

  4

  5

  6

  7

 40
1.0
 41
0.125
 42
0.125
 43
0.375
 44
0.125
 45
0.0
 46
0.0
 47
0.0
 48
0.0
140
0.125
141
-0.125
142
0.0
143
25.4
144
0.5
145
0.0
146
1.0
147
0.09
 71
     0
 72
     0
 73
     1
 74
     1
 75
     0
 76
     0
 77
     0
 78
     4
170
     0
171
     2
172
     0
173
     0
174
     1
175
     0
176
     0
177
     0
178
     0
270
     2
271
     3
272
     3
273
     2
274
     2
340
2B2
275
     0
280
     0
281
     0
282
     0
283
     1
284
     4
285
     0
286
     0
287
     3
288
     0
  0
ENDTAB
  0
TABLE
  2
BLOCK_RECORD
  5
1
330
0
100
AcDbSymbolTable
 70
     0
  0
BLOCK_RECORD
  5
18
102
{ACAD_XDICTIONARY
360
B5B
102
}
330
1
100
AcDbSymbolTableRecord
100
AcDbBlockTableRecord
  2
*MODEL_SPACE
  0
BLOCK_RECORD
  5
15
102
{ACAD_XDICTIONARY
360
B59
102
}
330
1
100
AcDbSymbolTableRecord
100
AcDbBlockTableRecord
  2
*PAPER_SPACE
  0
ENDTAB
  0
ENDSEC
  0
SECTION
  2
BLOCKS
  0
BLOCK
  5
32
330
18
100
AcDbEntity
  8
0
100
AcDbBlockBegin
  2
*MODEL_SPACE
 70
     0
 10
0.0
 20
0.0
 30
0.0
  3
*MODEL_SPACE
  1

  0
ENDBLK
  5
33
330
18
100
AcDbEntity
  8
0
100
AcDbBlockEnd
  0
BLOCK
  5
30
330
15
100
AcDbEntity
 67
     1
  8
0
100
AcDbBlockBegin
  2
*PAPER_SPACE
 70
     0
 10
0.0
 20
0.0
 30
0.0
  3
*PAPER_SPACE
  1

  0
ENDBLK
  5
31
330
15
100
AcDbEntity
 67
     1
  8
0
100
AcDbBlockEnd
  0
ENDSEC
  0
SECTION
  2
ENTITIES
  0
LWPOLYLINE
  5
25F
330
18
100
AcDbEntity
  8
0
100
AcDbPolyline
 90
       33
 70
     0
 43
0.0
 10
1.685279825961822
 20
2.547603971977093
 42
1.000000009252119
 10
1.685279825727455
 20
2.597603971977093
 10
1.637229570490934
 20
2.597603971977093
 10
1.615793635096444
 20
2.677603971977093
 10
1.636529826075943
 20
2.677603971977093
 10
1.567247793773187
 20
2.797603971977093
 10
1.532529826075942
 20
2.797603971977093
 10
1.531875922984207
 20
2.797603971977093
 10
1.58546576147043
 20
2.597603971977093
 10
1.485683237920286
 20
2.597603971977093
 10
1.460279826075941
 20
2.641603971977093
 10
1.335279826075941
 20
2.641603971977093
 10
1.309876414231599
 20
2.597603971977093
 10
1.251529826075941
 20
2.597603971977093
 10
1.241529826075941
 20
2.587603971977093
 10
1.231529826075941
 20
2.597603971977093
 10
1.001529826075941
 20
2.597603971977093
 10
0.9915298260759417
 20
2.587603971977093
 10
0.9815298260759419
 20
2.597603971977093
 10
0.923183237920286
 20
2.597603971977093
 10
0.8977798260759417
 20
2.641603971977093
 10
0.7727798260759418
 20
2.641603971977093
 10
0.7473764142315993
 20
2.597603971977093
 10
0.6475938906814527
 20
2.597603971977093
 10
0.7011837291676777
 20
2.797603971977093
 10
0.7005298260759432
 20
2.797603971977093
 10
0.6658118583786959
 20
2.797603971977093
 10
0.5965298260759422
 20
2.677603971977093
 10
0.6172660170554387
 20
2.677603971977093
 10
0.5958300816609495
 20
2.597603971977093
 10
0.5477798264244296
 20
2.597603971977093
 42
1.000000009252119
 10
0.5477798261900606
 20
2.547603971977093
 10
1.685279826075941
 20
2.547603971977093
  0
TEXT
  5
AA9
330
18
100
AcDbEntity
  8
TEXT
100
AcDbText
 10
0.3830951412484926
 20
2.184904261578175
 30
0.0
 40
0.125
  1
PART #110297
  7
ITALICC
 72
     1
 11
1.139047522200873
 21
2.184904261578175
 31
0.0
100
AcDbText
  0
LINE
  5
AAA
330
18
100
AcDbEntity
  8
TEXT
100
AcDbLine
 10
1.106781021152936
 20
1.940550575558341
 30
0.0
 11
1.183429002445493
 21
1.940550575558341
 31
0.0
  0
LINE
  5
AAB
330
18
100
AcDbEntity
  8
TEXT
100
AcDbLine
 10
1.178949115118993
 20
2.004827270215106
 30
0.0
 11
1.111449397469477
 21
2.004827270215106
 31
0.0
  0
LWPOLYLINE
  5
AAC
330
18
100
AcDbEntity
  8
TEXT
100
AcDbPolyline
 90
        5
 70
     0
 43
0.0001332181640625
 10
-0.530331021381739
 20
1.881600468457294
 10
-0.5170092049754902
 20
1.881600468457294
 10
-0.5170092049754902
 20
1.918235463574483
 10
-0.4803742098583004
 20
1.918235463574483
 10
-0.4803742098583004
 20
1.93155727998073
  0
LWPOLYLINE
  5
AAD
330
18
100
AcDbEntity
  8
TEXT
100
AcDbPolyline
 90
        3
 70
     0
 43
0.0006660908203125
 10
-0.490365572162991
 20
1.978183637402609
 10
-0.5769573788036158
 20
1.978183637402609
 10
-0.5769573788036158
 20
1.891591830761982
  0
LWPOLYLINE
  5
AAE
330
18
100
AcDbEntity
  8
TEXT
100
AcDbPolyline
 90
        3
 70
     0
 43
0.0006660908203125
 10
-0.490365572162991
 20
2.00482727021511
 10
-0.6036010116161133
 20
2.00482727021511
 10
-0.6036010116161133
 20
1.891591830761982
  0
LWPOLYLINE
  5
AAF
330
18
100
AcDbEntity
  8
TEXT
100
AcDbPolyline
 90
        5
 70
     0
 43
0.0001332181640625
 10
-0.4803742098583004
 20
1.811660932324483
 10
-0.4803742098583004
 20
1.824982748730733
 10
-0.5170092049754885
 20
1.824982748730733
 10
-0.5170092049754885
 20
1.86161774384792
 10
-0.530331021381739
 20
1.86161774384792
  0
LWPOLYLINE
  5
AB0
330
18
100
AcDbEntity
  8
TEXT
100
AcDbPolyline
 90
        3
 70
     0
 43
0.0006660908203125
 10
-0.5769573788036158
 20
1.851626381543234
 10
-0.5769573788036158
 20
1.765034574902608
 10
-0.490365572162991
 20
1.765034574902608
  0
LWPOLYLINE
  5
AB1
330
18
100
AcDbEntity
  8
TEXT
100
AcDbPolyline
 90
        3
 70
     0
 43
0.0006660908203125
 10
-0.6036010116161133
 20
1.851626381543234
 10
-0.6036010116161133
 20
1.738390942090107
 10
-0.490365572162991
 20
1.738390942090107
  0
LWPOLYLINE
  5
AB2
330
18
100
AcDbEntity
  8
TEXT
100
AcDbPolyline
 90
        2
 70
     0
 43
0.0001332181640625
 10
-0.5769573788036158
 20
1.851626381543234
 10
-0.5170092049754885
 20
1.86161774384792
  0
LWPOLYLINE
  5
AB3
330
18
100
AcDbEntity
  8
TEXT
100
AcDbPolyline
 90
        2
 70
     0
 43
0.0001332181640625
 10
-0.530331021381739
 20
1.86161774384792
 10
-0.6036010116161133
 20
1.851626381543234
  0
LWPOLYLINE
  5
AB4
330
18
100
AcDbEntity
  8
TEXT
100
AcDbPolyline
 90
        2
 70
     0
 43
0.0006660908203125
 10
-0.5769573788036158
 20
1.851626381543234
 10
-0.6036010116161133
 20
1.851626381543234
  0
LWPOLYLINE
  5
AB5
330
18
100
AcDbEntity
  8
TEXT
100
AcDbPolyline
 90
        2
 70
     0
 43
0.0001332181640625
 10
-0.5769573788036158
 20
1.765034574902608
 10
-0.5170092049754885
 20
1.824982748730733
  0
LWPOLYLINE
  5
AB6
330
18
100
AcDbEntity
  8
TEXT
100
AcDbPolyline
 90
        2
 70
     0
 43
0.0006660908203125
 10
-0.5769573788036158
 20
1.891591830761982
 10
-0.6036010116161133
 20
1.891591830761982
  0
LWPOLYLINE
  5
AB7
330
18
100
AcDbEntity
  8
TEXT
100
AcDbPolyline
 90
        2
 70
     0
 43
0.0001332181640625
 10
-0.6036010116161133
 20
1.891591830761982
 10
-0.530331021381739
 20
1.881600468457294
  0
LWPOLYLINE
  5
AB8
330
18
100
AcDbEntity
  8
TEXT
100
AcDbPolyline
 90
        2
 70
     0
 43
0.0001332181640625
 10
-0.5769573788036158
 20
1.891591830761982
 10
-0.5170092049754902
 20
1.881600468457294
  0
LWPOLYLINE
  5
AB9
330
18
100
AcDbEntity
  8
TEXT
100
AcDbPolyline
 90
        2
 70
     0
 43
0.0001332181640625
 10
-0.5769573788036158
 20
1.978183637402609
 10
-0.5170092049754902
 20
1.918235463574483
  0
LWPOLYLINE
  5
ABA
330
18
100
AcDbEntity
  8
TEXT
100
AcDbPolyline
 90
        5
 70
     0
 43
0.0001332181640625
 10
-0.4104346737254896
 20
1.86161774384792
 10
-0.4237564901317384
 20
1.86161774384792
 10
-0.4237564901317384
 20
1.824982748730733
 10
-0.4603914852489282
 20
1.824982748730733
 10
-0.4603914852489282
 20
1.811660932324483
  0
LWPOLYLINE
  5
ABB
330
18
100
AcDbEntity
  8
TEXT
100
AcDbPolyline
 90
        2
 70
     0
 43
0.0001332181640625
 10
-0.3638083163036145
 20
1.851626381543234
 10
-0.4237564901317384
 20
1.86161774384792
  0
LWPOLYLINE
  5
ABC
330
18
100
AcDbEntity
  8
TEXT
100
AcDbPolyline
 90
        2
 70
     0
 43
0.0001332181640625
 10
-0.3371646834911135
 20
1.851626381543234
 10
-0.4104346737254896
 20
1.86161774384792
  0
LWPOLYLINE
  5
ABD
330
18
100
AcDbEntity
  8
TEXT
100
AcDbPolyline
 90
        3
 70
     0
 43
0.0006660908203125
 10
-0.4504001229442394
 20
1.738390942090107
 10
-0.3371646834911135
 20
1.738390942090107
 10
-0.3371646834911135
 20
1.851626381543234
  0
LWPOLYLINE
  5
ABE
330
18
100
AcDbEntity
  8
TEXT
100
AcDbPolyline
 90
        3
 70
     0
 43
0.0006660908203125
 10
-0.4504001229442394
 20
1.765034574902608
 10
-0.3638083163036145
 20
1.765034574902608
 10
-0.3638083163036145
 20
1.851626381543234
  0
LWPOLYLINE
  5
ABF
330
18
100
AcDbEntity
  8
TEXT
100
AcDbPolyline
 90
        2
 70
     0
 43
0.0001332181640625
 10
-0.3638083163036145
 20
1.765034574902608
 10
-0.4237564901317384
 20
1.824982748730733
  0
LWPOLYLINE
  5
AC0
330
18
100
AcDbEntity
  8
TEXT
100
AcDbPolyline
 90
        2
 70
     0
 43
0.0006660908203125
 10
-0.4504001229442394
 20
1.765034574902608
 10
-0.4504001229442394
 20
1.738390942090107
  0
LWPOLYLINE
  5
AC1
330
18
100
AcDbEntity
  8
TEXT
100
AcDbPolyline
 90
        2
 70
     0
 43
0.0001332181640625
 10
-0.4603914852489282
 20
1.811660932324483
 10
-0.4504001229442394
 20
1.738390942090107
  0
LWPOLYLINE
  5
AC2
330
18
100
AcDbEntity
  8
TEXT
100
AcDbPolyline
 90
        2
 70
     0
 43
0.0001332181640625
 10
-0.4504001229442394
 20
1.765034574902608
 10
-0.4603914852489282
 20
1.824982748730733
  0
LWPOLYLINE
  5
AC3
330
18
100
AcDbEntity
  8
TEXT
100
AcDbPolyline
 90
        2
 70
     0
 43
0.0001332181640625
 10
-0.490365572162991
 20
1.738390942090107
 10
-0.4803742098583004
 20
1.811660932324483
  0
LWPOLYLINE
  5
AC4
330
18
100
AcDbEntity
  8
TEXT
100
AcDbPolyline
 90
        2
 70
     0
 43
0.0001332181640625
 10
-0.490365572162991
 20
1.765034574902608
 10
-0.4803742098583004
 20
1.824982748730733
  0
LWPOLYLINE
  5
AC5
330
18
100
AcDbEntity
  8
TEXT
100
AcDbPolyline
 90
        2
 70
     0
 43
0.0006660908203125
 10
-0.490365572162991
 20
1.765034574902608
 10
-0.490365572162991
 20
1.738390942090107
  0
LWPOLYLINE
  5
AC6
330
18
100
AcDbEntity
  8
TEXT
100
AcDbPolyline
 90
        2
 70
     0
 43
0.0006660908203125
 10
-0.3638083163036145
 20
1.851626381543234
 10
-0.3371646834911135
 20
1.851626381543234
  0
LWPOLYLINE
  5
AC7
330
18
100
AcDbEntity
  8
TEXT
100
AcDbPolyline
 90
        2
 70
     0
 43
0.0001332181640625
 10
-0.3638083163036145
 20
1.978183637402609
 10
-0.4237564901317384
 20
1.918235463574483
  0
LWPOLYLINE
  5
AC8
330
18
100
AcDbEntity
  8
TEXT
100
AcDbPolyline
 90
        2
 70
     0
 43
0.0001332181640625
 10
-0.3638083163036145
 20
1.891591830761982
 10
-0.4237564901317384
 20
1.881600468457294
  0
LWPOLYLINE
  5
AC9
330
18
100
AcDbEntity
  8
TEXT
100
AcDbPolyline
 90
        2
 70
     0
 43
0.0001332181640625
 10
-0.4104346737254896
 20
1.881600468457294
 10
-0.3371646834911135
 20
1.891591830761982
  0
LWPOLYLINE
  5
ACA
330
18
100
AcDbEntity
  8
TEXT
100
AcDbPolyline
 90
        3
 70
     0
 43
0.0006660908203125
 10
-0.3638083163036145
 20
1.891591830761982
 10
-0.3638083163036145
 20
1.978183637402609
 10
-0.4504001229442394
 20
1.978183637402609
  0
LWPOLYLINE
  5
ACB
330
18
100
AcDbEntity
  8
TEXT
100
AcDbPolyline
 90
        3
 70
     0
 43
0.0006660908203125
 10
-0.3371646834911135
 20
1.891591830761982
 10
-0.3371646834911135
 20
2.00482727021511
 10
-0.4504001229442394
 20
2.00482727021511
  0
LWPOLYLINE
  5
ACC
330
18
100
AcDbEntity
  8
TEXT
100
AcDbPolyline
 90
        2
 70
     0
 43
0.0001332181640625
 10
-0.4504001229442394
 20
2.00482727021511
 10
-0.4603914852489282
 20
1.93155727998073
  0
LWPOLYLINE
  5
ACD
330
18
100
AcDbEntity
  8
TEXT
100
AcDbPolyline
 90
        2
 70
     0
 43
0.0001332181640625
 10
-0.4504001229442394
 20
1.978183637402609
 10
-0.4603914852489282
 20
1.918235463574483
  0
LWPOLYLINE
  5
ACE
330
18
100
AcDbEntity
  8
TEXT
100
AcDbPolyline
 90
        2
 70
     0
 43
0.0006660908203125
 10
-0.4504001229442394
 20
1.978183637402609
 10
-0.4504001229442394
 20
2.00482727021511
  0
LWPOLYLINE
  5
ACF
330
18
100
AcDbEntity
  8
TEXT
100
AcDbPolyline
 90
        5
 70
     0
 43
0.0001332181640625
 10
-0.4603914852489282
 20
1.93155727998073
 10
-0.4603914852489282
 20
1.918235463574483
 10
-0.4237564901317384
 20
1.918235463574483
 10
-0.4237564901317384
 20
1.881600468457294
 10
-0.4104346737254896
 20
1.881600468457294
  0
LWPOLYLINE
  5
AD0
330
18
100
AcDbEntity
  8
TEXT
100
AcDbPolyline
 90
        2
 70
     0
 43
0.0001332181640625
 10
-0.490365572162991
 20
1.978183637402609
 10
-0.4803742098583004
 20
1.918235463574483
  0
LWPOLYLINE
  5
AD1
330
18
100
AcDbEntity
  8
TEXT
100
AcDbPolyline
 90
        2
 70
     0
 43
0.0001332181640625
 10
-0.4803742098583004
 20
1.93155727998073
 10
-0.490365572162991
 20
2.00482727021511
  0
LWPOLYLINE
  5
AD2
330
18
100
AcDbEntity
  8
TEXT
100
AcDbPolyline
 90
        2
 70
     0
 43
0.0006660908203125
 10
-0.490365572162991
 20
1.978183637402609
 10
-0.490365572162991
 20
2.00482727021511
  0
LWPOLYLINE
  5
AD3
330
18
100
AcDbEntity
  8
TEXT
100
AcDbPolyline
 90
        2
 70
     0
 43
0.0006660908203125
 10
-0.3638083163036145
 20
1.891591830761982
 10
-0.3371646834911135
 20
1.891591830761982
  0
LWPOLYLINE
  5
AD4
330
18
100
AcDbEntity
  8
TEXT
100
AcDbPolyline
 90
        2
 70
     0
 43
0.0
 10
0.3816152372575168
 20
1.789905579441524
 42
0.3318488747599744
 10
0.4507345298228298
 20
1.738354237226595
 42
-6.868794160588311
  0
LINE
  5
AD5
330
18
100
AcDbEntity
  8
TEXT
100
AcDbLine
 10
0.4495949563266342
 20
2.072838747953917
 30
0.0
 11
0.3827862437602691
 21
2.072838747953917
 31
0.0
  0
LINE
  5
AD6
330
18
100
AcDbEntity
  8
TEXT
100
AcDbLine
 10
0.1034438761411751
 20
2.004827270215106
 30
0.0
 11
-0.0722878767573363
 21
2.004827270215106
 31
0.0
  0
ARC
  5
AD7
330
18
100
AcDbEntity
  8
TEXT
100
AcDbCircle
 10
-0.0014504103987867
 20
1.821550045587152
 30
0.0
 40
0.0831958083605586
100
AcDbArc
 50
270.0
 51
90.0
  0
LINE
  5
AD8
330
18
100
AcDbEntity
  8
TEXT
100
AcDbLine
 10
-0.0670505466430882
 20
1.940550575558341
 30
0.0
 11
0.0998551073858822
 21
1.940550575558341
 31
0.0
  0
LINE
  5
AD9
330
18
100
AcDbEntity
  8
TEXT
100
AcDbLine
 10
0.0034899635074925
 20
1.806711243560035
 30
0.0
 11
-0.1543753362038416
 21
1.806711243560035
 31
0.0
  0
LINE
  5
ADA
330
18
100
AcDbEntity
  8
TEXT
100
AcDbLine
 10
-0.1543753362038398
 20
1.738354237226595
 30
0.0
 11
-0.0014504103987871
 21
1.738354237226595
 31
0.0
  0
ARC
  5
ADB
330
18
100
AcDbEntity
  8
TEXT
100
AcDbCircle
 10
-0.0722878767573358
 20
1.922739810768605
 30
0.0
 40
0.0820874594465043
100
AcDbArc
 50
90.0
 51
270.0
  0
LINE
  5
ADC
330
18
100
AcDbEntity
  8
TEXT
100
AcDbLine
 10
-0.1543753362038416
 20
1.806711243560035
 30
0.0
 11
-0.1543753362038398
 21
1.738354237226595
 31
0.0
  0
LINE
  5
ADD
330
18
100
AcDbEntity
  8
TEXT
100
AcDbLine
 10
-0.0722878767573363
 20
1.840652351322099
 30
0.0
 11
0.0034899635074925
 21
1.840652351322099
 31
0.0
  0
ARC
  5
ADE
330
18
100
AcDbEntity
  8
TEXT
100
AcDbCircle
 10
0.003489963507493
 20
1.823681797441069
 30
0.0
 40
0.0169705538810321
100
AcDbArc
 50
270.0
 51
90.0
  0
LINE
  5
ADF
330
18
100
AcDbEntity
  8
TEXT
100
AcDbLine
 10
-0.0014504103987871
 20
1.904745853947713
 30
0.0
 11
-0.0670505466430882
 21
1.904745853947713
 31
0.0
  0
ARC
  5
AE0
330
18
100
AcDbEntity
  8
TEXT
100
AcDbCircle
 10
-0.0670505466430878
 20
1.922648214753029
 30
0.0
 40
0.017902360805315
100
AcDbArc
 50
90.0
 51
270.0
  0
LINE
  5
AE1
330
18
100
AcDbEntity
  8
TEXT
100
AcDbLine
 10
0.2939157681610274
 20
1.903955274101986
 30
0.0
 11
0.2352854471290895
 21
2.004827270215106
 31
0.0
  0
LINE
  5
AE2
330
18
100
AcDbEntity
  8
TEXT
100
AcDbLine
 10
0.1537417148659879
 20
1.738354237226595
 30
0.0
 11
0.2503819659409823
 21
1.738624876324878
 31
0.0
  0
LWPOLYLINE
  5
AE3
330
18
100
AcDbEntity
  8
TEXT
100
AcDbPolyline
 90
        6
 70
     1
 43
0.0
 10
0.1962655184411379
 20
1.940550575558341
 10
0.1659489242209298
 20
1.940550575558341
 10
0.1659489242209298
 20
1.817439577503447
 42
0.407328721240804
 10
0.1774925753824061
 20
1.805620662827061
 10
0.2381142744271369
 20
1.805620662827061
 10
0.2555796148344549
 20
1.83843289187054
  0
LINE
  5
AE4
330
18
100
AcDbEntity
  8
TEXT
100
AcDbLine
 10
0.0998551073858822
 20
1.940550575558341
 30
0.0
 11
0.0998551073858822
 21
1.798146628564645
 31
0.0
  0
ARC
  5
AE5
330
18
100
AcDbEntity
  8
TEXT
100
AcDbCircle
 10
0.1599711253596348
 20
1.798146628564645
 30
0.0
 40
0.0601160179737537
100
AcDbArc
 50
180.0000000000003
 51
264.0521544866073
  0
LINE
  5
AE6
330
18
100
AcDbEntity
  8
TEXT
100
AcDbLine
 10
0.1634864809851821
 20
2.039215187809245
 30
0.0
 11
0.1034438761411751
 21
2.039215187809245
 31
0.0
  0
LINE
  5
AE7
330
18
100
AcDbEntity
  8
TEXT
100
AcDbLine
 10
0.1034438761411751
 20
2.039215187809245
 30
0.0
 11
0.1034438761411751
 21
2.004827270215106
 31
0.0
  0
LINE
  5
AE8
330
18
100
AcDbEntity
  8
TEXT
100
AcDbLine
 10
0.1634864809851821
 20
2.004827270215106
 30
0.0
 11
0.1634864809851821
 21
2.039215187809245
 31
0.0
  0
LINE
  5
AE9
330
18
100
AcDbEntity
  8
TEXT
100
AcDbLine
 10
0.2352854471290895
 20
2.004827270215106
 30
0.0
 11
0.1634864809851821
 21
2.004827270215106
 31
0.0
  0
LINE
  5
AEA
330
18
100
AcDbEntity
  8
TEXT
100
AcDbLine
 10
0.284315531164073
 20
1.758312743331608
 30
0.0
 11
0.3816152372575177
 21
1.922662954266876
 31
0.0
  0
LINE
  5
AEB
330
18
100
AcDbEntity
  8
TEXT
100
AcDbLine
 10
0.3816152372575177
 20
1.922662954266876
 30
0.0
 11
0.3816152372575177
 21
1.78990557944152
 31
0.0
  0
ARC
  5
AEC
330
18
100
AcDbEntity
  8
TEXT
100
AcDbCircle
 10
0.2502719712518595
 20
1.777901959500291
 30
0.0
 40
0.0392772371940762
100
AcDbArc
 50
270.1604552698595
 51
330.0831797321295
  0
LINE
  5
AED
330
18
100
AcDbEntity
  8
TEXT
100
AcDbLine
 10
0.3526643309668929
 20
2.004827270215106
 30
0.0
 11
0.2939157681610274
 21
1.903955274101986
 31
0.0
  0
LINE
  5
AEE
330
18
100
AcDbEntity
  8
TEXT
100
AcDbLine
 10
0.3827862437602691
 20
2.072838747953917
 30
0.0
 11
0.3827862437602691
 21
2.004827270215106
 31
0.0
  0
LINE
  5
AEF
330
18
100
AcDbEntity
  8
TEXT
100
AcDbLine
 10
0.3827862437602691
 20
2.004827270215106
 30
0.0
 11
0.3526643309668929
 21
2.004827270215106
 31
0.0
  0
LWPOLYLINE
  5
AF0
330
18
100
AcDbEntity
  8
TEXT
100
AcDbPolyline
 90
        4
 70
     0
 43
0.0
 10
0.7348723653804275
 20
1.932996786392231
 10
0.7348723653804275
 20
1.738354237226595
 10
0.8033506486682853
 20
1.738354237226595
 10
0.8033506486682853
 20
1.781845182177034
 42
-1.714843617202739
  0
LWPOLYLINE
  5
AF1
330
18
100
AcDbEntity
  8
TEXT
100
AcDbPolyline
 90
        2
 70
     0
 43
0.0
 10
0.7700067159246374
 20
2.00482727021511
 42
-0.3277054968067132
 10
0.8057884066378022
 20
1.976504724445466
 42
6.667889725900311
  0
LWPOLYLINE
  5
AF2
330
18
100
AcDbEntity
  8
TEXT
100
AcDbPolyline
 90
        2
 70
     0
 43
0.0
 10
0.5985731433454103
 20
1.940550575558341
 42
-0.4142135623731017
 10
0.6061269325115238
 20
1.932996786392231
 42
-0.9999999999999998
  0
LINE
  5
AF3
330
18
100
AcDbEntity
  8
TEXT
100
AcDbLine
 10
0.6159248663954307
 20
2.004827270215106
 30
0.0
 11
0.4819068104642943
 21
2.004827270215106
 31
0.0
  0
LINE
  5
AF4
330
18
100
AcDbEntity
  8
TEXT
100
AcDbLine
 10
0.5487378635222635
 20
1.738354237226595
 30
0.0
 11
0.5487378635222635
 21
1.940550575558341
 31
0.0
  0
LINE
  5
AF5
330
18
100
AcDbEntity
  8
TEXT
100
AcDbLine
 10
0.4819068104642943
 20
2.004827270215106
 30
0.0
 11
0.4819068104642943
 21
1.803963063482698
 31
0.0
  0
LINE
  5
AF6
330
18
100
AcDbEntity
  8
TEXT
100
AcDbLine
 10
0.4495949563266342
 20
1.820742075329595
 30
0.0
 11
0.4495949563266342
 21
2.072838747953917
 31
0.0
  0
LINE
  5
AF7
330
18
100
AcDbEntity
  8
TEXT
100
AcDbLine
 10
0.4507345298228289
 20
1.738354237226595
 30
0.0
 11
0.5487378635222635
 21
1.738354237226595
 31
0.0
  0
LINE
  5
AF8
330
18
100
AcDbEntity
  8
TEXT
100
AcDbLine
 10
0.4819068104642943
 20
1.803963063482698
 30
0.0
 11
0.464913173579693
 21
1.803963063482698
 31
0.0
  0
ARC
  5
AF9
330
18
100
AcDbEntity
  8
TEXT
100
AcDbCircle
 10
0.4649131735796921
 20
1.819344869726124
 30
0.0
 40
0.0153818062434269
100
AcDbArc
 50
174.7883570302258
 51
270.0
  0
LINE
  5
AFA
330
18
100
AcDbEntity
  8
TEXT
100
AcDbLine
 10
0.5487378635222635
 20
1.940550575558341
 30
0.0
 11
0.5985731433454112
 21
1.940550575558341
 31
0.0
  0
LINE
  5
AFB
330
18
100
AcDbEntity
  8
TEXT
100
AcDbLine
 10
0.6061269325115246
 20
1.932996786392231
 30
0.0
 11
0.6061269325115246
 21
1.738354237226595
 31
0.0
  0
LINE
  5
AFC
330
18
100
AcDbEntity
  8
TEXT
100
AcDbLine
 10
0.6731849792933647
 20
1.738354237226595
 30
0.0
 11
0.6731849792933647
 21
1.940550575558341
 31
0.0
  0
LINE
  5
AFD
330
18
100
AcDbEntity
  8
TEXT
100
AcDbLine
 10
0.6061269325115246
 20
1.738354237226595
 30
0.0
 11
0.6731849792933647
 21
1.738354237226595
 31
0.0
  0
LWPOLYLINE
  5
AFE
330
18
100
AcDbEntity
  8
TEXT
100
AcDbPolyline
 90
        3
 70
     0
 43
0.0
 10
0.7700067159246374
 20
2.00482727021511
 10
0.651706557108593
 20
2.00482727021511
 10
0.651706557108593
 20
1.977659773454214
 42
-1.960274751411753
  0
LINE
  5
AFF
330
18
100
AcDbEntity
  8
TEXT
100
AcDbLine
 10
0.6731849792933647
 20
1.940550575558341
 30
0.0
 11
0.7273185762143149
 21
1.940550575558341
 31
0.0
  0
LWPOLYLINE
  5
B00
330
18
100
AcDbEntity
  8
TEXT
100
AcDbPolyline
 90
        2
 70
     0
 43
0.0
 10
0.6159248663954316
 20
2.00482727021511
 42
-0.3328679258950098
 10
0.651706557108593
 20
1.977659773454214
 42
6.772930709997214
  0
LWPOLYLINE
  5
B01
330
18
100
AcDbEntity
  8
TEXT
100
AcDbPolyline
 90
        2
 70
     0
 43
0.0
 10
0.727318576214314
 20
1.940550575558341
 42
-0.4142135623731017
 10
0.7348723653804275
 20
1.932996786392231
 42
-0.9999999999999998
  0
ARC
  5
B02
330
18
100
AcDbEntity
  8
TEXT
100
AcDbCircle
 10
0.9385933760777938
 20
1.963243703094204
 30
0.0
 40
0.0416329381542859
100
AcDbArc
 50
26.56974201007528
 51
87.20939649401342
  0
LWPOLYLINE
  5
B03
330
18
100
AcDbEntity
  8
TEXT
100
AcDbPolyline
 90
        2
 70
     0
 43
0.0
 10
0.8464265815359208
 20
1.738354237226595
 10
0.9804439991672975
 20
1.738354237226595
 42
0.9999999999999998
  0
LWPOLYLINE
  5
B04
330
18
100
AcDbEntity
  8
TEXT
100
AcDbPolyline
 90
        4
 70
     1
 43
0.0
 10
0.9603215340974049
 20
1.841318215210621
 10
0.8716612154375464
 20
1.841318215210621
 42
0.9999999999999998
 10
0.8716612154375464
 20
1.79891967470676
 10
0.9603215340974049
 20
1.79891967470676
 42
1.0
  0
LWPOLYLINE
  5
B05
330
18
100
AcDbEntity
  8
TEXT
100
AcDbPolyline
 90
        2
 70
     0
 43
0.0
 10
0.8033506486682853
 20
1.781845182177034
 42
0.2901071551932823
 10
0.8464265815359208
 20
1.738354237226595
 42
5.328517124445801
  0
LINE
  5
B06
330
18
100
AcDbEntity
  8
TEXT
100
AcDbLine
 10
0.9406203158548622
 20
2.004827270215106
 30
0.0
 11
0.8057884066378031
 21
2.004827270215106
 31
0.0
  0
LINE
  5
B07
330
18
100
AcDbEntity
  8
TEXT
100
AcDbLine
 10
0.8651025030311219
 20
1.903275602096209
 30
0.0
 11
0.9473904928145051
 21
1.903275602096209
 31
0.0
  0
LINE
  5
B08
330
18
100
AcDbEntity
  8
TEXT
100
AcDbLine
 10
0.9115894175103838
 20
1.940550575558341
 30
0.0
 11
0.8043831441230944
 21
1.940550575558341
 31
0.0
  0
LINE
  5
B09
330
18
100
AcDbEntity
  8
TEXT
100
AcDbLine
 10
0.8057884066378031
 20
2.004827270215106
 30
0.0
 11
0.8057884066378031
 21
1.976504724445462
 31
0.0
  0
ARC
  5
B0A
330
18
100
AcDbEntity
  8
TEXT
100
AcDbCircle
 10
0.865102503031121
 20
1.83559002095209
 30
0.0
 40
0.0676855811441166
100
AcDbArc
 50
90.0
 51
153.7768192527749
  0
LINE
  5
B0B
330
18
100
AcDbEntity
  8
TEXT
100
AcDbLine
 10
0.8043831441230944
 20
1.940550575558341
 30
0.0
 11
0.8043831441230944
 21
1.865498169484134
 31
0.0
  0
LINE
  5
B0C
330
18
100
AcDbEntity
  8
TEXT
100
AcDbLine
 10
0.9473904928145051
 20
1.903275602096209
 30
0.0
 11
0.9371257324009407
 21
1.924526141668903
 31
0.0
  0
ARC
  5
B0D
330
18
100
AcDbEntity
  8
TEXT
100
AcDbCircle
 10
0.9115894175103829
 20
1.912191200558344
 30
0.0
 40
0.028359375
100
AcDbArc
 50
25.78218179591245
 51
90.0
  0
LINE
  5
B0E
330
18
100
AcDbEntity
  8
TEXT
100
AcDbLine
 10
1.081875145870276
 20
1.738354237226595
 30
0.0
 11
1.081875145870271
 21
1.915644742658064
 31
0.0
  0
LWPOLYLINE
  5
B0F
330
18
100
AcDbEntity
  8
TEXT
100
AcDbPolyline
 90
        2
 70
     0
 43
0.0
 10
1.023519932034941
 20
1.738354237226595
 10
1.081875145870276
 20
1.738354237226595
  0
LWPOLYLINE
  5
B10
330
18
100
AcDbEntity
  8
TEXT
100
AcDbPolyline
 90
        2
 70
     0
 43
0.0
 10
1.023519932034941
 20
1.781845182177034
 42
-0.2901071551932486
 10
0.9804439991672975
 20
1.738354237226595
 42
-5.328517124445184
  0
LWPOLYLINE
  5
B11
330
18
100
AcDbEntity
  8
TEXT
100
AcDbPolyline
 90
        2
 70
     0
 43
0.0
 10
1.023519932034941
 20
1.781845182177034
 10
1.023519932034941
 20
1.738354237226595
  0
LINE
  5
B12
330
18
100
AcDbEntity
  8
TEXT
100
AcDbLine
 10
1.083477161029404
 20
2.004827270215106
 30
0.0
 11
1.019580254729903
 21
2.004827270215106
 31
0.0
  0
LINE
  5
B13
330
18
100
AcDbEntity
  8
TEXT
100
AcDbLine
 10
1.019580254729903
 20
2.004827270215106
 30
0.0
 11
1.019580254729903
 21
1.899615291661679
 31
0.0
  0
LINE
  5
B14
330
18
100
AcDbEntity
  8
TEXT
100
AcDbLine
 10
1.019580254729903
 20
1.899615291661679
 30
0.0
 11
0.9758294835480016
 21
1.981865567657824
 31
0.0
  0
ARC
  5
B15
330
18
100
AcDbEntity
  8
TEXT
100
AcDbCircle
 10
1.106781021152935
 20
1.915644700275678
 30
0.0
 40
0.0249058752826653
100
AcDbArc
 50
89.99971217465335
 51
179.9999999999985
  0
ARC
  5
B16
330
18
100
AcDbEntity
  8
TEXT
100
AcDbCircle
 10
1.114669978092512
 20
1.973581542932842
 30
0.0
 40
0.0314112657011332
100
AcDbArc
 50
95.88484768694724
 51
173.2388340632136
  0
LINE
  5
B17
330
18
100
AcDbEntity
  8
TEXT
100
AcDbLine
 10
1.083477161029404
 20
1.977279620354232
 30
0.0
 11
1.083477161029404
 21
2.004827270215106
 31
0.0
  0
TEXT
  5
B18
330
18
100
AcDbEntity
  8
TEXT
100
AcDbText
 10
1.552352680451194
 20
1.831240045872092
 30
0.0
 40
0.0522247191011236
  1
Minneapolis, MN 55432-0008
 41
1.11444212721585
 72
     5
 11
2.881285264720858
 21
1.831240045872092
 31
0.0
100
AcDbText
  0
TEXT
  5
B19
330
18
100
AcDbEntity
  8
TEXT
100
AcDbText
 10
1.552352680451194
 20
1.924498472838384
 30
0.0
 40
0.0522247191011236
  1
6536 Main St. N.E. * P.O. Box 32008
 41
0.8388932496075369
 72
     5
 11
2.881285264720858
 21
1.924498472838384
 31
0.0
100
AcDbText
  0
TEXT
  5
B1A
330
18
100
AcDbEntity
  8
TEXT
100
AcDbText
 10
1.552352680451194
 20
2.017756899804676
 30
0.0
 40
0.0522247191011236
  1
Stylmark  Incorporated
 41
1.221428571428571
 72
     5
 11
2.881285264720858
 21
2.017756899804676
 31
0.0
100
AcDbText
  0
TEXT
  5
B1B
330
18
100
AcDbEntity
  8
TEXT
100
AcDbText
 10
1.552352680451194
 20
1.737981618905799
 30
0.0
 40
0.0522247191011236
  1
Phone  1-800-328-2495
 41
1.272321428571429
 72
     5
 11
2.881285264720858
 21
1.737981618905799
 31
0.0
100
AcDbText
  0
LINE
  5
B1C
330
18
100
AcDbEntity
  8
TEXT
100
AcDbLine
 10
1.304796868988179
 20
1.894934027274133
 30
0.0
 11
1.369353984953884
 21
2.004827270215106
 31
0.0
  0
LINE
  5
B1D
330
18
100
AcDbEntity
  8
TEXT
100
AcDbLine
 10
1.369353984953884
 20
2.004827270215106
 30
0.0
 11
1.294362152224258
 21
2.004827270215106
 31
0.0
  0
LINE
  5
B1E
330
18
100
AcDbEntity
  8
TEXT
100
AcDbLine
 10
1.323710719975584
 20
1.738354237226595
 30
0.0
 11
1.40028909235179
 21
1.738354237226595
 31
0.0
  0
LINE
  5
B1F
330
18
100
AcDbEntity
  8
TEXT
100
AcDbLine
 10
1.40028909235179
 20
1.738354237226595
 30
0.0
 11
1.304796868988179
 21
1.894934027274133
 31
0.0
  0
LINE
  5
B20
330
18
100
AcDbEntity
  8
TEXT
100
AcDbLine
 10
1.247807186764119
 20
1.738354237226595
 30
0.0
 11
1.247807186764119
 21
1.869933805702776
 31
0.0
  0
LINE
  5
B21
330
18
100
AcDbEntity
  8
TEXT
100
AcDbLine
 10
1.247807186764119
 20
1.869933805702776
 30
0.0
 11
1.323710719975584
 21
1.738354237226595
 31
0.0
  0
LINE
  5
B22
330
18
100
AcDbEntity
  8
TEXT
100
AcDbLine
 10
1.183429002445493
 20
1.940550575558341
 30
0.0
 11
1.183429002445499
 21
1.738354237226595
 31
0.0
  0
LINE
  5
B23
330
18
100
AcDbEntity
  8
TEXT
100
AcDbLine
 10
1.183429002445499
 20
1.738354237226595
 30
0.0
 11
1.247807186764119
 21
1.738354237226595
 31
0.0
  0
LINE
  5
B24
330
18
100
AcDbEntity
  8
TEXT
100
AcDbLine
 10
1.247263993668272
 20
2.070291475982707
 30
0.0
 11
1.178949115118999
 21
2.070291475982707
 31
0.0
  0
LINE
  5
B25
330
18
100
AcDbEntity
  8
TEXT
100
AcDbLine
 10
1.178949115118999
 20
2.070291475982707
 30
0.0
 11
1.178949115118993
 21
2.004827270215106
 31
0.0
  0
LINE
  5
B26
330
18
100
AcDbEntity
  8
TEXT
100
AcDbLine
 10
1.294362152224256
 20
2.004827270215106
 30
0.0
 11
1.247263993668272
 21
1.928961943803568
 31
0.0
  0
LINE
  5
B27
330
18
100
AcDbEntity
  8
TEXT
100
AcDbLine
 10
1.247263993668272
 20
1.928961943803568
 30
0.0
 11
1.247263993668272
 21
2.070291475982707
 31
0.0
  0
ENDSEC
  0
SECTION
  2
OBJECTS
  0
DICTIONARY
  5
C
330
0
100
AcDbDictionary
  3
ACAD_GROUP
350
D
  3
ACAD_LAYOUT
350
B2E
  3
ACAD_MLINESTYLE
350
E
  3
ACAD_PLOTSETTINGS
350
B2F
  3
ACAD_PLOTSTYLENAME
350
B2C
  3
ACDBHEADERROUNDTRIPXREC
350
B39
  3
ACDBVARIABLEDICTIONARY
350
B36
  0
DICTIONARY
  5
B5B
330
18
100
AcDbDictionary
280
     1
  3
ACAD_LAYOUTSELFREF
360
B5C
  0
DICTIONARY
  5
B59
330
15
100
AcDbDictionary
280
     1
  3
ACAD_LAYOUTSELFREF
360
B5A
  0
DICTIONARY
  5
D
102
{ACAD_REACTORS
330
C
102
}
330
C
100
AcDbDictionary
  3
*A1
350
2B4
  3
*A2
350
61F
  3
*A3
350
62D
  3
*A4
350
996
  0
DICTIONARY
  5
B2E
102
{ACAD_REACTORS
330
C
102
}
330
C
100
AcDbDictionary
  0
DICTIONARY
  5
E
102
{ACAD_REACTORS
330
C
102
}
330
C
100
AcDbDictionary
  3
STANDARD
350
1B
  0
DICTIONARY
  5
B2F
102
{ACAD_REACTORS
330
C
102
}
330
C
100
AcDbDictionary
  0
ACDBDICTIONARYWDFLT
  5
B2C
102
{ACAD_REACTORS
330
C
102
}
330
C
100
AcDbDictionary
281
     1
  3
Normal
350
B2D
100
AcDbDictionaryWithDefault
340
B2D
  0
DICTIONARY
  5
B39
102
{ACAD_REACTORS
330
C
102
}
330
C
100
AcDbDictionary
  3
CEPSNTYPE
350
B43
  3
FINGERPRINTGUID
350
B44
  3
HYPERLINKBASE
350
B3C
  3
INSUNITS
350
B42
  3
LAYOUTDICT
350
B3E
  3
LWETCUNION
350
B41
  3
PLOTSETDICT
350
B3F
  3
PLOTSTYLNAMDICT
350
B40
  3
PSVPSCALE
350
B46
  3
PUCSBASE
350
B49
  3
PUCSORGBACK
350
B4F
  3
PUCSORGBOTTOM
350
B4B
  3
PUCSORGFRONT
350
B4E
  3
PUCSORGLEFT
350
B4C
  3
PUCSORGRIGHT
350
B4D
  3
PUCSORGTOP
350
B4A
  3
PUCSORTHOREF
350
B47
  3
PUCSORTHOVIEW
350
B48
  3
STYLESHEET
350
B3D
  3
TSTACKALIGN
350
B3A
  3
TSTACKSIZE
350
B3B
  3
UCSBASE
350
B52
  3
UCSORGBACK
350
B58
  3
UCSORGBOTTOM
350
B54
  3
UCSORGFRONT
350
B57
  3
UCSORGLEFT
350
B55
  3
UCSORGRIGHT
350
B56
  3
UCSORGTOP
350
B53
  3
UCSORTHOREF
350
B50
  3
UCSORTHOVIEW
350
B51
  3
VERSIONGUID
350
B45
  0
DICTIONARY
  5
B36
102
{ACAD_REACTORS
330
C
102
}
330
C
100
AcDbDictionary
  3
DIMASSOC
350
B37
  0
XRECORD
  5
B5C
102
{ACAD_REACTORS
330
B5B
102
}
330
B5B
100
AcDbXrecord
340
18
  0
XRECORD
  5
B5A
102
{ACAD_REACTORS
330
B59
102
}
330
B59
100
AcDbXrecord
340
15
  0
GROUP
  5
2B4
102
{ACAD_REACTORS
330
D
102
}
330
D
100
AcDbGroup
300
BORDER FRAME 10-1-95
 70
     3
 71
     1
  0
GROUP
  5
61F
102
{ACAD_REACTORS
330
D
102
}
330
D
100
AcDbGroup
300

 70
     1
 71
     1
  0
GROUP
  5
62D
102
{ACAD_REACTORS
330
D
102
}
330
D
100
AcDbGroup
300
BORDER FRAME 10-1-95
 70
     3
 71
     1
  0
GROUP
  5
996
102
{ACAD_REACTORS
330
D
102
}
330
D
100
AcDbGroup
300

 70
     1
 71
     1
  0
MLINESTYLE
  5
1B
102
{ACAD_REACTORS
330
E
102
}
330
E
100
AcDbMlineStyle
  2
STANDARD
 70
     0
  3

 62
     0
 51
90.0
 52
90.0
 71
     2
 49
0.5
 62
   256
  6
BYLAYER
 49
-0.5
 62
   256
  6
BYLAYER
  0
ACDBPLACEHOLDER
  5
B2D
102
{ACAD_REACTORS
330
B2C
102
}
330
B2C
100
AcDbPlaceHolder
280
     0
  0
XRECORD
  5
B43
102
{ACAD_REACTORS
330
B39
102
}
330
B39
100
AcDbXrecord
 90
        0
  0
XRECORD
  5
B44
102
{ACAD_REACTORS
330
B39
102
}
330
B39
100
AcDbXrecord
  1
{052AB4C0-8DB6-11D6-88E6-0090279574E7}
  0
XRECORD
  5
B3C
102
{ACAD_REACTORS
330
B39
102
}
330
B39
100
AcDbXrecord
  1

  0
XRECORD
  5
B42
102
{ACAD_REACTORS
330
B39
102
}
330
B39
100
AcDbXrecord
 90
        0
  0
XRECORD
  5
B3E
102
{ACAD_REACTORS
330
B39
102
}
330
B39
100
AcDbXrecord
340
B2E
  0
XRECORD
  5
B41
102
{ACAD_REACTORS
330
B39
102
}
330
B39
100
AcDbXrecord
 90
    14877
  0
XRECORD
  5
B3F
102
{ACAD_REACTORS
330
B39
102
}
330
B39
100
AcDbXrecord
340
B2F
  0
XRECORD
  5
B40
102
{ACAD_REACTORS
330
B39
102
}
330
B39
100
AcDbXrecord
340
B2C
  0
XRECORD
  5
B46
102
{ACAD_REACTORS
330
B39
102
}
330
B39
100
AcDbXrecord
 40
0.0
  0
XRECORD
  5
B49
102
{ACAD_REACTORS
330
B39
102
}
330
B39
100
AcDbXrecord
340
0
  0
XRECORD
  5
B4F
102
{ACAD_REACTORS
330
B39
102
}
330
B39
100
AcDbXrecord
 10
0.0
 20
0.0
 30
0.0
  0
XRECORD
  5
B4B
102
{ACAD_REACTORS
330
B39
102
}
330
B39
100
AcDbXrecord
 10
0.0
 20
0.0
 30
0.0
  0
XRECORD
  5
B4E
102
{ACAD_REACTORS
330
B39
102
}
330
B39
100
AcDbXrecord
 10
0.0
 20
0.0
 30
0.0
  0
XRECORD
  5
B4C
102
{ACAD_REACTORS
330
B39
102
}
330
B39
100
AcDbXrecord
 10
0.0
 20
0.0
 30
0.0
  0
XRECORD
  5
B4D
102
{ACAD_REACTORS
330
B39
102
}
330
B39
100
AcDbXrecord
 10
0.0
 20
0.0
 30
0.0
  0
XRECORD
  5
B4A
102
{ACAD_REACTORS
330
B39
102
}
330
B39
100
AcDbXrecord
 10
0.0
 20
0.0
 30
0.0
  0
XRECORD
  5
B47
102
{ACAD_REACTORS
330
B39
102
}
330
B39
100
AcDbXrecord
340
0
  0
XRECORD
  5
B48
102
{ACAD_REACTORS
330
B39
102
}
330
B39
100
AcDbXrecord
 70
     0
  0
XRECORD
  5
B3D
102
{ACAD_REACTORS
330
B39
102
}
330
B39
100
AcDbXrecord
  1

  0
XRECORD
  5
B3A
102
{ACAD_REACTORS
330
B39
102
}
330
B39
100
AcDbXrecord
 90
        1
  0
XRECORD
  5
B3B
102
{ACAD_REACTORS
330
B39
102
}
330
B39
100
AcDbXrecord
 90
       70
  0
XRECORD
  5
B52
102
{ACAD_REACTORS
330
B39
102
}
330
B39
100
AcDbXrecord
340
0
  0
XRECORD
  5
B58
102
{ACAD_REACTORS
330
B39
102
}
330
B39
100
AcDbXrecord
 10
0.0
 20
0.0
 30
0.0
  0
XRECORD
  5
B54
102
{ACAD_REACTORS
330
B39
102
}
330
B39
100
AcDbXrecord
 10
0.0
 20
0.0
 30
0.0
  0
XRECORD
  5
B57
102
{ACAD_REACTORS
330
B39
102
}
330
B39
100
AcDbXrecord
 10
0.0
 20
0.0
 30
0.0
  0
XRECORD
  5
B55
102
{ACAD_REACTORS
330
B39
102
}
330
B39
100
AcDbXrecord
 10
0.0
 20
0.0
 30
0.0
  0
XRECORD
  5
B56
102
{ACAD_REACTORS
330
B39
102
}
330
B39
100
AcDbXrecord
 10
0.0
 20
0.0
 30
0.0
  0
XRECORD
  5
B53
102
{ACAD_REACTORS
330
B39
102
}
330
B39
100
AcDbXrecord
 10
0.0
 20
0.0
 30
0.0
  0
XRECORD
  5
B50
102
{ACAD_REACTORS
330
B39
102
}
330
B39
100
AcDbXrecord
340
0
  0
XRECORD
  5
B51
102
{ACAD_REACTORS
330
B39
102
}
330
B39
100
AcDbXrecord
 70
     0
  0
XRECORD
  5
B45
102
{ACAD_REACTORS
330
B39
102
}
330
B39
100
AcDbXrecord
  1
{052AB4C2-8DB6-11D6-88E6-0090279574E7}
  0
DICTIONARYVAR
  5
B37
102
{ACAD_REACTORS
330
B36
102
}
330
B36
100
DictionaryVariables
280
     0
  1
1
  0
ENDSEC
  0
EOF
