  0
SECTION
  2
HEADER
  9
$ACADVER
  1
AC1014
  9
$ACADMAINTVER
 70
     9
  9
$DWGCODEPAGE
  3
ANSI_1252
  9
$INSBASE
 10
1.78963414948917
 20
1.221736397158677
 30
0.0
  9
$EXTMIN
 10
0.1620938050474733
 20
0.0171559221967166
 30
0.0
  9
$EXTMAX
 10
3.647313126794601
 20
1.539271179647663
 30
0.0
  9
$LIMMIN
 10
0.0
 20
0.0
  9
$LIMMAX
 10
18.0
 20
12.0
  9
$ORTHOMODE
 70
     1
  9
$REGENMODE
 70
     1
  9
$FILLMODE
 70
     1
  9
$QTEXTMODE
 70
     0
  9
$MIRRTEXT
 70
     0
  9
$DRAGMODE
 70
     2
  9
$LTSCALE
 40
1.0
  9
$OSMODE
 70
    39
  9
$ATTMODE
 70
     1
  9
$TEXTSIZE
 40
0.125
  9
$TRACEWID
 40
0.05
  9
$TEXTSTYLE
  7
ROMANS
  9
$CLAYER
  8
0
  9
$CELTYPE
  6
BYLAYER
  9
$CECOLOR
 62
   256
  9
$CELTSCALE
 40
1.0
  9
$DELOBJ
 70
     1
  9
$DISPSILH
 70
     1
  9
$DIMSCALE
 40
1.0
  9
$DIMASZ
 40
0.125
  9
$DIMEXO
 40
0.125
  9
$DIMDLI
 40
0.375
  9
$DIMRND
 40
0.0
  9
$DIMDLE
 40
0.0
  9
$DIMEXE
 40
0.125
  9
$DIMTP
 40
0.0
  9
$DIMTM
 40
0.0
  9
$DIMTXT
 40
0.125
  9
$DIMCEN
 40
-0.125
  9
$DIMTSZ
 40
0.0
  9
$DIMTOL
 70
     0
  9
$DIMLIM
 70
     0
  9
$DIMTIH
 70
     1
  9
$DIMTOH
 70
     1
  9
$DIMSE1
 70
     0
  9
$DIMSE2
 70
     0
  9
$DIMTAD
 70
     0
  9
$DIMZIN
 70
     4
  9
$DIMBLK
  1

  9
$DIMASO
 70
     1
  9
$DIMSHO
 70
     1
  9
$DIMPOST
  1

  9
$DIMAPOST
  1

  9
$DIMALT
 70
     0
  9
$DIMALTD
 70
     2
  9
$DIMALTF
 40
25.4
  9
$DIMLFAC
 40
1.0
  9
$DIMTOFL
 70
     0
  9
$DIMTVP
 40
0.0
  9
$DIMTIX
 70
     1
  9
$DIMSOXD
 70
     0
  9
$DIMSAH
 70
     0
  9
$DIMBLK1
  1

  9
$DIMBLK2
  1

  9
$DIMSTYLE
  2
STANDARD
  9
$DIMCLRD
 70
     0
  9
$DIMCLRE
 70
     0
  9
$DIMCLRT
 70
     0
  9
$DIMTFAC
 40
1.0
  9
$DIMGAP
 40
0.09
  9
$DIMJUST
 70
     0
  9
$DIMSD1
 70
     0
  9
$DIMSD2
 70
     0
  9
$DIMTOLJ
 70
     1
  9
$DIMTZIN
 70
     4
  9
$DIMALTZ
 70
     0
  9
$DIMALTTZ
 70
     0
  9
$DIMFIT
 70
     3
  9
$DIMUPT
 70
     0
  9
$DIMUNIT
 70
     2
  9
$DIMDEC
 70
     3
  9
$DIMTDEC
 70
     3
  9
$DIMALTU
 70
     2
  9
$DIMALTTD
 70
     2
  9
$DIMTXSTY
  7
ROMANS
  9
$DIMAUNIT
 70
     0
  9
$LUNITS
 70
     2
  9
$LUPREC
 70
     3
  9
$SKETCHINC
 40
0.1
  9
$FILLETRAD
 40
0.03125
  9
$AUNITS
 70
     0
  9
$AUPREC
 70
     0
  9
$MENU
  1
ACAD
  9
$ELEVATION
 40
0.0
  9
$PELEVATION
 40
0.0
  9
$THICKNESS
 40
0.0
  9
$LIMCHECK
 70
     0
  9
$BLIPMODE
 70
     0
  9
$CHAMFERA
 40
0.0
  9
$CHAMFERB
 40
0.0
  9
$CHAMFERC
 40
0.0
  9
$CHAMFERD
 40
0.0
  9
$SKPOLY
 70
     0
  9
$TDCREATE
 40
2448994.547701852
  9
$TDUPDATE
 40
2452458.305460150
  9
$TDINDWG
 40
0.0007286574
  9
$TDUSRTIMER
 40
0.0007286574
  9
$USRTIMER
 70
     1
  9
$ANGBASE
 50
0.0
  9
$ANGDIR
 70
     0
  9
$PDMODE
 70
     0
  9
$PDSIZE
 40
0.0
  9
$PLINEWID
 40
0.0
  9
$COORDS
 70
     2
  9
$SPLFRAME
 70
     0
  9
$SPLINETYPE
 70
     6
  9
$SPLINESEGS
 70
     8
  9
$ATTDIA
 70
     0
  9
$ATTREQ
 70
     1
  9
$HANDLING
 70
 22529
  9
$HANDSEED
  5
BCD28CE5C6CB85F
  9
$SURFTAB1
 70
     6
  9
$SURFTAB2
 70
     6
  9
$SURFTYPE
 70
     6
  9
$SURFU
 70
     6
  9
$SURFV
 70
     6
  9
$UCSNAME
  2

  9
$UCSORG
 10
0.0
 20
0.0
 30
0.0
  9
$UCSXDIR
 10
1.0
 20
0.0
 30
0.0
  9
$UCSYDIR
 10
0.0
 20
1.0
 30
0.0
  9
$PUCSNAME
  2

  9
$PUCSORG
 10
0.0
 20
0.0
 30
0.0
  9
$PUCSXDIR
 10
1.0
 20
0.0
 30
0.0
  9
$PUCSYDIR
 10
0.0
 20
1.0
 30
0.0
  9
$USERI1
 70
     0
  9
$USERI2
 70
     0
  9
$USERI3
 70
     0
  9
$USERI4
 70
     0
  9
$USERI5
 70
     0
  9
$USERR1
 40
0.0
  9
$USERR2
 40
0.0
  9
$USERR3
 40
0.0
  9
$USERR4
 40
0.0
  9
$USERR5
 40
0.0
  9
$WORLDVIEW
 70
     1
  9
$SHADEDGE
 70
     3
  9
$SHADEDIF
 70
    70
  9
$TILEMODE
 70
     1
  9
$MAXACTVP
 70
    16
  9
$PINSBASE
 10
0.7403539730789631
 20
50.00000000000001
 30
2.240853667539043
  9
$PLIMCHECK
 70
     0
  9
$PEXTMIN
 10
1.000000000000000E+20
 20
1.000000000000000E+20
 30
1.000000000000000E+20
  9
$PEXTMAX
 10
-1.000000000000000E+20
 20
-1.000000000000000E+20
 30
-1.000000000000000E+20
  9
$PLIMMIN
 10
0.0
 20
0.0
  9
$PLIMMAX
 10
12.0
 20
9.0
  9
$UNITMODE
 70
     0
  9
$VISRETAIN
 70
     0
  9
$PLINEGEN
 70
     1
  9
$PSLTSCALE
 70
     0
  9
$TREEDEPTH
 70
  3020
  9
$PICKSTYLE
 70
     1
  9
$CMLSTYLE
  2
STANDARD
  9
$CMLJUST
 70
     0
  9
$CMLSCALE
 40
1.0
  9
$PROXYGRAPHICS
 70
     1
  9
$MEASUREMENT
 70
     0
  0
ENDSEC
  0
SECTION
  2
CLASSES
  0
CLASS
  1
LWPOLYLINE
  2
AcDbPolyline
  3
AutoCAD 2000
 90
        0
280
     0
281
     1
  0
CLASS
  1
ACDBDICTIONARYWDFLT
  2
AcDbDictionaryWithDefault
  3
AutoCAD 2000
 90
        0
280
     0
281
     0
  0
CLASS
  1
ACDBPLACEHOLDER
  2
AcDbPlaceHolder
  3
AutoCAD 2000
 90
        0
280
     0
281
     0
  0
CLASS
  1
LAYOUT
  2
AcDbLayout
  3
AutoCAD 2000
 90
        0
280
     0
281
     0
  0
CLASS
  1
DICTIONARYVAR
  2
AcDbDictionaryVar
  3
AutoCAD 2000
 90
        0
280
     0
281
     0
  0
CLASS
  1
LONG_TRANSACTION
  2
AcDbLongTransaction
  3
AutoCAD 2000
 90
        0
280
     0
281
     0
  0
CLASS
  1
LWPOLYLINE
  2
AcDbPolyline
  3
AutoCAD 2000
 90
        0
280
     0
281
     1
  0
CLASS
  1
HATCH
  2
AcDbHatch
  3
AutoCAD 2000
 90
        0
280
     0
281
     1
  0
CLASS
  1
XRECORD
  2
AcDbXrecord
  3
AutoCAD 2000
 90
        0
280
     0
281
     0
  0
ENDSEC
  0
SECTION
  2
TABLES
  0
TABLE
  2
VPORT
  5
BCD28CE5C6CB7EB
330
0
100
AcDbSymbolTable
 70
     2
  0
VPORT
  5
BCD28CE5C6CB83A
330
BCD28CE5C6CB7EB
100
AcDbSymbolTableRecord
100
AcDbViewportTableRecord
  2
*ACTIVE
 70
     0
 10
0.0
 20
0.0
 11
1.0
 21
1.0
 12
4.881228290461766
 22
0.7782898167826815
 13
0.0
 23
0.0
 14
0.015625
 24
0.015625
 15
0.0
 25
0.0
 16
0.0
 26
0.0
 36
1.0
 17
0.0
 27
0.0
 37
0.0
 40
2.282647215150728
 41
4.320930232558139
 42
50.0
 43
0.0
 44
0.0
 50
0.0
 51
0.0
 71
     0
 72
  2000
 73
     1
 74
     0
 75
     0
 76
     0
 77
     0
 78
     0
  0
ENDTAB
  0
TABLE
  2
LTYPE
  5
BCD28CE5C6CB7E8
330
0
100
AcDbSymbolTable
 70
     1
  0
LTYPE
  5
BCD28CE5C6CB7F5
330
BCD28CE5C6CB7E8
100
AcDbSymbolTableRecord
100
AcDbLinetypeTableRecord
  2
BYBLOCK
 70
     0
  3

 72
    65
 73
     0
 40
0.0
  0
LTYPE
  5
BCD28CE5C6CB7F6
330
BCD28CE5C6CB7E8
100
AcDbSymbolTableRecord
100
AcDbLinetypeTableRecord
  2
BYLAYER
 70
     0
  3

 72
    65
 73
     0
 40
0.0
  0
LTYPE
  5
BCD28CE5C6CB7F7
330
BCD28CE5C6CB7E8
100
AcDbSymbolTableRecord
100
AcDbLinetypeTableRecord
  2
CONTINUOUS
 70
     0
  3
Solid line
 72
    65
 73
     0
 40
0.0
  0
ENDTAB
  0
TABLE
  2
LAYER
  5
BCD28CE5C6CB7E5
330
0
100
AcDbSymbolTable
 70
     3
  0
LAYER
  5
BCD28CE5C6CB7F2
330
BCD28CE5C6CB7E5
100
AcDbSymbolTableRecord
100
AcDbLayerTableRecord
  2
0
 70
     0
 62
     7
  6
CONTINUOUS
  0
LAYER
  5
BCD28CE5C6CB802
330
BCD28CE5C6CB7E5
100
AcDbSymbolTableRecord
100
AcDbLayerTableRecord
  2
TEXT
 70
     0
 62
     3
  6
CONTINUOUS
  0
LAYER
  5
BCD28CE5C6CB812
330
BCD28CE5C6CB7E5
100
AcDbSymbolTableRecord
100
AcDbLayerTableRecord
  2
ASHADE
 70
     4
 62
     7
  6
CONTINUOUS
  0
ENDTAB
  0
TABLE
  2
STYLE
  5
BCD28CE5C6CB7E6
330
0
100
AcDbSymbolTable
 70
     4
  0
STYLE
  5
BCD28CE5C6CB7F3
330
BCD28CE5C6CB7E6
100
AcDbSymbolTableRecord
100
AcDbTextStyleTableRecord
  2
STANDARD
 70
     0
 40
0.0
 41
1.0
 50
0.0
 71
     0
 42
0.3125
  3
txt
  4

  0
STYLE
  5
BCD28CE5C6CB7FF
330
BCD28CE5C6CB7E6
100
AcDbSymbolTableRecord
100
AcDbTextStyleTableRecord
  2
ITALICC
 70
     0
 40
0.0
 41
1.0
 50
0.0
 71
     0
 42
0.125
  3
italicc
  4

  0
STYLE
  5
BCD28CE5C6CB80F
330
BCD28CE5C6CB7E6
100
AcDbSymbolTableRecord
100
AcDbTextStyleTableRecord
  2
ASHADE
 70
     0
 40
0.2
 41
1.0
 50
0.0
 71
     0
 42
0.3125
  3
simplex
  4

  0
STYLE
  5
BCD28CE5C6CB82A
330
BCD28CE5C6CB7E6
100
AcDbSymbolTableRecord
100
AcDbTextStyleTableRecord
  2
ROMANS
 70
     0
 40
0.0
 41
1.0
 50
0.0
 71
     0
 42
0.125
  3
romans.shx
  4

  0
ENDTAB
  0
TABLE
  2
VIEW
  5
BCD28CE5C6CB7E9
330
0
100
AcDbSymbolTable
 70
     0
  0
ENDTAB
  0
TABLE
  2
UCS
  5
BCD28CE5C6CB7EA
330
0
100
AcDbSymbolTable
 70
     0
  0
ENDTAB
  0
TABLE
  2
APPID
  5
BCD28CE5C6CB7EC
330
0
100
AcDbSymbolTable
 70
     6
  0
APPID
  5
BCD28CE5C6CB7F4
330
BCD28CE5C6CB7EC
100
AcDbSymbolTableRecord
100
AcDbRegAppTableRecord
  2
ACAD
 70
     0
  0
APPID
  5
BCD28CE5C6CB810
330
BCD28CE5C6CB7EC
100
AcDbSymbolTableRecord
100
AcDbRegAppTableRecord
  2
AVE_RENDER
 70
     0
  0
APPID
  5
BCD28CE5C6CB811
330
BCD28CE5C6CB7EC
100
AcDbSymbolTableRecord
100
AcDbRegAppTableRecord
  2
AVE_ENTITY_MATERIAL
 70
     0
  0
APPID
  5
BCD28CE5C6CB81E
330
BCD28CE5C6CB7EC
100
AcDbSymbolTableRecord
100
AcDbRegAppTableRecord
  2
AVE_FINISH
 70
     0
  0
APPID
  5
BCD28CE5C6CB81F
330
BCD28CE5C6CB7EC
100
AcDbSymbolTableRecord
100
AcDbRegAppTableRecord
  2
AVE_MATERIAL
 70
     0
  0
APPID
  5
BCD28CE5C6CB820
330
BCD28CE5C6CB7EC
100
AcDbSymbolTableRecord
100
AcDbRegAppTableRecord
  2
AVE_GLOBAL
 70
     0
  0
ENDTAB
  0
TABLE
  2
DIMSTYLE
  5
BCD28CE5C6CB7ED
330
0
100
AcDbSymbolTable
 70
     1
  0
DIMSTYLE
105
BCD28CE5C6CB807
330
BCD28CE5C6CB7ED
100
AcDbSymbolTableRecord
100
AcDbDimStyleTableRecord
  2
STANDARD
 70
     0
  3

  4

  5

  6

  7

 40
1.0
 41
0.125
 42
0.125
 43
0.375
 44
0.125
 45
0.0
 46
0.0
 47
0.0
 48
0.0
140
0.125
141
-0.125
142
0.0
143
25.4
144
1.0
145
0.0
146
1.0
147
0.09
 71
     0
 72
     0
 73
     1
 74
     1
 75
     0
 76
     0
 77
     0
 78
     4
170
     0
171
     2
172
     0
173
     0
174
     1
175
     0
176
     0
177
     0
178
     0
270
     2
271
     3
272
     3
273
     2
274
     2
340
BCD28CE5C6CB82A
275
     0
280
     0
281
     0
282
     0
283
     1
284
     4
285
     0
286
     0
287
     3
288
     0
  0
ENDTAB
  0
TABLE
  2
BLOCK_RECORD
  5
BCD28CE5C6CB7E4
330
0
100
AcDbSymbolTable
 70
     2
  0
BLOCK_RECORD
  5
BCD28CE5C6CB7FB
102
{ACAD_XDICTIONARY
360
BCD28CE5C6CB85D
102
}
330
BCD28CE5C6CB7E4
100
AcDbSymbolTableRecord
100
AcDbBlockTableRecord
  2
*MODEL_SPACE
  0
BLOCK_RECORD
  5
BCD28CE5C6CB7F8
102
{ACAD_XDICTIONARY
360
BCD28CE5C6CB85B
102
}
330
BCD28CE5C6CB7E4
100
AcDbSymbolTableRecord
100
AcDbBlockTableRecord
  2
*PAPER_SPACE
  0
BLOCK_RECORD
  5
BCD28CE5C6CB813
330
BCD28CE5C6CB7E4
100
AcDbSymbolTableRecord
100
AcDbBlockTableRecord
  2
AVE_RENDER
  0
BLOCK_RECORD
  5
BCD28CE5C6CB821
330
BCD28CE5C6CB7E4
100
AcDbSymbolTableRecord
100
AcDbBlockTableRecord
  2
AVE_GLOBAL
  0
ENDTAB
  0
ENDSEC
  0
SECTION
  2
BLOCKS
  0
BLOCK
  5
BCD28CE5C6CB805
330
BCD28CE5C6CB7FB
100
AcDbEntity
  8
0
100
AcDbBlockBegin
  2
*MODEL_SPACE
 70
     0
 10
0.0
 20
0.0
 30
0.0
  3
*MODEL_SPACE
  1

  0
ENDBLK
  5
BCD28CE5C6CB806
330
BCD28CE5C6CB7FB
100
AcDbEntity
  8
0
100
AcDbBlockEnd
  0
BLOCK
  5
BCD28CE5C6CB803
330
BCD28CE5C6CB7F8
100
AcDbEntity
 67
     1
  8
0
100
AcDbBlockBegin
  2
*PAPER_SPACE
 70
     0
 10
0.0
 20
0.0
 30
0.0
  3
*PAPER_SPACE
  1

  0
ENDBLK
  5
BCD28CE5C6CB804
330
BCD28CE5C6CB7F8
100
AcDbEntity
 67
     1
  8
0
100
AcDbBlockEnd
  0
BLOCK
  5
BCD28CE5C6CB814
330
BCD28CE5C6CB813
100
AcDbEntity
  8
0
100
AcDbBlockBegin
  2
AVE_RENDER
 70
     0
 10
0.0
 20
0.0
 30
0.0
  3
AVE_RENDER
  1
AVE_RENDER
  0
ENDBLK
  5
BCD28CE5C6CB815
330
BCD28CE5C6CB813
100
AcDbEntity
  8
0
100
AcDbBlockEnd
  0
BLOCK
  5
BCD28CE5C6CB822
330
BCD28CE5C6CB821
100
AcDbEntity
  8
0
100
AcDbBlockBegin
  2
AVE_GLOBAL
 70
     0
 10
0.0
 20
0.0
 30
0.0
  3
AVE_GLOBAL
  1
AVE_GLOBAL
  0
ENDBLK
  5
BCD28CE5C6CB823
330
BCD28CE5C6CB821
100
AcDbEntity
  8
0
100
AcDbBlockEnd
  0
ENDSEC
  0
SECTION
  2
ENTITIES
  0
LWPOLYLINE
  5
BCD28CE5C6CA218
330
BCD28CE5C6CB7FB
100
AcDbEntity
  8
0
100
AcDbPolyline
 90
       12
 70
     1
 43
0.0
 10
1.530075384274617
 20
1.498114036632081
 10
1.590332546262648
 20
1.463324547937688
 42
-0.9431935101586276
 10
1.656038076762848
 20
1.42538944221615
 42
0.3804174811831331
 10
1.720075384274616
 20
1.472934544707769
 10
2.204728581156074
 20
1.472934544707769
 42
-0.3051186529969316
 10
1.720075384274616
 20
0.877668438861626
 42
0.3031286219432333
 10
1.655930802401739
 20
0.8956917363517963
 42
-0.9491204263522826
 10
1.59020250884936
 20
0.857743488375959
 10
1.530075384274618
 20
0.8230290768171331
 42
0.77826815939609
 10
1.540623329480096
 20
0.7857160762492202
 42
0.4062106689162154
 10
2.270075384274616
 20
1.535434544707769
 10
1.540075384274616
 20
1.535434544707769
 42
0.7673269879789597
  0
TEXT
  5
BCD28CE5C6CB6A6
330
BCD28CE5C6CB7FB
100
AcDbEntity
  8
TEXT
100
AcDbText
 10
1.152099193798426
 20
0.4751745262792982
 30
0.0
 40
0.125
  1
PART #110296
  7
ITALICC
 72
     1
 11
1.905075384274616
 21
0.4751745262792982
 31
0.0
100
AcDbText
  0
TEXT
  5
BCD28CE5C6CB6A7
330
BCD28CE5C6CB7FB
100
AcDbEntity
  8
TEXT
100
AcDbText
 10
2.318380542524937
 20
0.028251883606923
 30
0.0
 40
0.0522247191011236
  1
Phone  1-800-328-2495
 41
1.272321428571429
 72
     5
 11
3.647313126794601
 21
0.028251883606923
 31
0.0
100
AcDbText
  0
TEXT
  5
BCD28CE5C6CB6A8
330
BCD28CE5C6CB7FB
100
AcDbEntity
  8
TEXT
100
AcDbText
 10
2.318380542524937
 20
0.3080271645057995
 30
0.0
 40
0.0522247191011236
  1
Stylmark  Incorporated
 41
1.221428571428573
 72
     5
 11
3.647313126794601
 21
0.3080271645057995
 31
0.0
100
AcDbText
  0
TEXT
  5
BCD28CE5C6CB6A9
330
BCD28CE5C6CB7FB
100
AcDbEntity
  8
TEXT
100
AcDbText
 10
2.318380542524937
 20
0.2147687375395073
 30
0.0
 40
0.0522247191011236
  1
6536 Main St. N.E. * P.O. Box 32008
 41
0.8388932496075366
 72
     5
 11
3.647313126794601
 21
0.2147687375395073
 31
0.0
100
AcDbText
  0
TEXT
  5
BCD28CE5C6CB6AA
330
BCD28CE5C6CB7FB
100
AcDbEntity
  8
TEXT
100
AcDbText
 10
2.318380542524937
 20
0.1215103105732151
 30
0.0
 40
0.0522247191011236
  1
Minneapolis, MN 55432-0008
 41
1.11444212721585
 72
     5
 11
3.647313126794601
 21
0.1215103105732151
 31
0.0
100
AcDbText
  0
LWPOLYLINE
  5
BCD28CE5C6CB6AB
330
BCD28CE5C6CB7FB
100
AcDbEntity
  8
TEXT
100
AcDbPolyline
 90
        3
 70
     0
 43
0.0006660908203125
 10
0.1624268504576296
 20
0.1418966462443578
 10
0.1624268504576296
 20
0.0286612067912302
 10
0.2756622899107519
 20
0.0286612067912302
  0
LWPOLYLINE
  5
BCD28CE5C6CB6B0
330
BCD28CE5C6CB7FB
100
AcDbEntity
  8
TEXT
100
AcDbPolyline
 90
        3
 70
     0
 43
0.0006660908203125
 10
0.1890704832701271
 20
0.1418966462443578
 10
0.1890704832701271
 20
0.0553048396037312
 10
0.2756622899107519
 20
0.0553048396037312
  0
LWPOLYLINE
  5
BCD28CE5C6CB6B5
330
BCD28CE5C6CB7FB
100
AcDbEntity
  8
TEXT
100
AcDbPolyline
 90
        2
 70
     0
 43
0.0001332181640625
 10
0.2356968406920039
 20
0.151888008549043
 10
0.1624268504576296
 20
0.1418966462443578
  0
LWPOLYLINE
  5
BCD28CE5C6CB6B9
330
BCD28CE5C6CB7FB
100
AcDbEntity
  8
TEXT
100
AcDbPolyline
 90
        2
 70
     0
 43
0.0001332181640625
 10
0.1890704832701271
 20
0.1418966462443578
 10
0.2490186570982544
 20
0.151888008549043
  0
LWPOLYLINE
  5
BCD28CE5C6CB6BD
330
BCD28CE5C6CB7FB
100
AcDbEntity
  8
TEXT
100
AcDbPolyline
 90
        2
 70
     0
 43
0.0001332181640625
 10
0.1890704832701271
 20
0.0553048396037312
 10
0.2490186570982544
 20
0.1152530134318568
  0
LWPOLYLINE
  5
BCD28CE5C6CB6C1
330
BCD28CE5C6CB7FB
100
AcDbEntity
  8
TEXT
100
AcDbPolyline
 90
        3
 70
     0
 43
0.0006660908203125
 10
0.2756622899107519
 20
0.2950975349162335
 10
0.1624268504576296
 20
0.2950975349162335
 10
0.1624268504576296
 20
0.1818620954631058
  0
LWPOLYLINE
  5
BCD28CE5C6CB6C6
330
BCD28CE5C6CB7FB
100
AcDbEntity
  8
TEXT
100
AcDbPolyline
 90
        3
 70
     0
 43
0.0006660908203125
 10
0.2756622899107519
 20
0.2684539021037324
 10
0.1890704832701271
 20
0.2684539021037324
 10
0.1890704832701271
 20
0.1818620954631058
  0
LWPOLYLINE
  5
BCD28CE5C6CB6CB
330
BCD28CE5C6CB7FB
100
AcDbEntity
  8
TEXT
100
AcDbPolyline
 90
        2
 70
     0
 43
0.0001332181640625
 10
0.1890704832701271
 20
0.2684539021037324
 10
0.2490186570982527
 20
0.2085057282756069
  0
LWPOLYLINE
  5
BCD28CE5C6CB6CF
330
BCD28CE5C6CB7FB
100
AcDbEntity
  8
TEXT
100
AcDbPolyline
 90
        2
 70
     0
 43
0.0001332181640625
 10
0.1890704832701271
 20
0.1818620954631058
 10
0.2490186570982527
 20
0.171870733158417
  0
LWPOLYLINE
  5
BCD28CE5C6CB6D3
330
BCD28CE5C6CB7FB
100
AcDbEntity
  8
TEXT
100
AcDbPolyline
 90
        2
 70
     0
 43
0.0001332181640625
 10
0.1624268504576296
 20
0.1818620954631058
 10
0.2356968406920039
 20
0.171870733158417
  0
LWPOLYLINE
  5
BCD28CE5C6CB6D7
330
BCD28CE5C6CB7FB
100
AcDbEntity
  8
TEXT
100
AcDbPolyline
 90
        2
 70
     0
 43
0.0006660908203125
 10
0.1890704832701271
 20
0.1418966462443578
 10
0.1624268504576296
 20
0.1418966462443578
  0
LWPOLYLINE
  5
BCD28CE5C6CB6DB
330
BCD28CE5C6CB7FB
100
AcDbEntity
  8
TEXT
100
AcDbPolyline
 90
        2
 70
     0
 43
0.0006660908203125
 10
0.1890704832701271
 20
0.1818620954631058
 10
0.1624268504576296
 20
0.1818620954631058
  0
LINE
  5
BCD28CE5C6CB6DF
330
BCD28CE5C6CB7FB
100
AcDbEntity
  8
TEXT
100
AcDbLine
 10
1.677617279584127
 20
0.2308208402594645
 30
0.0
 11
1.570411006196837
 21
0.2308208402594645
 31
0.0
  0
LINE
  5
BCD28CE5C6CB6E0
330
BCD28CE5C6CB7FB
100
AcDbEntity
  8
TEXT
100
AcDbLine
 10
1.706648177928605
 20
0.2950975349162299
 30
0.0
 11
1.571816268711546
 21
0.2950975349162299
 31
0.0
  0
ARC
  5
BCD28CE5C6CB6E1
330
BCD28CE5C6CB7FB
100
AcDbEntity
  8
TEXT
100
AcDbCircle
 10
1.631130365104863
 20
0.1258602856532136
 30
0.0
 40
0.0676855811441166
100
AcDbArc
 50
90.0
 51
153.7768192527749
  0
LWPOLYLINE
  5
BCD28CE5C6CB6E2
330
BCD28CE5C6CB7FB
100
AcDbEntity
  8
TEXT
100
AcDbPolyline
 90
        2
 70
     0
 43
0.0
 10
1.569378510742027
 20
0.0721154468781571
 42
0.2901071551932823
 10
1.612454443609663
 20
0.0286245019277189
 42
5.328517124445801
  0
ARC
  5
BCD28CE5C6CB6E6
330
BCD28CE5C6CB7FB
100
AcDbEntity
  8
TEXT
100
AcDbCircle
 10
0.9259989874333776
 20
0.0884168932657687
 30
0.0
 40
0.0601160179737537
100
AcDbArc
 50
180.0000000000003
 51
264.0521544866073
  0
LINE
  5
BCD28CE5C6CB6E7
330
BCD28CE5C6CB7FB
100
AcDbEntity
  8
TEXT
100
AcDbLine
 10
0.9295143430589254
 20
0.3294854525103681
 30
0.0
 11
0.8694717382149184
 21
0.3294854525103681
 31
0.0
  0
ARC
  5
BCD28CE5C6CB6E8
330
BCD28CE5C6CB7FB
100
AcDbEntity
  8
TEXT
100
AcDbCircle
 10
0.6937399853164071
 20
0.2130100754697282
 30
0.0
 40
0.0820874594465043
100
AcDbArc
 50
90.0
 51
270.0
  0
LWPOLYLINE
  5
BCD28CE5C6CB6E9
330
BCD28CE5C6CB7FB
100
AcDbEntity
  8
TEXT
100
AcDbPolyline
 90
        2
 70
     0
 43
0.0001332181640625
 10
0.2856536522154425
 20
0.2218275446818538
 10
0.2756622899107519
 20
0.2950975349162335
  0
LWPOLYLINE
  5
BCD28CE5C6CB6ED
330
BCD28CE5C6CB7FB
100
AcDbEntity
  8
TEXT
100
AcDbPolyline
 90
        2
 70
     0
 43
0.0001332181640625
 10
0.2756622899107519
 20
0.2684539021037324
 10
0.2856536522154425
 20
0.2085057282756069
  0
LWPOLYLINE
  5
BCD28CE5C6CB6F1
330
BCD28CE5C6CB7FB
100
AcDbEntity
  8
TEXT
100
AcDbPolyline
 90
        3
 70
     0
 43
0.0006660908203125
 10
0.4288631785826294
 20
0.1818620954631058
 10
0.4288631785826294
 20
0.2950975349162335
 10
0.3156277391295035
 20
0.2950975349162335
  0
LWPOLYLINE
  5
BCD28CE5C6CB6F6
330
BCD28CE5C6CB7FB
100
AcDbEntity
  8
TEXT
100
AcDbPolyline
 90
        3
 70
     0
 43
0.0006660908203125
 10
0.4022195457701283
 20
0.1818620954631058
 10
0.4022195457701283
 20
0.2684539021037324
 10
0.3156277391295035
 20
0.2684539021037324
  0
LWPOLYLINE
  5
BCD28CE5C6CB6FB
330
BCD28CE5C6CB7FB
100
AcDbEntity
  8
TEXT
100
AcDbPolyline
 90
        2
 70
     0
 43
0.0001332181640625
 10
0.4022195457701283
 20
0.2684539021037324
 10
0.3422713719420045
 20
0.2085057282756069
  0
LWPOLYLINE
  5
BCD28CE5C6CB6FF
330
BCD28CE5C6CB7FB
100
AcDbEntity
  8
TEXT
100
AcDbPolyline
 90
        2
 70
     0
 43
0.0001332181640625
 10
0.3156277391295035
 20
0.2684539021037324
 10
0.3056363768248147
 20
0.2085057282756069
  0
LWPOLYLINE
  5
BCD28CE5C6CB703
330
BCD28CE5C6CB7FB
100
AcDbEntity
  8
TEXT
100
AcDbPolyline
 90
        2
 70
     0
 43
0.0001332181640625
 10
0.3156277391295035
 20
0.2950975349162335
 10
0.3056363768248147
 20
0.2218275446818538
  0
LWPOLYLINE
  5
BCD28CE5C6CB707
330
BCD28CE5C6CB7FB
100
AcDbEntity
  8
TEXT
100
AcDbPolyline
 90
        2
 70
     0
 43
0.0001332181640625
 10
0.3555931883482533
 20
0.171870733158417
 10
0.4288631785826294
 20
0.1818620954631058
  0
LWPOLYLINE
  5
BCD28CE5C6CB70B
330
BCD28CE5C6CB7FB
100
AcDbEntity
  8
TEXT
100
AcDbPolyline
 90
        2
 70
     0
 43
0.0001332181640625
 10
0.4022195457701283
 20
0.1818620954631058
 10
0.3422713719420045
 20
0.171870733158417
  0
LWPOLYLINE
  5
BCD28CE5C6CB70F
330
BCD28CE5C6CB7FB
100
AcDbEntity
  8
TEXT
100
AcDbPolyline
 90
        2
 70
     0
 43
0.0001332181640625
 10
0.4288631785826294
 20
0.1418966462443578
 10
0.3555931883482533
 20
0.151888008549043
  0
LWPOLYLINE
  5
BCD28CE5C6CB713
330
BCD28CE5C6CB7FB
100
AcDbEntity
  8
TEXT
100
AcDbPolyline
 90
        2
 70
     0
 43
0.0001332181640625
 10
0.4022195457701283
 20
0.1418966462443578
 10
0.3422713719420045
 20
0.151888008549043
  0
LWPOLYLINE
  5
BCD28CE5C6CB717
330
BCD28CE5C6CB7FB
100
AcDbEntity
  8
TEXT
100
AcDbPolyline
 90
        2
 70
     0
 43
0.0001332181640625
 10
0.4022195457701283
 20
0.0553048396037312
 10
0.3422713719420045
 20
0.1152530134318568
  0
LWPOLYLINE
  5
BCD28CE5C6CB71B
330
BCD28CE5C6CB7FB
100
AcDbEntity
  8
TEXT
100
AcDbPolyline
 90
        3
 70
     0
 43
0.0006660908203125
 10
0.3156277391295035
 20
0.0553048396037312
 10
0.4022195457701283
 20
0.0553048396037312
 10
0.4022195457701283
 20
0.1418966462443578
  0
LWPOLYLINE
  5
BCD28CE5C6CB720
330
BCD28CE5C6CB7FB
100
AcDbEntity
  8
TEXT
100
AcDbPolyline
 90
        3
 70
     0
 43
0.0006660908203125
 10
0.3156277391295035
 20
0.0286612067912302
 10
0.4288631785826294
 20
0.0286612067912302
 10
0.4288631785826294
 20
0.1418966462443578
  0
LWPOLYLINE
  5
BCD28CE5C6CB725
330
BCD28CE5C6CB7FB
100
AcDbEntity
  8
TEXT
100
AcDbPolyline
 90
        5
 70
     0
 43
0.0001332181640625
 10
0.2856536522154425
 20
0.1019311970256063
 10
0.2856536522154425
 20
0.1152530134318568
 10
0.2490186570982544
 20
0.1152530134318568
 10
0.2490186570982544
 20
0.151888008549043
 10
0.2356968406920039
 20
0.151888008549043
  0
LWPOLYLINE
  5
BCD28CE5C6CB72C
330
BCD28CE5C6CB7FB
100
AcDbEntity
  8
TEXT
100
AcDbPolyline
 90
        2
 70
     0
 43
0.0006660908203125
 10
0.2756622899107519
 20
0.0553048396037312
 10
0.2756622899107519
 20
0.0286612067912302
  0
LWPOLYLINE
  5
BCD28CE5C6CB730
330
BCD28CE5C6CB7FB
100
AcDbEntity
  8
TEXT
100
AcDbPolyline
 90
        2
 70
     0
 43
0.0001332181640625
 10
0.2756622899107519
 20
0.0553048396037312
 10
0.2856536522154425
 20
0.1152530134318568
  0
LWPOLYLINE
  5
BCD28CE5C6CB734
330
BCD28CE5C6CB7FB
100
AcDbEntity
  8
TEXT
100
AcDbPolyline
 90
        2
 70
     0
 43
0.0001332181640625
 10
0.2756622899107519
 20
0.0286612067912302
 10
0.2856536522154425
 20
0.1019311970256063
  0
LWPOLYLINE
  5
BCD28CE5C6CB738
330
BCD28CE5C6CB7FB
100
AcDbEntity
  8
TEXT
100
AcDbPolyline
 90
        5
 70
     0
 43
0.0001332181640625
 10
0.2356968406920039
 20
0.171870733158417
 10
0.2490186570982527
 20
0.171870733158417
 10
0.2490186570982527
 20
0.2085057282756069
 10
0.2856536522154425
 20
0.2085057282756069
 10
0.2856536522154425
 20
0.2218275446818538
  0
LWPOLYLINE
  5
BCD28CE5C6CB73F
330
BCD28CE5C6CB7FB
100
AcDbEntity
  8
TEXT
100
AcDbPolyline
 90
        5
 70
     0
 43
0.0001332181640625
 10
0.3056363768248147
 20
0.2218275446818538
 10
0.3056363768248147
 20
0.2085057282756069
 10
0.3422713719420045
 20
0.2085057282756069
 10
0.3422713719420045
 20
0.171870733158417
 10
0.3555931883482533
 20
0.171870733158417
  0
LWPOLYLINE
  5
BCD28CE5C6CB746
330
BCD28CE5C6CB7FB
100
AcDbEntity
  8
TEXT
100
AcDbPolyline
 90
        2
 70
     0
 43
0.0001332181640625
 10
0.3156277391295035
 20
0.0553048396037312
 10
0.3056363768248147
 20
0.1152530134318568
  0
LWPOLYLINE
  5
BCD28CE5C6CB74A
330
BCD28CE5C6CB7FB
100
AcDbEntity
  8
TEXT
100
AcDbPolyline
 90
        2
 70
     0
 43
0.0001332181640625
 10
0.3056363768248147
 20
0.1019311970256063
 10
0.3156277391295035
 20
0.0286612067912302
  0
LWPOLYLINE
  5
BCD28CE5C6CB74E
330
BCD28CE5C6CB7FB
100
AcDbEntity
  8
TEXT
100
AcDbPolyline
 90
        2
 70
     0
 43
0.0006660908203125
 10
0.3156277391295035
 20
0.0553048396037312
 10
0.3156277391295035
 20
0.0286612067912302
  0
LWPOLYLINE
  5
BCD28CE5C6CB752
330
BCD28CE5C6CB7FB
100
AcDbEntity
  8
TEXT
100
AcDbPolyline
 90
        5
 70
     0
 43
0.0001332181640625
 10
0.3555931883482533
 20
0.151888008549043
 10
0.3422713719420045
 20
0.151888008549043
 10
0.3422713719420045
 20
0.1152530134318568
 10
0.3056363768248147
 20
0.1152530134318568
 10
0.3056363768248147
 20
0.1019311970256063
  0
LWPOLYLINE
  5
BCD28CE5C6CB759
330
BCD28CE5C6CB7FB
100
AcDbEntity
  8
TEXT
100
AcDbPolyline
 90
        2
 70
     0
 43
0.0006660908203125
 10
0.4022195457701283
 20
0.1818620954631058
 10
0.4288631785826294
 20
0.1818620954631058
  0
LWPOLYLINE
  5
BCD28CE5C6CB75D
330
BCD28CE5C6CB7FB
100
AcDbEntity
  8
TEXT
100
AcDbPolyline
 90
        2
 70
     0
 43
0.0006660908203125
 10
0.4022195457701283
 20
0.1418966462443578
 10
0.4288631785826294
 20
0.1418966462443578
  0
LINE
  5
BCD28CE5C6CB761
330
BCD28CE5C6CB7FB
100
AcDbEntity
  8
TEXT
100
AcDbLine
 10
0.6989773154306543
 20
0.2308208402594645
 30
0.0
 11
0.8658829694596255
 21
0.2308208402594645
 31
0.0
  0
LINE
  5
BCD28CE5C6CB762
330
BCD28CE5C6CB7FB
100
AcDbEntity
  8
TEXT
100
AcDbLine
 10
0.7645774516749553
 20
0.1950161186488366
 30
0.0
 11
0.6989773154306543
 21
0.1950161186488366
 31
0.0
  0
LINE
  5
BCD28CE5C6CB763
330
BCD28CE5C6CB7FB
100
AcDbEntity
  8
TEXT
100
AcDbLine
 10
0.6116525258699026
 20
0.0286245019277189
 30
0.0
 11
0.7645774516749553
 21
0.0286245019277189
 31
0.0
  0
LINE
  5
BCD28CE5C6CB764
330
BCD28CE5C6CB7FB
100
AcDbEntity
  8
TEXT
100
AcDbLine
 10
0.769517825581235
 20
0.0969815082611583
 30
0.0
 11
0.6116525258699009
 21
0.0969815082611583
 31
0.0
  0
LINE
  5
BCD28CE5C6CB765
330
BCD28CE5C6CB7FB
100
AcDbEntity
  8
TEXT
100
AcDbLine
 10
0.6937399853164062
 20
0.1309226160232229
 30
0.0
 11
0.769517825581235
 21
0.1309226160232229
 31
0.0
  0
ARC
  5
BCD28CE5C6CB766
330
BCD28CE5C6CB7FB
100
AcDbEntity
  8
TEXT
100
AcDbCircle
 10
0.6989773154306551
 20
0.2129184794541523
 30
0.0
 40
0.017902360805315
100
AcDbArc
 50
90.0
 51
270.0
  0
LINE
  5
BCD28CE5C6CB767
330
BCD28CE5C6CB7FB
100
AcDbEntity
  8
TEXT
100
AcDbLine
 10
0.6116525258699009
 20
0.0969815082611583
 30
0.0
 11
0.6116525258699026
 21
0.0286245019277189
 31
0.0
  0
LINE
  5
BCD28CE5C6CB768
330
BCD28CE5C6CB7FB
100
AcDbEntity
  8
TEXT
100
AcDbLine
 10
0.8658829694596255
 20
0.2308208402594645
 30
0.0
 11
0.8658829694596255
 21
0.0884168932657687
 31
0.0
  0
ARC
  5
BCD28CE5C6CB769
330
BCD28CE5C6CB7FB
100
AcDbEntity
  8
TEXT
100
AcDbCircle
 10
0.7645774516749562
 20
0.111820310288276
 30
0.0
 40
0.0831958083605586
100
AcDbArc
 50
270.0
 51
90.0
  0
ARC
  5
BCD28CE5C6CB76A
330
BCD28CE5C6CB7FB
100
AcDbEntity
  8
TEXT
100
AcDbCircle
 10
0.7695178255812359
 20
0.1139520621421923
 30
0.0
 40
0.0169705538810321
100
AcDbArc
 50
270.0
 51
90.0
  0
LWPOLYLINE
  5
BCD28CE5C6CB76B
330
BCD28CE5C6CB7FB
100
AcDbEntity
  8
TEXT
100
AcDbPolyline
 90
        2
 70
     0
 43
0.0006660908203125
 10
0.2756622899107519
 20
0.2684539021037324
 10
0.2756622899107519
 20
0.2950975349162335
  0
LWPOLYLINE
  5
BCD28CE5C6CB76F
330
BCD28CE5C6CB7FB
100
AcDbEntity
  8
TEXT
100
AcDbPolyline
 90
        2
 70
     0
 43
0.0006660908203125
 10
0.3156277391295035
 20
0.2684539021037324
 10
0.3156277391295035
 20
0.2950975349162335
  0
LINE
  5
BCD28CE5C6CB773
330
BCD28CE5C6CB7FB
100
AcDbEntity
  8
TEXT
100
AcDbLine
 10
0.8694717382149184
 20
0.2950975349162299
 30
0.0
 11
0.6937399853164062
 21
0.2950975349162299
 31
0.0
  0
LINE
  5
BCD28CE5C6CB774
330
BCD28CE5C6CB7FB
100
AcDbEntity
  8
TEXT
100
AcDbLine
 10
0.8694717382149184
 20
0.3294854525103681
 30
0.0
 11
0.8694717382149184
 21
0.2950975349162299
 31
0.0
  0
LINE
  5
BCD28CE5C6CB775
330
BCD28CE5C6CB7FB
100
AcDbEntity
  8
TEXT
100
AcDbLine
 10
1.05994363023477
 20
0.1942255388031093
 30
0.0
 11
1.001313309202832
 21
0.2950975349162299
 31
0.0
  0
LINE
  5
BCD28CE5C6CB776
330
BCD28CE5C6CB7FB
100
AcDbEntity
  8
TEXT
100
AcDbLine
 10
1.118692193040636
 20
0.2950975349162299
 30
0.0
 11
1.05994363023477
 21
0.1942255388031093
 31
0.0
  0
LINE
  5
BCD28CE5C6CB777
330
BCD28CE5C6CB7FB
100
AcDbEntity
  8
TEXT
100
AcDbLine
 10
1.215622818400377
 20
0.1110123400307181
 30
0.0
 11
1.215622818400377
 21
0.3631090126550405
 31
0.0
  0
LINE
  5
BCD28CE5C6CB778
330
BCD28CE5C6CB7FB
100
AcDbEntity
  8
TEXT
100
AcDbLine
 10
1.247934672538037
 20
0.2950975349162299
 30
0.0
 11
1.247934672538037
 21
0.0942333281838217
 31
0.0
  0
LINE
  5
BCD28CE5C6CB779
330
BCD28CE5C6CB7FB
100
AcDbEntity
  8
TEXT
100
AcDbLine
 10
1.247934672538037
 20
0.0942333281838217
 30
0.0
 11
1.230941035653436
 21
0.0942333281838217
 31
0.0
  0
LINE
  5
BCD28CE5C6CB77A
330
BCD28CE5C6CB7FB
100
AcDbEntity
  8
TEXT
100
AcDbLine
 10
1.216762391896572
 20
0.0286245019277189
 30
0.0
 11
1.314765725596006
 21
0.0286245019277189
 31
0.0
  0
LINE
  5
BCD28CE5C6CB77B
330
BCD28CE5C6CB7FB
100
AcDbEntity
  8
TEXT
100
AcDbLine
 10
1.050343393237816
 20
0.0485830080327319
 30
0.0
 11
1.14764309933126
 21
0.212933218968
 31
0.0
  0
ARC
  5
BCD28CE5C6CB77C
330
BCD28CE5C6CB7FB
100
AcDbEntity
  8
TEXT
100
AcDbCircle
 10
1.016299833325602
 20
0.0681722242014147
 30
0.0
 40
0.0392772371940762
100
AcDbArc
 50
270.1604552698595
 51
330.0831797321295
  0
LINE
  5
BCD28CE5C6CB77D
330
BCD28CE5C6CB7FB
100
AcDbEntity
  8
TEXT
100
AcDbLine
 10
0.9197695769397311
 20
0.0286245019277189
 30
0.0
 11
1.016409828014725
 21
0.0288951410260012
 31
0.0
  0
LWPOLYLINE
  5
BCD28CE5C6CB77E
330
BCD28CE5C6CB7FB
100
AcDbEntity
  8
TEXT
100
AcDbPolyline
 90
        6
 70
     1
 43
0.0
 10
0.9622933805148807
 20
0.2308208402594645
 10
0.9319767862946726
 20
0.2308208402594645
 10
0.9319767862946726
 20
0.1077098422045701
 42
0.407328721240804
 10
0.9435204374561489
 20
0.0958909275281841
 10
1.004142136500879
 20
0.0958909275281841
 10
1.021607476908197
 20
0.1287031565716632
  0
LINE
  5
BCD28CE5C6CB786
330
BCD28CE5C6CB7FB
100
AcDbEntity
  8
TEXT
100
AcDbLine
 10
1.14764309933126
 20
0.212933218968
 30
0.0
 11
1.14764309933126
 21
0.0801758441426437
 31
0.0
  0
ARC
  5
BCD28CE5C6CB787
330
BCD28CE5C6CB7FB
100
AcDbEntity
  8
TEXT
100
AcDbCircle
 10
1.230941035653434
 20
0.1096151344272471
 30
0.0
 40
0.0153818062434269
100
AcDbArc
 50
174.7883570302258
 51
270.0
  0
LWPOLYLINE
  5
BCD28CE5C6CB788
330
BCD28CE5C6CB7FB
100
AcDbEntity
  8
TEXT
100
AcDbPolyline
 90
        2
 70
     0
 43
0.0
 10
1.147643099331259
 20
0.0801758441426472
 42
0.3318488747599744
 10
1.216762391896572
 20
0.0286245019277189
 42
-6.868794160588311
  0
LINE
  5
BCD28CE5C6CB78C
330
BCD28CE5C6CB7FB
100
AcDbEntity
  8
TEXT
100
AcDbLine
 10
1.372154794585267
 20
0.0286245019277189
 30
0.0
 11
1.439212841367107
 21
0.0286245019277189
 31
0.0
  0
LINE
  5
BCD28CE5C6CB78D
330
BCD28CE5C6CB7FB
100
AcDbEntity
  8
TEXT
100
AcDbLine
 10
1.372154794585267
 20
0.2232670510933545
 30
0.0
 11
1.372154794585267
 21
0.0286245019277189
 31
0.0
  0
LINE
  5
BCD28CE5C6CB78E
330
BCD28CE5C6CB7FB
100
AcDbEntity
  8
TEXT
100
AcDbLine
 10
1.314765725596006
 20
0.2308208402594645
 30
0.0
 11
1.364601005419154
 21
0.2308208402594645
 31
0.0
  0
LINE
  5
BCD28CE5C6CB78F
330
BCD28CE5C6CB7FB
100
AcDbEntity
  8
TEXT
100
AcDbLine
 10
1.314765725596006
 20
0.0286245019277189
 30
0.0
 11
1.314765725596006
 21
0.2308208402594645
 31
0.0
  0
LWPOLYLINE
  5
BCD28CE5C6CB790
330
BCD28CE5C6CB7FB
100
AcDbEntity
  8
TEXT
100
AcDbPolyline
 90
        2
 70
     0
 43
0.0
 10
1.364601005419152
 20
0.2308208402594645
 42
-0.4142135623731017
 10
1.372154794585266
 20
0.2232670510933545
 42
-0.9999999999999998
  0
LINE
  5
BCD28CE5C6CB794
330
BCD28CE5C6CB7FB
100
AcDbEntity
  8
TEXT
100
AcDbLine
 10
1.570411006196837
 20
0.2308208402594645
 30
0.0
 11
1.570411006196837
 21
0.1557684341852579
 31
0.0
  0
LINE
  5
BCD28CE5C6CB795
330
BCD28CE5C6CB7FB
100
AcDbEntity
  8
TEXT
100
AcDbLine
 10
1.439212841367107
 20
0.2308208402594645
 30
0.0
 11
1.493346438288058
 21
0.2308208402594645
 31
0.0
  0
LINE
  5
BCD28CE5C6CB796
330
BCD28CE5C6CB7FB
100
AcDbEntity
  8
TEXT
100
AcDbLine
 10
1.439212841367107
 20
0.0286245019277189
 30
0.0
 11
1.439212841367107
 21
0.2308208402594645
 31
0.0
  0
LWPOLYLINE
  5
BCD28CE5C6CB797
330
BCD28CE5C6CB7FB
100
AcDbEntity
  8
TEXT
100
AcDbPolyline
 90
        2
 70
     0
 43
0.0
 10
1.493346438288056
 20
0.2308208402594645
 42
-0.4142135623731017
 10
1.500900227454169
 20
0.2232670510933545
 42
-0.9999999999999998
  0
LWPOLYLINE
  5
BCD28CE5C6CB79B
330
BCD28CE5C6CB7FB
100
AcDbEntity
  8
TEXT
100
AcDbPolyline
 90
        4
 70
     0
 43
0.0
 10
1.500900227454169
 20
0.2232670510933545
 10
1.500900227454169
 20
0.0286245019277189
 10
1.569378510742027
 20
0.0286245019277189
 10
1.569378510742027
 20
0.0721154468781571
 42
-1.714843617202739
  0
LINE
  5
BCD28CE5C6CB7A1
330
BCD28CE5C6CB7FB
100
AcDbEntity
  8
TEXT
100
AcDbLine
 10
0.9295143430589254
 20
0.2950975349162299
 30
0.0
 11
0.9295143430589254
 21
0.3294854525103681
 31
0.0
  0
LINE
  5
BCD28CE5C6CB7A2
330
BCD28CE5C6CB7FB
100
AcDbEntity
  8
TEXT
100
AcDbLine
 10
1.001313309202832
 20
0.2950975349162299
 30
0.0
 11
0.9295143430589254
 21
0.2950975349162299
 31
0.0
  0
LINE
  5
BCD28CE5C6CB7A3
330
BCD28CE5C6CB7FB
100
AcDbEntity
  8
TEXT
100
AcDbLine
 10
1.148814105834012
 20
0.2950975349162299
 30
0.0
 11
1.118692193040636
 21
0.2950975349162299
 31
0.0
  0
LINE
  5
BCD28CE5C6CB7A4
330
BCD28CE5C6CB7FB
100
AcDbEntity
  8
TEXT
100
AcDbLine
 10
1.148814105834012
 20
0.3631090126550405
 30
0.0
 11
1.148814105834012
 21
0.2950975349162299
 31
0.0
  0
LINE
  5
BCD28CE5C6CB7A5
330
BCD28CE5C6CB7FB
100
AcDbEntity
  8
TEXT
100
AcDbLine
 10
1.215622818400377
 20
0.3631090126550405
 30
0.0
 11
1.148814105834012
 21
0.3631090126550405
 31
0.0
  0
LWPOLYLINE
  5
BCD28CE5C6CB7A6
330
BCD28CE5C6CB7FB
100
AcDbEntity
  8
TEXT
100
AcDbPolyline
 90
        3
 70
     0
 43
0.0
 10
1.536034577998379
 20
0.2950975349162335
 10
1.417734419182335
 20
0.2950975349162335
 10
1.417734419182335
 20
0.2679300381553376
 42
-1.960274751411753
  0
LINE
  5
BCD28CE5C6CB7AB
330
BCD28CE5C6CB7FB
100
AcDbEntity
  8
TEXT
100
AcDbLine
 10
1.381952728469173
 20
0.2950975349162299
 30
0.0
 11
1.247934672538037
 21
0.2950975349162299
 31
0.0
  0
LWPOLYLINE
  5
BCD28CE5C6CB7AC
330
BCD28CE5C6CB7FB
100
AcDbEntity
  8
TEXT
100
AcDbPolyline
 90
        2
 70
     0
 43
0.0
 10
1.381952728469173
 20
0.2950975349162335
 42
-0.3328679258950098
 10
1.417734419182335
 20
0.2679300381553376
 42
6.772930709997214
  0
LINE
  5
BCD28CE5C6CB7B0
330
BCD28CE5C6CB7FB
100
AcDbEntity
  8
TEXT
100
AcDbLine
 10
1.571816268711546
 20
0.2950975349162299
 30
0.0
 11
1.571816268711546
 21
0.266774989146586
 31
0.0
  0
LWPOLYLINE
  5
BCD28CE5C6CB7B1
330
BCD28CE5C6CB7FB
100
AcDbEntity
  8
TEXT
100
AcDbPolyline
 90
        2
 70
     0
 43
0.0
 10
1.536034577998379
 20
0.2950975349162335
 42
-0.3277054968067132
 10
1.571816268711544
 20
0.2667749891465896
 42
6.667889725900311
  0
LINE
  5
BCD28CE5C6CB7B5
330
BCD28CE5C6CB7FB
100
AcDbEntity
  8
TEXT
100
AcDbLine
 10
1.785608116803646
 20
0.1898855563628026
 30
0.0
 11
1.741857345621744
 21
0.2721358323589478
 31
0.0
  0
LINE
  5
BCD28CE5C6CB7B6
330
BCD28CE5C6CB7FB
100
AcDbEntity
  8
TEXT
100
AcDbLine
 10
1.785608116803646
 20
0.2950975349162299
 30
0.0
 11
1.785608116803646
 21
0.1898855563628026
 31
0.0
  0
LINE
  5
BCD28CE5C6CB7B7
330
BCD28CE5C6CB7FB
100
AcDbEntity
  8
TEXT
100
AcDbLine
 10
2.013291855742015
 20
0.2192322085046918
 30
0.0
 11
2.013291855742015
 21
0.3605617406838306
 31
0.0
  0
LINE
  5
BCD28CE5C6CB7B8
330
BCD28CE5C6CB7FB
100
AcDbEntity
  8
TEXT
100
AcDbLine
 10
2.060390014298
 20
0.2950975349162299
 30
0.0
 11
2.013291855742015
 21
0.2192322085046918
 31
0.0
  0
LINE
  5
BCD28CE5C6CB7B9
330
BCD28CE5C6CB7FB
100
AcDbEntity
  8
TEXT
100
AcDbLine
 10
2.070824731061922
 20
0.1852042919752563
 30
0.0
 11
2.135381847027628
 21
0.2950975349162299
 31
0.0
  0
LINE
  5
BCD28CE5C6CB7BA
330
BCD28CE5C6CB7FB
100
AcDbEntity
  8
TEXT
100
AcDbLine
 10
1.949456864519242
 20
0.0286245019277189
 30
0.0
 11
2.013835048837862
 21
0.0286245019277189
 31
0.0
  0
LWPOLYLINE
  5
BCD28CE5C6CB7BB
330
BCD28CE5C6CB7FB
100
AcDbEntity
  8
TEXT
100
AcDbPolyline
 90
        2
 70
     0
 43
0.0
 10
1.789547794108684
 20
0.0721154468781571
 42
-0.2901071551932486
 10
1.746471861241039
 20
0.0286245019277189
 42
-5.328517124445184
  0
ARC
  5
BCD28CE5C6CB7BF
330
BCD28CE5C6CB7FB
100
AcDbEntity
  8
TEXT
100
AcDbCircle
 10
1.677617279584125
 20
0.2024614652594672
 30
0.0
 40
0.028359375
100
AcDbArc
 50
25.78218179591245
 51
90.0
  0
LINE
  5
BCD28CE5C6CB7C0
330
BCD28CE5C6CB7FB
100
AcDbEntity
  8
TEXT
100
AcDbLine
 10
1.713418354888248
 20
0.1935458667973322
 30
0.0
 11
1.703153594474684
 21
0.2147964063700265
 31
0.0
  0
LINE
  5
BCD28CE5C6CB7C1
330
BCD28CE5C6CB7FB
100
AcDbEntity
  8
TEXT
100
AcDbLine
 10
1.631130365104865
 20
0.1935458667973322
 30
0.0
 11
1.713418354888248
 21
0.1935458667973322
 31
0.0
  0
LWPOLYLINE
  5
BCD28CE5C6CB7C2
330
BCD28CE5C6CB7FB
100
AcDbEntity
  8
TEXT
100
AcDbPolyline
 90
        4
 70
     1
 43
0.0
 10
1.726349396171147
 20
0.1315884799117442
 10
1.637689077511288
 20
0.1315884799117442
 42
0.9999999999999998
 10
1.637689077511288
 20
0.0891899394078835
 10
1.726349396171147
 20
0.0891899394078835
 42
1.0
  0
LWPOLYLINE
  5
BCD28CE5C6CB7C8
330
BCD28CE5C6CB7FB
100
AcDbEntity
  8
TEXT
100
AcDbPolyline
 90
        2
 70
     0
 43
0.0
 10
1.612454443609663
 20
0.0286245019277189
 10
1.746471861241039
 20
0.0286245019277189
 42
0.9999999999999998
  0
LINE
  5
BCD28CE5C6CB7CC
330
BCD28CE5C6CB7FB
100
AcDbEntity
  8
TEXT
100
AcDbLine
 10
1.872808883226679
 20
0.2308208402594645
 30
0.0
 11
1.949456864519237
 21
0.2308208402594645
 31
0.0
  0
LINE
  5
BCD28CE5C6CB7CD
330
BCD28CE5C6CB7FB
100
AcDbEntity
  8
TEXT
100
AcDbLine
 10
1.949456864519237
 20
0.2308208402594645
 30
0.0
 11
1.949456864519242
 21
0.0286245019277189
 31
0.0
  0
ARC
  5
BCD28CE5C6CB7CE
330
BCD28CE5C6CB7FB
100
AcDbEntity
  8
TEXT
100
AcDbCircle
 10
1.872808883226677
 20
0.2059149649768017
 30
0.0
 40
0.0249058752826653
100
AcDbArc
 50
89.99971217465335
 51
179.9999999999985
  0
LINE
  5
BCD28CE5C6CB7CF
330
BCD28CE5C6CB7FB
100
AcDbEntity
  8
TEXT
100
AcDbLine
 10
1.84790300794402
 20
0.0286245019277189
 30
0.0
 11
1.847903007944014
 21
0.2059150073591873
 31
0.0
  0
LWPOLYLINE
  5
BCD28CE5C6CB7D0
330
BCD28CE5C6CB7FB
100
AcDbEntity
  8
TEXT
100
AcDbPolyline
 90
        2
 70
     0
 43
0.0
 10
1.789547794108684
 20
0.0286245019277189
 10
1.847903007944018
 20
0.0286245019277189
  0
LWPOLYLINE
  5
BCD28CE5C6CB7D4
330
BCD28CE5C6CB7FB
100
AcDbEntity
  8
TEXT
100
AcDbPolyline
 90
        2
 70
     0
 43
0.0
 10
1.789547794108684
 20
0.0721154468781571
 10
1.789547794108684
 20
0.0286245019277189
  0
LINE
  5
BCD28CE5C6CB7D8
330
BCD28CE5C6CB7FB
100
AcDbEntity
  8
TEXT
100
AcDbLine
 10
2.166316954425533
 20
0.0286245019277189
 30
0.0
 11
2.070824731061922
 21
0.1852042919752563
 31
0.0
  0
LINE
  5
BCD28CE5C6CB7D9
330
BCD28CE5C6CB7FB
100
AcDbEntity
  8
TEXT
100
AcDbLine
 10
2.089738582049327
 20
0.0286245019277189
 30
0.0
 11
2.166316954425533
 21
0.0286245019277189
 31
0.0
  0
LINE
  5
BCD28CE5C6CB7DA
330
BCD28CE5C6CB7FB
100
AcDbEntity
  8
TEXT
100
AcDbLine
 10
2.013835048837862
 20
0.1602040704038992
 30
0.0
 11
2.089738582049327
 21
0.0286245019277189
 31
0.0
  0
LINE
  5
BCD28CE5C6CB7DB
330
BCD28CE5C6CB7FB
100
AcDbEntity
  8
TEXT
100
AcDbLine
 10
2.013835048837862
 20
0.0286245019277189
 30
0.0
 11
2.013835048837862
 21
0.1602040704038992
 31
0.0
  0
LINE
  5
BCD28CE5C6CB7DC
330
BCD28CE5C6CB7FB
100
AcDbEntity
  8
TEXT
100
AcDbLine
 10
2.013291855742015
 20
0.3605617406838306
 30
0.0
 11
1.944976977192742
 21
0.3605617406838306
 31
0.0
  0
ARC
  5
BCD28CE5C6CB7DD
330
BCD28CE5C6CB7FB
100
AcDbEntity
  8
TEXT
100
AcDbCircle
 10
1.704621238151536
 20
0.2535139677953275
 30
0.0
 40
0.0416329381542859
100
AcDbArc
 50
26.56974201007528
 51
87.20939649401342
  0
LINE
  5
BCD28CE5C6CB7DE
330
BCD28CE5C6CB7FB
100
AcDbEntity
  8
TEXT
100
AcDbLine
 10
1.849505023103147
 20
0.2950975349162299
 30
0.0
 11
1.785608116803646
 21
0.2950975349162299
 31
0.0
  0
LINE
  5
BCD28CE5C6CB7DF
330
BCD28CE5C6CB7FB
100
AcDbEntity
  8
TEXT
100
AcDbLine
 10
1.849505023103147
 20
0.2675498850553553
 30
0.0
 11
1.849505023103147
 21
0.2950975349162299
 31
0.0
  0
ARC
  5
BCD28CE5C6CB7E0
330
BCD28CE5C6CB7FB
100
AcDbEntity
  8
TEXT
100
AcDbCircle
 10
1.880697840166255
 20
0.2638518076339651
 30
0.0
 40
0.0314112657011332
100
AcDbArc
 50
95.88484768694724
 51
173.2388340632136
  0
LINE
  5
BCD28CE5C6CB7E1
330
BCD28CE5C6CB7FB
100
AcDbEntity
  8
TEXT
100
AcDbLine
 10
1.944976977192736
 20
0.2950975349162299
 30
0.0
 11
1.87747725954322
 21
0.2950975349162299
 31
0.0
  0
LINE
  5
BCD28CE5C6CB7E2
330
BCD28CE5C6CB7FB
100
AcDbEntity
  8
TEXT
100
AcDbLine
 10
1.944976977192742
 20
0.3605617406838306
 30
0.0
 11
1.944976977192736
 21
0.2950975349162299
 31
0.0
  0
LINE
  5
BCD28CE5C6CB7E3
330
BCD28CE5C6CB7FB
100
AcDbEntity
  8
TEXT
100
AcDbLine
 10
2.135381847027628
 20
0.2950975349162299
 30
0.0
 11
2.060390014298001
 21
0.2950975349162299
 31
0.0
  0
INSERT
  5
BCD28CE5C6CB816
330
BCD28CE5C6CB7FB
100
AcDbEntity
  8
ASHADE
 62
     1
100
AcDbBlockReference
  2
AVE_RENDER
 10
0.0
 20
0.0
 30
0.0
1001
AVE_RENDER
1002
{
1070
     6
1000
Pref
1070
    30
1070
    20
1070
     1
1070
     0
1000

1070
    10
1070
     1
1070
    30
1040
1.0
1070
     1
1040
0.3
1040
0.7
1040
0.0
1040
10.0
1010
-1.0
1020
-1.0
1030
-1.0
1040
0.3
1070
    49
1070
     0
1070
     0
1010
1.0
1020
1.0
1030
1.0
1040
45.0
1070
     1
1070
     0
1000
WCS
1040
0.0
1002
}
  0
INSERT
  5
BCD28CE5C6CB817
330
BCD28CE5C6CB7FB
100
AcDbEntity
  8
ASHADE
 62
     3
100
AcDbBlockReference
  2
AVE_RENDER
 10
0.0
 20
0.0
 30
0.0
1001
AVE_RENDER
1002
{
1070
     0
1000
Full Opt
1070
     0
1070
     1
1070
     1
1070
     1
1070
     0
1070
     0
1070
     0
1070
     1
1070
     1
1040
0.0001
1040
0.0001
1002
}
  0
INSERT
  5
BCD28CE5C6CB818
330
BCD28CE5C6CB7FB
100
AcDbEntity
  8
ASHADE
 62
     4
100
AcDbBlockReference
  2
AVE_RENDER
 10
0.0
 20
0.0
 30
0.0
1001
AVE_RENDER
1002
{
1070
     0
1000
Quick Opt
1070
     0
1070
     1
1070
     1
1070
     1
1070
     0
1070
     0
1070
     1
1002
}
  0
INSERT
  5
BCD28CE5C6CB819
330
BCD28CE5C6CB7FB
100
AcDbEntity
  8
ASHADE
 62
     5
100
AcDbBlockReference
  2
AVE_RENDER
 10
0.0
 20
0.0
 30
0.0
1001
AVE_RENDER
1002
{
1070
     1
1000
Scanl Opt
1070
     2
1070
     0
1070
     2
1040
2.0
1040
4.0
1070
     0
1070
     1
1070
     0
1040
0.03
1002
}
  0
INSERT
  5
BCD28CE5C6CB81A
330
BCD28CE5C6CB7FB
100
AcDbEntity
  8
ASHADE
 62
     6
100
AcDbBlockReference
  2
AVE_RENDER
 10
0.0
 20
0.0
 30
0.0
1001
AVE_RENDER
1002
{
1070
     2
1000
Raytr Opt
1070
     2
1070
     0
1070
     2
1040
2.0
1040
4.0
1070
     0
1070
     1
1070
     1
1040
0.03
1070
     3
1040
0.03
1002
}
  0
INSERT
  5
BCD28CE5C6CB81B
330
BCD28CE5C6CB7FB
100
AcDbEntity
  8
ASHADE
 62
     7
100
AcDbBlockReference
  2
AVE_RENDER
 10
0.0
 20
0.0
 30
0.0
1001
AVE_RENDER
1002
{
1070
     0
1000
RFile Opt
1070
     5
1070
   640
1070
   480
1070
 10000
1070
     3
1070
    32
1070
    24
1070
     0
1070
     0
1070
     0
1070
     1
1070
     0
1070
     0
1070
     0
1002
}
  0
INSERT
  5
BCD28CE5C6CB81C
330
BCD28CE5C6CB7FB
100
AcDbEntity
  8
ASHADE
 62
     8
100
AcDbBlockReference
  2
AVE_RENDER
 10
0.0
 20
0.0
 30
0.0
1001
AVE_RENDER
1002
{
1070
     0
1000
Fog Opt
1070
     0
1070
     0
1040
0.0
1040
1.0
1040
0.0
1040
1.0
1010
0.5
1020
0.5
1030
0.5
1002
}
  0
INSERT
  5
BCD28CE5C6CB81D
330
BCD28CE5C6CB7FB
100
AcDbEntity
  8
ASHADE
 62
     9
100
AcDbBlockReference
  2
AVE_RENDER
 10
0.0
 20
0.0
 30
0.0
1001
AVE_RENDER
1002
{
1070
     0
1000
BG Opt
1070
     0
1070
     1
1010
0.0
1020
0.0
1030
0.0
1010
1.0
1020
0.0
1030
0.0
1010
0.0
1020
1.0
1030
0.0
1010
0.0
1020
0.0
1030
1.0
1040
0.5
1040
0.33
1040
0.0
1000

1070
     1
1000

1070
     1
1070
     1
1040
1.0
1040
1.0
1040
0.0
1040
0.0
1070
     0
1002
}
  0
INSERT
  5
BCD28CE5C6CB824
330
BCD28CE5C6CB7FB
100
AcDbEntity
  8
ASHADE
 62
     1
100
AcDbBlockReference
  2
AVE_GLOBAL
 10
0.0
 20
0.0
 30
0.0
1001
AVE_MATERIAL
1002
{
1000
*GLOBAL*
1000
1
1000
Global finish.
1002
{
1002
}
1002
{
1070
    63
1002
{
1002
{
1010
-1.0
1020
-1.0
1030
-1.0
1002
}
1040
0.1000000014901161
1000

1040
0.0
1002
{
1002
}
1040
0.0
1002
{
1002
}
1040
0.0
1002
}
1002
{
1002
{
1010
-1.0
1020
-1.0
1030
-1.0
1002
}
1040
0.6999999880790711
1000

1040
0.0
1002
{
1002
}
1040
0.0
1002
{
1002
}
1040
0.0
1002
}
1002
{
1002
{
1010
-1.0
1020
-1.0
1030
-1.0
1002
}
1040
0.2000000029802322
1000

1040
0.0
1002
{
1002
}
1040
0.0
1002
{
1002
}
1040
0.0
1002
}
1002
{
1070
     0
1002
{
1070
     1
1002
{
1040
1.0
1040
1.0
1000

1040
0.0
1002
{
1002
}
1040
0.0
1002
{
1002
}
1040
0.0
1002
}
1002
}
1040
1.0
1040
0.0
1040
0.0
1002
}
1002
{
1040
1.0
1040
1.0
1000

1040
0.0
1002
{
1002
}
1040
0.0
1002
{
1002
}
1040
0.0
1002
}
1002
{
1040
0.5
1040
1.0
1000

1040
0.0
1002
{
1002
}
1040
0.0
1002
{
1002
}
1040
0.0
1002
}
1002
{
1070
     0
1040
0.0
1002
{
1002
}
1040
1.0
1002
{
1002
}
1040
0.0
1002
}
1002
{
1040
0.0
1002
{
1002
{
1010
0.0
1020
0.0
1030
0.0
1002
}
1040
1.0
1000

1040
0.0
1002
{
1002
}
1040
0.0
1002
{
1002
}
1040
0.0
1002
}
1002
}
1002
{
1002
{
1070
     1
1002
{
1040
0.0
1040
1.0
1000

1040
0.0
1002
{
1002
}
1040
0.0
1002
{
1002
}
1040
0.0
1002
}
1002
}
1040
0.0
1002
{
1002
}
1010
1.0
1020
0.0
1030
0.0
1010
0.0
1020
1.0
1030
0.0
1010
0.0
1020
0.0
1030
1.0
1070
     0
1002
}
1002
{
1002
{
1040
1.0
1040
1.0
1002
{
1070
     1
1002
{
1040
1.0
1040
1.0
1000

1040
0.0
1002
{
1002
}
1040
0.0
1002
{
1002
}
1040
0.0
1002
}
1002
}
1002
}
1070
     0
1040
0.0
1002
{
1002
}
1002
}
1002
{
1002
}
1002
}
1002
{
1071
        3
1070
     3
1070
     0
1002
{
1070
     2
1070
     0
1070
     0
1040
0.0
1002
}
1070
     0
1070
     2
1002
{
1002
}
1002
}
1002
{
1040
8030.0
1040
190.3000030517578
1040
0.3050000071525574
1040
228.0
1040
545.0
1040
14.0
1040
17.39999961853027
1040
0.4560000002384186
1002
}
1002
}
  0
ENDSEC
  0
SECTION
  2
OBJECTS
  0
DICTIONARY
  5
BCD28CE5C6CB7EF
330
0
100
AcDbDictionary
  3
ACAD_GROUP
350
BCD28CE5C6CB7F0
  3
ACAD_LAYOUT
350
BCD28CE5C6CB830
  3
ACAD_MLINESTYLE
350
BCD28CE5C6CB7F1
  3
ACAD_PLOTSETTINGS
350
BCD28CE5C6CB831
  3
ACAD_PLOTSTYLENAME
350
BCD28CE5C6CB82E
  3
ACDBHEADERROUNDTRIPXREC
350
BCD28CE5C6CB83B
  3
ACDBVARIABLEDICTIONARY
350
BCD28CE5C6CB838
  0
DICTIONARY
  5
BCD28CE5C6CB85D
330
BCD28CE5C6CB7FB
100
AcDbDictionary
280
     1
  3
ACAD_LAYOUTSELFREF
360
BCD28CE5C6CB85E
  0
DICTIONARY
  5
BCD28CE5C6CB85B
330
BCD28CE5C6CB7F8
100
AcDbDictionary
280
     1
  3
ACAD_LAYOUTSELFREF
360
BCD28CE5C6CB85C
  0
DICTIONARY
  5
BCD28CE5C6CB7F0
102
{ACAD_REACTORS
330
BCD28CE5C6CB7EF
102
}
330
BCD28CE5C6CB7EF
100
AcDbDictionary
  0
DICTIONARY
  5
BCD28CE5C6CB830
102
{ACAD_REACTORS
330
BCD28CE5C6CB7EF
102
}
330
BCD28CE5C6CB7EF
100
AcDbDictionary
  0
DICTIONARY
  5
BCD28CE5C6CB7F1
102
{ACAD_REACTORS
330
BCD28CE5C6CB7EF
102
}
330
BCD28CE5C6CB7EF
100
AcDbDictionary
  3
STANDARD
350
BCD28CE5C6CB7FE
  0
DICTIONARY
  5
BCD28CE5C6CB831
102
{ACAD_REACTORS
330
BCD28CE5C6CB7EF
102
}
330
BCD28CE5C6CB7EF
100
AcDbDictionary
  0
ACDBDICTIONARYWDFLT
  5
BCD28CE5C6CB82E
102
{ACAD_REACTORS
330
BCD28CE5C6CB7EF
102
}
330
BCD28CE5C6CB7EF
100
AcDbDictionary
281
     1
  3
Normal
350
BCD28CE5C6CB82F
100
AcDbDictionaryWithDefault
340
BCD28CE5C6CB82F
  0
DICTIONARY
  5
BCD28CE5C6CB83B
102
{ACAD_REACTORS
330
BCD28CE5C6CB7EF
102
}
330
BCD28CE5C6CB7EF
100
AcDbDictionary
  3
CEPSNTYPE
350
BCD28CE5C6CB845
  3
FINGERPRINTGUID
350
BCD28CE5C6CB846
  3
HYPERLINKBASE
350
BCD28CE5C6CB83E
  3
INSUNITS
350
BCD28CE5C6CB844
  3
LAYOUTDICT
350
BCD28CE5C6CB840
  3
LWETCUNION
350
BCD28CE5C6CB843
  3
PLOTSETDICT
350
BCD28CE5C6CB841
  3
PLOTSTYLNAMDICT
350
BCD28CE5C6CB842
  3
PSVPSCALE
350
BCD28CE5C6CB848
  3
PUCSBASE
350
BCD28CE5C6CB84B
  3
PUCSORGBACK
350
BCD28CE5C6CB851
  3
PUCSORGBOTTOM
350
BCD28CE5C6CB84D
  3
PUCSORGFRONT
350
BCD28CE5C6CB850
  3
PUCSORGLEFT
350
BCD28CE5C6CB84E
  3
PUCSORGRIGHT
350
BCD28CE5C6CB84F
  3
PUCSORGTOP
350
BCD28CE5C6CB84C
  3
PUCSORTHOREF
350
BCD28CE5C6CB849
  3
PUCSORTHOVIEW
350
BCD28CE5C6CB84A
  3
STYLESHEET
350
BCD28CE5C6CB83F
  3
TSTACKALIGN
350
BCD28CE5C6CB83C
  3
TSTACKSIZE
350
BCD28CE5C6CB83D
  3
UCSBASE
350
BCD28CE5C6CB854
  3
UCSORGBACK
350
BCD28CE5C6CB85A
  3
UCSORGBOTTOM
350
BCD28CE5C6CB856
  3
UCSORGFRONT
350
BCD28CE5C6CB859
  3
UCSORGLEFT
350
BCD28CE5C6CB857
  3
UCSORGRIGHT
350
BCD28CE5C6CB858
  3
UCSORGTOP
350
BCD28CE5C6CB855
  3
UCSORTHOREF
350
BCD28CE5C6CB852
  3
UCSORTHOVIEW
350
BCD28CE5C6CB853
  3
VERSIONGUID
350
BCD28CE5C6CB847
  0
DICTIONARY
  5
BCD28CE5C6CB838
102
{ACAD_REACTORS
330
BCD28CE5C6CB7EF
102
}
330
BCD28CE5C6CB7EF
100
AcDbDictionary
  3
DIMASSOC
350
BCD28CE5C6CB839
  0
XRECORD
  5
BCD28CE5C6CB85E
102
{ACAD_REACTORS
330
BCD28CE5C6CB85D
102
}
330
BCD28CE5C6CB85D
100
AcDbXrecord
340
BCD28CE5C6CB7FB
  0
XRECORD
  5
BCD28CE5C6CB85C
102
{ACAD_REACTORS
330
BCD28CE5C6CB85B
102
}
330
BCD28CE5C6CB85B
100
AcDbXrecord
340
BCD28CE5C6CB7F8
  0
MLINESTYLE
  5
BCD28CE5C6CB7FE
102
{ACAD_REACTORS
330
BCD28CE5C6CB7F1
102
}
330
BCD28CE5C6CB7F1
100
AcDbMlineStyle
  2
STANDARD
 70
     0
  3

 62
     0
 51
90.0
 52
90.0
 71
     2
 49
0.5
 62
   256
  6
BYLAYER
 49
-0.5
 62
   256
  6
BYLAYER
  0
ACDBPLACEHOLDER
  5
BCD28CE5C6CB82F
102
{ACAD_REACTORS
330
BCD28CE5C6CB82E
102
}
330
BCD28CE5C6CB82E
100
AcDbPlaceHolder
280
     0
  0
XRECORD
  5
BCD28CE5C6CB845
102
{ACAD_REACTORS
330
BCD28CE5C6CB83B
102
}
330
BCD28CE5C6CB83B
100
AcDbXrecord
 90
        0
  0
XRECORD
  5
BCD28CE5C6CB846
102
{ACAD_REACTORS
330
BCD28CE5C6CB83B
102
}
330
BCD28CE5C6CB83B
100
AcDbXrecord
  1
{00CF35E0-8DB6-11D6-88E6-0090279574E7}
  0
XRECORD
  5
BCD28CE5C6CB83E
102
{ACAD_REACTORS
330
BCD28CE5C6CB83B
102
}
330
BCD28CE5C6CB83B
100
AcDbXrecord
  1

  0
XRECORD
  5
BCD28CE5C6CB844
102
{ACAD_REACTORS
330
BCD28CE5C6CB83B
102
}
330
BCD28CE5C6CB83B
100
AcDbXrecord
 90
        0
  0
XRECORD
  5
BCD28CE5C6CB840
102
{ACAD_REACTORS
330
BCD28CE5C6CB83B
102
}
330
BCD28CE5C6CB83B
100
AcDbXrecord
340
BCD28CE5C6CB830
  0
XRECORD
  5
BCD28CE5C6CB843
102
{ACAD_REACTORS
330
BCD28CE5C6CB83B
102
}
330
BCD28CE5C6CB83B
100
AcDbXrecord
 90
    14877
  0
XRECORD
  5
BCD28CE5C6CB841
102
{ACAD_REACTORS
330
BCD28CE5C6CB83B
102
}
330
BCD28CE5C6CB83B
100
AcDbXrecord
340
BCD28CE5C6CB831
  0
XRECORD
  5
BCD28CE5C6CB842
102
{ACAD_REACTORS
330
BCD28CE5C6CB83B
102
}
330
BCD28CE5C6CB83B
100
AcDbXrecord
340
BCD28CE5C6CB82E
  0
XRECORD
  5
BCD28CE5C6CB848
102
{ACAD_REACTORS
330
BCD28CE5C6CB83B
102
}
330
BCD28CE5C6CB83B
100
AcDbXrecord
 40
0.0
  0
XRECORD
  5
BCD28CE5C6CB84B
102
{ACAD_REACTORS
330
BCD28CE5C6CB83B
102
}
330
BCD28CE5C6CB83B
100
AcDbXrecord
340
0
  0
XRECORD
  5
BCD28CE5C6CB851
102
{ACAD_REACTORS
330
BCD28CE5C6CB83B
102
}
330
BCD28CE5C6CB83B
100
AcDbXrecord
 10
0.0
 20
0.0
 30
0.0
  0
XRECORD
  5
BCD28CE5C6CB84D
102
{ACAD_REACTORS
330
BCD28CE5C6CB83B
102
}
330
BCD28CE5C6CB83B
100
AcDbXrecord
 10
0.0
 20
0.0
 30
0.0
  0
XRECORD
  5
BCD28CE5C6CB850
102
{ACAD_REACTORS
330
BCD28CE5C6CB83B
102
}
330
BCD28CE5C6CB83B
100
AcDbXrecord
 10
0.0
 20
0.0
 30
0.0
  0
XRECORD
  5
BCD28CE5C6CB84E
102
{ACAD_REACTORS
330
BCD28CE5C6CB83B
102
}
330
BCD28CE5C6CB83B
100
AcDbXrecord
 10
0.0
 20
0.0
 30
0.0
  0
XRECORD
  5
BCD28CE5C6CB84F
102
{ACAD_REACTORS
330
BCD28CE5C6CB83B
102
}
330
BCD28CE5C6CB83B
100
AcDbXrecord
 10
0.0
 20
0.0
 30
0.0
  0
XRECORD
  5
BCD28CE5C6CB84C
102
{ACAD_REACTORS
330
BCD28CE5C6CB83B
102
}
330
BCD28CE5C6CB83B
100
AcDbXrecord
 10
0.0
 20
0.0
 30
0.0
  0
XRECORD
  5
BCD28CE5C6CB849
102
{ACAD_REACTORS
330
BCD28CE5C6CB83B
102
}
330
BCD28CE5C6CB83B
100
AcDbXrecord
340
0
  0
XRECORD
  5
BCD28CE5C6CB84A
102
{ACAD_REACTORS
330
BCD28CE5C6CB83B
102
}
330
BCD28CE5C6CB83B
100
AcDbXrecord
 70
     0
  0
XRECORD
  5
BCD28CE5C6CB83F
102
{ACAD_REACTORS
330
BCD28CE5C6CB83B
102
}
330
BCD28CE5C6CB83B
100
AcDbXrecord
  1

  0
XRECORD
  5
BCD28CE5C6CB83C
102
{ACAD_REACTORS
330
BCD28CE5C6CB83B
102
}
330
BCD28CE5C6CB83B
100
AcDbXrecord
 90
        1
  0
XRECORD
  5
BCD28CE5C6CB83D
102
{ACAD_REACTORS
330
BCD28CE5C6CB83B
102
}
330
BCD28CE5C6CB83B
100
AcDbXrecord
 90
       70
  0
XRECORD
  5
BCD28CE5C6CB854
102
{ACAD_REACTORS
330
BCD28CE5C6CB83B
102
}
330
BCD28CE5C6CB83B
100
AcDbXrecord
340
0
  0
XRECORD
  5
BCD28CE5C6CB85A
102
{ACAD_REACTORS
330
BCD28CE5C6CB83B
102
}
330
BCD28CE5C6CB83B
100
AcDbXrecord
 10
0.0
 20
0.0
 30
0.0
  0
XRECORD
  5
BCD28CE5C6CB856
102
{ACAD_REACTORS
330
BCD28CE5C6CB83B
102
}
330
BCD28CE5C6CB83B
100
AcDbXrecord
 10
0.0
 20
0.0
 30
0.0
  0
XRECORD
  5
BCD28CE5C6CB859
102
{ACAD_REACTORS
330
BCD28CE5C6CB83B
102
}
330
BCD28CE5C6CB83B
100
AcDbXrecord
 10
0.0
 20
0.0
 30
0.0
  0
XRECORD
  5
BCD28CE5C6CB857
102
{ACAD_REACTORS
330
BCD28CE5C6CB83B
102
}
330
BCD28CE5C6CB83B
100
AcDbXrecord
 10
0.0
 20
0.0
 30
0.0
  0
XRECORD
  5
BCD28CE5C6CB858
102
{ACAD_REACTORS
330
BCD28CE5C6CB83B
102
}
330
BCD28CE5C6CB83B
100
AcDbXrecord
 10
0.0
 20
0.0
 30
0.0
  0
XRECORD
  5
BCD28CE5C6CB855
102
{ACAD_REACTORS
330
BCD28CE5C6CB83B
102
}
330
BCD28CE5C6CB83B
100
AcDbXrecord
 10
0.0
 20
0.0
 30
0.0
  0
XRECORD
  5
BCD28CE5C6CB852
102
{ACAD_REACTORS
330
BCD28CE5C6CB83B
102
}
330
BCD28CE5C6CB83B
100
AcDbXrecord
340
0
  0
XRECORD
  5
BCD28CE5C6CB853
102
{ACAD_REACTORS
330
BCD28CE5C6CB83B
102
}
330
BCD28CE5C6CB83B
100
AcDbXrecord
 70
     0
  0
XRECORD
  5
BCD28CE5C6CB847
102
{ACAD_REACTORS
330
BCD28CE5C6CB83B
102
}
330
BCD28CE5C6CB83B
100
AcDbXrecord
  1
{00CF35E2-8DB6-11D6-88E6-0090279574E7}
  0
DICTIONARYVAR
  5
BCD28CE5C6CB839
102
{ACAD_REACTORS
330
BCD28CE5C6CB838
102
}
330
BCD28CE5C6CB838
100
DictionaryVariables
280
     0
  1
1
  0
ENDSEC
  0
EOF
