  0
SECTION
  2
HEADER
  9
$ACADVER
  1
AC1014
  9
$ACADMAINTVER
 70
     9
  9
$DWGCODEPAGE
  3
ANSI_1252
  9
$INSBASE
 10
5.257471717965596
 20
5.538976771421825
 30
0.0
  9
$EXTMIN
 10
3.385067199757533
 20
3.602584329557993
 30
0.0
  9
$EXTMAX
 10
6.870286521504668
 20
6.428069730917222
 30
0.0
  9
$LIMMIN
 10
0.0
 20
0.0
  9
$LIMMAX
 10
18.0
 20
12.0
  9
$ORTHOMODE
 70
     1
  9
$REGENMODE
 70
     1
  9
$FILLMODE
 70
     1
  9
$QTEXTMODE
 70
     0
  9
$MIRRTEXT
 70
     0
  9
$DRAGMODE
 70
     2
  9
$LTSCALE
 40
1.0
  9
$OSMODE
 70
    39
  9
$ATTMODE
 70
     1
  9
$TEXTSIZE
 40
0.125
  9
$TRACEWID
 40
0.05
  9
$TEXTSTYLE
  7
ROMANS
  9
$CLAYER
  8
0
  9
$CELTYPE
  6
BYLAYER
  9
$CECOLOR
 62
   256
  9
$CELTSCALE
 40
1.0
  9
$DELOBJ
 70
     1
  9
$DISPSILH
 70
     1
  9
$DIMSCALE
 40
1.0
  9
$DIMASZ
 40
0.125
  9
$DIMEXO
 40
0.125
  9
$DIMDLI
 40
0.375
  9
$DIMRND
 40
0.0
  9
$DIMDLE
 40
0.0
  9
$DIMEXE
 40
0.125
  9
$DIMTP
 40
0.0
  9
$DIMTM
 40
0.0
  9
$DIMTXT
 40
0.125
  9
$DIMCEN
 40
-0.125
  9
$DIMTSZ
 40
0.0
  9
$DIMTOL
 70
     0
  9
$DIMLIM
 70
     0
  9
$DIMTIH
 70
     1
  9
$DIMTOH
 70
     1
  9
$DIMSE1
 70
     0
  9
$DIMSE2
 70
     0
  9
$DIMTAD
 70
     0
  9
$DIMZIN
 70
     4
  9
$DIMBLK
  1

  9
$DIMASO
 70
     1
  9
$DIMSHO
 70
     1
  9
$DIMPOST
  1

  9
$DIMAPOST
  1

  9
$DIMALT
 70
     0
  9
$DIMALTD
 70
     2
  9
$DIMALTF
 40
25.4
  9
$DIMLFAC
 40
1.0
  9
$DIMTOFL
 70
     0
  9
$DIMTVP
 40
0.0
  9
$DIMTIX
 70
     1
  9
$DIMSOXD
 70
     0
  9
$DIMSAH
 70
     0
  9
$DIMBLK1
  1

  9
$DIMBLK2
  1

  9
$DIMSTYLE
  2
STANDARD
  9
$DIMCLRD
 70
     0
  9
$DIMCLRE
 70
     0
  9
$DIMCLRT
 70
     0
  9
$DIMTFAC
 40
1.0
  9
$DIMGAP
 40
0.09
  9
$DIMJUST
 70
     0
  9
$DIMSD1
 70
     0
  9
$DIMSD2
 70
     0
  9
$DIMTOLJ
 70
     1
  9
$DIMTZIN
 70
     4
  9
$DIMALTZ
 70
     0
  9
$DIMALTTZ
 70
     0
  9
$DIMFIT
 70
     3
  9
$DIMUPT
 70
     0
  9
$DIMUNIT
 70
     2
  9
$DIMDEC
 70
     3
  9
$DIMTDEC
 70
     3
  9
$DIMALTU
 70
     2
  9
$DIMALTTD
 70
     2
  9
$DIMTXSTY
  7
ROMANS
  9
$DIMAUNIT
 70
     0
  9
$LUNITS
 70
     2
  9
$LUPREC
 70
     3
  9
$SKETCHINC
 40
0.1
  9
$FILLETRAD
 40
0.03125
  9
$AUNITS
 70
     0
  9
$AUPREC
 70
     0
  9
$MENU
  1
ACAD
  9
$ELEVATION
 40
0.0
  9
$PELEVATION
 40
0.0
  9
$THICKNESS
 40
0.0
  9
$LIMCHECK
 70
     0
  9
$BLIPMODE
 70
     0
  9
$CHAMFERA
 40
0.0
  9
$CHAMFERB
 40
0.0
  9
$CHAMFERC
 40
0.0
  9
$CHAMFERD
 40
0.0
  9
$SKPOLY
 70
     0
  9
$TDCREATE
 40
2448994.546807407
  9
$TDUPDATE
 40
2452458.305376585
  9
$TDINDWG
 40
0.0010687037
  9
$TDUSRTIMER
 40
0.0010687037
  9
$USRTIMER
 70
     1
  9
$ANGBASE
 50
0.0
  9
$ANGDIR
 70
     0
  9
$PDMODE
 70
     0
  9
$PDSIZE
 40
0.0
  9
$PLINEWID
 40
0.0
  9
$COORDS
 70
     2
  9
$SPLFRAME
 70
     0
  9
$SPLINETYPE
 70
     6
  9
$SPLINESEGS
 70
     8
  9
$ATTDIA
 70
     0
  9
$ATTREQ
 70
     1
  9
$HANDLING
 70
 22529
  9
$HANDSEED
  5
BCD28CE5C6CB0A3
  9
$SURFTAB1
 70
     6
  9
$SURFTAB2
 70
     6
  9
$SURFTYPE
 70
     6
  9
$SURFU
 70
     6
  9
$SURFV
 70
     6
  9
$UCSNAME
  2

  9
$UCSORG
 10
0.0
 20
0.0
 30
0.0
  9
$UCSXDIR
 10
1.0
 20
0.0
 30
0.0
  9
$UCSYDIR
 10
0.0
 20
1.0
 30
0.0
  9
$PUCSNAME
  2

  9
$PUCSORG
 10
0.0
 20
0.0
 30
0.0
  9
$PUCSXDIR
 10
1.0
 20
0.0
 30
0.0
  9
$PUCSYDIR
 10
0.0
 20
1.0
 30
0.0
  9
$USERI1
 70
     0
  9
$USERI2
 70
     0
  9
$USERI3
 70
     0
  9
$USERI4
 70
     0
  9
$USERI5
 70
     0
  9
$USERR1
 40
0.0
  9
$USERR2
 40
0.0
  9
$USERR3
 40
0.0
  9
$USERR4
 40
0.0
  9
$USERR5
 40
0.0
  9
$WORLDVIEW
 70
     1
  9
$SHADEDGE
 70
     3
  9
$SHADEDIF
 70
    70
  9
$TILEMODE
 70
     1
  9
$MAXACTVP
 70
    16
  9
$PINSBASE
 10
5.144128532842334
 20
50.00000000000001
 30
6.97470112011133
  9
$PLIMCHECK
 70
     0
  9
$PEXTMIN
 10
1.000000000000000E+20
 20
1.000000000000000E+20
 30
1.000000000000000E+20
  9
$PEXTMAX
 10
-1.000000000000000E+20
 20
-1.000000000000000E+20
 30
-1.000000000000000E+20
  9
$PLIMMIN
 10
0.0
 20
0.0
  9
$PLIMMAX
 10
12.0
 20
9.0
  9
$UNITMODE
 70
     0
  9
$VISRETAIN
 70
     0
  9
$PLINEGEN
 70
     1
  9
$PSLTSCALE
 70
     0
  9
$TREEDEPTH
 70
  3020
  9
$PICKSTYLE
 70
     1
  9
$CMLSTYLE
  2
STANDARD
  9
$CMLJUST
 70
     0
  9
$CMLSCALE
 40
1.0
  9
$PROXYGRAPHICS
 70
     1
  9
$MEASUREMENT
 70
     0
  0
ENDSEC
  0
SECTION
  2
CLASSES
  0
CLASS
  1
LWPOLYLINE
  2
AcDbPolyline
  3
AutoCAD 2000
 90
        0
280
     0
281
     1
  0
CLASS
  1
ACDBDICTIONARYWDFLT
  2
AcDbDictionaryWithDefault
  3
AutoCAD 2000
 90
        0
280
     0
281
     0
  0
CLASS
  1
ACDBPLACEHOLDER
  2
AcDbPlaceHolder
  3
AutoCAD 2000
 90
        0
280
     0
281
     0
  0
CLASS
  1
LAYOUT
  2
AcDbLayout
  3
AutoCAD 2000
 90
        0
280
     0
281
     0
  0
CLASS
  1
DICTIONARYVAR
  2
AcDbDictionaryVar
  3
AutoCAD 2000
 90
        0
280
     0
281
     0
  0
CLASS
  1
LONG_TRANSACTION
  2
AcDbLongTransaction
  3
AutoCAD 2000
 90
        0
280
     0
281
     0
  0
CLASS
  1
LWPOLYLINE
  2
AcDbPolyline
  3
AutoCAD 2000
 90
        0
280
     0
281
     1
  0
CLASS
  1
HATCH
  2
AcDbHatch
  3
AutoCAD 2000
 90
        0
280
     0
281
     1
  0
CLASS
  1
XRECORD
  2
AcDbXrecord
  3
AutoCAD 2000
 90
        0
280
     0
281
     0
  0
ENDSEC
  0
SECTION
  2
TABLES
  0
TABLE
  2
VPORT
  5
BCD28CE5C6CB02F
330
0
100
AcDbSymbolTable
 70
     2
  0
VPORT
  5
BCD28CE5C6CB07E
330
BCD28CE5C6CB02F
100
AcDbSymbolTableRecord
100
AcDbViewportTableRecord
  2
*ACTIVE
 70
     0
 10
0.0
 20
0.0
 11
1.0
 21
1.0
 12
9.288267578241168
 22
5.015350368590269
 13
0.0
 23
0.0
 14
0.015625
 24
0.015625
 15
0.0
 25
0.0
 16
0.0
 26
0.0
 36
1.0
 17
0.0
 27
0.0
 37
0.0
 40
3.190637260252822
 41
4.320930232558139
 42
50.0
 43
0.0
 44
0.0
 50
0.0
 51
0.0
 71
     0
 72
  2000
 73
     1
 74
     0
 75
     0
 76
     0
 77
     0
 78
     0
  0
ENDTAB
  0
TABLE
  2
LTYPE
  5
BCD28CE5C6CB02C
330
0
100
AcDbSymbolTable
 70
     1
  0
LTYPE
  5
BCD28CE5C6CB039
330
BCD28CE5C6CB02C
100
AcDbSymbolTableRecord
100
AcDbLinetypeTableRecord
  2
BYBLOCK
 70
     0
  3

 72
    65
 73
     0
 40
0.0
  0
LTYPE
  5
BCD28CE5C6CB03A
330
BCD28CE5C6CB02C
100
AcDbSymbolTableRecord
100
AcDbLinetypeTableRecord
  2
BYLAYER
 70
     0
  3

 72
    65
 73
     0
 40
0.0
  0
LTYPE
  5
BCD28CE5C6CB03B
330
BCD28CE5C6CB02C
100
AcDbSymbolTableRecord
100
AcDbLinetypeTableRecord
  2
CONTINUOUS
 70
     0
  3
Solid line
 72
    65
 73
     0
 40
0.0
  0
ENDTAB
  0
TABLE
  2
LAYER
  5
BCD28CE5C6CB029
330
0
100
AcDbSymbolTable
 70
     3
  0
LAYER
  5
BCD28CE5C6CB036
330
BCD28CE5C6CB029
100
AcDbSymbolTableRecord
100
AcDbLayerTableRecord
  2
0
 70
     0
 62
     7
  6
CONTINUOUS
  0
LAYER
  5
BCD28CE5C6CB046
330
BCD28CE5C6CB029
100
AcDbSymbolTableRecord
100
AcDbLayerTableRecord
  2
TEXT
 70
     0
 62
     3
  6
CONTINUOUS
  0
LAYER
  5
BCD28CE5C6CB056
330
BCD28CE5C6CB029
100
AcDbSymbolTableRecord
100
AcDbLayerTableRecord
  2
ASHADE
 70
     4
 62
     7
  6
CONTINUOUS
  0
ENDTAB
  0
TABLE
  2
STYLE
  5
BCD28CE5C6CB02A
330
0
100
AcDbSymbolTable
 70
     4
  0
STYLE
  5
BCD28CE5C6CB037
330
BCD28CE5C6CB02A
100
AcDbSymbolTableRecord
100
AcDbTextStyleTableRecord
  2
STANDARD
 70
     0
 40
0.0
 41
1.0
 50
0.0
 71
     0
 42
0.3125
  3
txt
  4

  0
STYLE
  5
BCD28CE5C6CB043
330
BCD28CE5C6CB02A
100
AcDbSymbolTableRecord
100
AcDbTextStyleTableRecord
  2
ITALICC
 70
     0
 40
0.0
 41
1.0
 50
0.0
 71
     0
 42
0.125
  3
italicc
  4

  0
STYLE
  5
BCD28CE5C6CB053
330
BCD28CE5C6CB02A
100
AcDbSymbolTableRecord
100
AcDbTextStyleTableRecord
  2
ASHADE
 70
     0
 40
0.2
 41
1.0
 50
0.0
 71
     0
 42
0.3125
  3
simplex
  4

  0
STYLE
  5
BCD28CE5C6CB06E
330
BCD28CE5C6CB02A
100
AcDbSymbolTableRecord
100
AcDbTextStyleTableRecord
  2
ROMANS
 70
     0
 40
0.0
 41
1.0
 50
0.0
 71
     0
 42
0.125
  3
romans.shx
  4

  0
ENDTAB
  0
TABLE
  2
VIEW
  5
BCD28CE5C6CB02D
330
0
100
AcDbSymbolTable
 70
     0
  0
ENDTAB
  0
TABLE
  2
UCS
  5
BCD28CE5C6CB02E
330
0
100
AcDbSymbolTable
 70
     0
  0
ENDTAB
  0
TABLE
  2
APPID
  5
BCD28CE5C6CB030
330
0
100
AcDbSymbolTable
 70
     6
  0
APPID
  5
BCD28CE5C6CB038
330
BCD28CE5C6CB030
100
AcDbSymbolTableRecord
100
AcDbRegAppTableRecord
  2
ACAD
 70
     0
  0
APPID
  5
BCD28CE5C6CB054
330
BCD28CE5C6CB030
100
AcDbSymbolTableRecord
100
AcDbRegAppTableRecord
  2
AVE_RENDER
 70
     0
  0
APPID
  5
BCD28CE5C6CB055
330
BCD28CE5C6CB030
100
AcDbSymbolTableRecord
100
AcDbRegAppTableRecord
  2
AVE_ENTITY_MATERIAL
 70
     0
  0
APPID
  5
BCD28CE5C6CB062
330
BCD28CE5C6CB030
100
AcDbSymbolTableRecord
100
AcDbRegAppTableRecord
  2
AVE_FINISH
 70
     0
  0
APPID
  5
BCD28CE5C6CB063
330
BCD28CE5C6CB030
100
AcDbSymbolTableRecord
100
AcDbRegAppTableRecord
  2
AVE_MATERIAL
 70
     0
  0
APPID
  5
BCD28CE5C6CB064
330
BCD28CE5C6CB030
100
AcDbSymbolTableRecord
100
AcDbRegAppTableRecord
  2
AVE_GLOBAL
 70
     0
  0
ENDTAB
  0
TABLE
  2
DIMSTYLE
  5
BCD28CE5C6CB031
330
0
100
AcDbSymbolTable
 70
     1
  0
DIMSTYLE
105
BCD28CE5C6CB04B
330
BCD28CE5C6CB031
100
AcDbSymbolTableRecord
100
AcDbDimStyleTableRecord
  2
STANDARD
 70
     0
  3

  4

  5

  6

  7

 40
1.0
 41
0.125
 42
0.125
 43
0.375
 44
0.125
 45
0.0
 46
0.0
 47
0.0
 48
0.0
140
0.125
141
-0.125
142
0.0
143
25.4
144
1.0
145
0.0
146
1.0
147
0.09
 71
     0
 72
     0
 73
     1
 74
     1
 75
     0
 76
     0
 77
     0
 78
     4
170
     0
171
     2
172
     0
173
     0
174
     1
175
     0
176
     0
177
     0
178
     0
270
     2
271
     3
272
     3
273
     2
274
     2
340
BCD28CE5C6CB06E
275
     0
280
     0
281
     0
282
     0
283
     1
284
     4
285
     0
286
     0
287
     3
288
     0
  0
ENDTAB
  0
TABLE
  2
BLOCK_RECORD
  5
BCD28CE5C6CB028
330
0
100
AcDbSymbolTable
 70
     2
  0
BLOCK_RECORD
  5
BCD28CE5C6CB03F
102
{ACAD_XDICTIONARY
360
BCD28CE5C6CB0A1
102
}
330
BCD28CE5C6CB028
100
AcDbSymbolTableRecord
100
AcDbBlockTableRecord
  2
*MODEL_SPACE
  0
BLOCK_RECORD
  5
BCD28CE5C6CB03C
102
{ACAD_XDICTIONARY
360
BCD28CE5C6CB09F
102
}
330
BCD28CE5C6CB028
100
AcDbSymbolTableRecord
100
AcDbBlockTableRecord
  2
*PAPER_SPACE
  0
BLOCK_RECORD
  5
BCD28CE5C6CB057
330
BCD28CE5C6CB028
100
AcDbSymbolTableRecord
100
AcDbBlockTableRecord
  2
AVE_RENDER
  0
BLOCK_RECORD
  5
BCD28CE5C6CB065
330
BCD28CE5C6CB028
100
AcDbSymbolTableRecord
100
AcDbBlockTableRecord
  2
AVE_GLOBAL
  0
ENDTAB
  0
ENDSEC
  0
SECTION
  2
BLOCKS
  0
BLOCK
  5
BCD28CE5C6CB049
330
BCD28CE5C6CB03F
100
AcDbEntity
  8
0
100
AcDbBlockBegin
  2
*MODEL_SPACE
 70
     0
 10
0.0
 20
0.0
 30
0.0
  3
*MODEL_SPACE
  1

  0
ENDBLK
  5
BCD28CE5C6CB04A
330
BCD28CE5C6CB03F
100
AcDbEntity
  8
0
100
AcDbBlockEnd
  0
BLOCK
  5
BCD28CE5C6CB047
330
BCD28CE5C6CB03C
100
AcDbEntity
 67
     1
  8
0
100
AcDbBlockBegin
  2
*PAPER_SPACE
 70
     0
 10
0.0
 20
0.0
 30
0.0
  3
*PAPER_SPACE
  1

  0
ENDBLK
  5
BCD28CE5C6CB048
330
BCD28CE5C6CB03C
100
AcDbEntity
 67
     1
  8
0
100
AcDbBlockEnd
  0
BLOCK
  5
BCD28CE5C6CB058
330
BCD28CE5C6CB057
100
AcDbEntity
  8
0
100
AcDbBlockBegin
  2
AVE_RENDER
 70
     0
 10
0.0
 20
0.0
 30
0.0
  3
AVE_RENDER
  1
AVE_RENDER
  0
ENDBLK
  5
BCD28CE5C6CB059
330
BCD28CE5C6CB057
100
AcDbEntity
  8
0
100
AcDbBlockEnd
  0
BLOCK
  5
BCD28CE5C6CB066
330
BCD28CE5C6CB065
100
AcDbEntity
  8
0
100
AcDbBlockBegin
  2
AVE_GLOBAL
 70
     0
 10
0.0
 20
0.0
 30
0.0
  3
AVE_GLOBAL
  1
AVE_GLOBAL
  0
ENDBLK
  5
BCD28CE5C6CB067
330
BCD28CE5C6CB065
100
AcDbEntity
  8
0
100
AcDbBlockEnd
  0
ENDSEC
  0
SECTION
  2
ENTITIES
  0
LWPOLYLINE
  5
BCD28CE5C6C9AA3
330
BCD28CE5C6CB03F
100
AcDbEntity
  8
0
100
AcDbPolyline
 90
       18
 70
     1
 43
0.0
 10
5.253048778984676
 20
5.91219881314702
 10
5.253048778984676
 20
6.341328109854425
 42
-0.8744746321952062
 10
5.253048778984676
 20
4.483069516439612
 10
5.253048778984676
 20
4.912198813147019
 10
5.206173778984676
 20
4.885135519278756
 42
0.2679491924311233
 10
5.190548778984676
 20
4.858072225410492
 10
5.190548778984677
 20
4.476784466453533
 42
-0.0086133346824433
 10
5.158290714468547
 20
4.475186713258128
 42
1.0
 10
5.160306843500805
 20
4.412719239932201
 42
0.9839969017527671
 10
5.128048778984676
 20
6.412198813147019
 10
4.378048778984676
 20
6.412198813147019
 10
4.378048778984676
 20
6.005948813147019
 10
4.440548778984676
 20
6.005948813147019
 10
4.440548778984676
 20
6.349698813147019
 10
5.128048778984676
 20
6.349698813147019
 42
-0.0166805839233406
 10
5.190548778984676
 20
6.347613159840504
 10
5.190548778984676
 20
5.966325400883545
 42
0.2679491924311233
 10
5.206173778984676
 20
5.939262107015281
  0
TEXT
  5
BCD28CE5C6CAEEA
330
BCD28CE5C6CB03F
100
AcDbEntity
  8
TEXT
100
AcDbText
 10
4.372096398032295
 20
4.060602933640574
 30
0.0
 40
0.125
  1
PART #110295
  7
ITALICC
 72
     1
 11
5.128048778984676
 21
4.060602933640574
 31
0.0
100
AcDbText
  0
TEXT
  5
BCD28CE5C6CAEEB
330
BCD28CE5C6CB03F
100
AcDbEntity
  8
TEXT
100
AcDbText
 10
5.541353937234997
 20
3.613680290968199
 30
0.0
 40
0.0522247191011236
  1
Phone  1-800-328-2495
 41
1.272321428571429
 72
     5
 11
6.87028652150466
 21
3.613680290968199
 31
0.0
100
AcDbText
  0
TEXT
  5
BCD28CE5C6CAEEC
330
BCD28CE5C6CB03F
100
AcDbEntity
  8
TEXT
100
AcDbText
 10
5.541353937234997
 20
3.893455571867076
 30
0.0
 40
0.0522247191011236
  1
Stylmark  Incorporated
 41
1.221428571428573
 72
     5
 11
6.87028652150466
 21
3.893455571867076
 31
0.0
100
AcDbText
  0
TEXT
  5
BCD28CE5C6CAEED
330
BCD28CE5C6CB03F
100
AcDbEntity
  8
TEXT
100
AcDbText
 10
5.541353937234997
 20
3.800197144900783
 30
0.0
 40
0.0522247191011236
  1
6536 Main St. N.E. * P.O. Box 32008
 41
0.8388932496075366
 72
     5
 11
6.87028652150466
 21
3.800197144900783
 31
0.0
100
AcDbText
  0
TEXT
  5
BCD28CE5C6CAEEE
330
BCD28CE5C6CB03F
100
AcDbEntity
  8
TEXT
100
AcDbText
 10
5.541353937234997
 20
3.706938717934491
 30
0.0
 40
0.0522247191011236
  1
Minneapolis, MN 55432-0008
 41
1.11444212721585
 72
     5
 11
6.87028652150466
 21
3.706938717934491
 31
0.0
100
AcDbText
  0
LWPOLYLINE
  5
BCD28CE5C6CAEEF
330
BCD28CE5C6CB03F
100
AcDbEntity
  8
TEXT
100
AcDbPolyline
 90
        3
 70
     0
 43
0.0006660908203125
 10
3.385400245167689
 20
3.727325053605634
 10
3.385400245167689
 20
3.614089614152506
 10
3.498635684620811
 20
3.614089614152506
  0
LWPOLYLINE
  5
BCD28CE5C6CAEF4
330
BCD28CE5C6CB03F
100
AcDbEntity
  8
TEXT
100
AcDbPolyline
 90
        3
 70
     0
 43
0.0006660908203125
 10
3.412043877980186
 20
3.727325053605634
 10
3.412043877980186
 20
3.640733246965007
 10
3.498635684620811
 20
3.640733246965007
  0
LWPOLYLINE
  5
BCD28CE5C6CAEF9
330
BCD28CE5C6CB03F
100
AcDbEntity
  8
TEXT
100
AcDbPolyline
 90
        2
 70
     0
 43
0.0001332181640625
 10
3.458670235402063
 20
3.737316415910319
 10
3.385400245167689
 20
3.727325053605634
  0
LWPOLYLINE
  5
BCD28CE5C6CAEFD
330
BCD28CE5C6CB03F
100
AcDbEntity
  8
TEXT
100
AcDbPolyline
 90
        2
 70
     0
 43
0.0001332181640625
 10
3.412043877980186
 20
3.727325053605634
 10
3.471992051808314
 20
3.737316415910319
  0
LWPOLYLINE
  5
BCD28CE5C6CAF01
330
BCD28CE5C6CB03F
100
AcDbEntity
  8
TEXT
100
AcDbPolyline
 90
        2
 70
     0
 43
0.0001332181640625
 10
3.412043877980186
 20
3.640733246965007
 10
3.471992051808314
 20
3.700681420793133
  0
LWPOLYLINE
  5
BCD28CE5C6CAF05
330
BCD28CE5C6CB03F
100
AcDbEntity
  8
TEXT
100
AcDbPolyline
 90
        3
 70
     0
 43
0.0006660908203125
 10
3.498635684620811
 20
3.88052594227751
 10
3.385400245167689
 20
3.88052594227751
 10
3.385400245167689
 20
3.767290502824382
  0
LWPOLYLINE
  5
BCD28CE5C6CAF0A
330
BCD28CE5C6CB03F
100
AcDbEntity
  8
TEXT
100
AcDbPolyline
 90
        3
 70
     0
 43
0.0006660908203125
 10
3.498635684620811
 20
3.853882309465009
 10
3.412043877980186
 20
3.853882309465009
 10
3.412043877980186
 20
3.767290502824382
  0
LWPOLYLINE
  5
BCD28CE5C6CAF0F
330
BCD28CE5C6CB03F
100
AcDbEntity
  8
TEXT
100
AcDbPolyline
 90
        2
 70
     0
 43
0.0001332181640625
 10
3.412043877980186
 20
3.853882309465009
 10
3.471992051808312
 20
3.793934135636883
  0
LWPOLYLINE
  5
BCD28CE5C6CAF13
330
BCD28CE5C6CB03F
100
AcDbEntity
  8
TEXT
100
AcDbPolyline
 90
        2
 70
     0
 43
0.0001332181640625
 10
3.412043877980186
 20
3.767290502824382
 10
3.471992051808312
 20
3.757299140519693
  0
LWPOLYLINE
  5
BCD28CE5C6CAF17
330
BCD28CE5C6CB03F
100
AcDbEntity
  8
TEXT
100
AcDbPolyline
 90
        2
 70
     0
 43
0.0001332181640625
 10
3.385400245167689
 20
3.767290502824382
 10
3.458670235402063
 20
3.757299140519693
  0
LWPOLYLINE
  5
BCD28CE5C6CAF1B
330
BCD28CE5C6CB03F
100
AcDbEntity
  8
TEXT
100
AcDbPolyline
 90
        2
 70
     0
 43
0.0006660908203125
 10
3.412043877980186
 20
3.727325053605634
 10
3.385400245167689
 20
3.727325053605634
  0
LWPOLYLINE
  5
BCD28CE5C6CAF1F
330
BCD28CE5C6CB03F
100
AcDbEntity
  8
TEXT
100
AcDbPolyline
 90
        2
 70
     0
 43
0.0006660908203125
 10
3.412043877980186
 20
3.767290502824382
 10
3.385400245167689
 20
3.767290502824382
  0
LINE
  5
BCD28CE5C6CAF23
330
BCD28CE5C6CB03F
100
AcDbEntity
  8
TEXT
100
AcDbLine
 10
4.900590674294186
 20
3.816249247620741
 30
0.0
 11
4.793384400906897
 21
3.816249247620741
 31
0.0
  0
LINE
  5
BCD28CE5C6CAF24
330
BCD28CE5C6CB03F
100
AcDbEntity
  8
TEXT
100
AcDbLine
 10
4.929621572638665
 20
3.880525942277506
 30
0.0
 11
4.794789663421606
 21
3.880525942277506
 31
0.0
  0
ARC
  5
BCD28CE5C6CAF25
330
BCD28CE5C6CB03F
100
AcDbEntity
  8
TEXT
100
AcDbCircle
 10
4.854103759814923
 20
3.71128869301449
 30
0.0
 40
0.0676855811441166
100
AcDbArc
 50
90.0
 51
153.7768192527749
  0
LWPOLYLINE
  5
BCD28CE5C6CAF26
330
BCD28CE5C6CB03F
100
AcDbEntity
  8
TEXT
100
AcDbPolyline
 90
        2
 70
     0
 43
0.0
 10
4.792351905452087
 20
3.657543854239433
 42
0.2901071551932823
 10
4.835427838319723
 20
3.614052909288995
 42
5.328517124445801
  0
ARC
  5
BCD28CE5C6CAF2A
330
BCD28CE5C6CB03F
100
AcDbEntity
  8
TEXT
100
AcDbCircle
 10
4.148972382143437
 20
3.673845300627045
 30
0.0
 40
0.0601160179737537
100
AcDbArc
 50
180.0000000000003
 51
264.0521544866073
  0
LINE
  5
BCD28CE5C6CAF2B
330
BCD28CE5C6CB03F
100
AcDbEntity
  8
TEXT
100
AcDbLine
 10
4.152487737768985
 20
3.914913859871644
 30
0.0
 11
4.092445132924978
 21
3.914913859871644
 31
0.0
  0
ARC
  5
BCD28CE5C6CAF2C
330
BCD28CE5C6CB03F
100
AcDbEntity
  8
TEXT
100
AcDbCircle
 10
3.916713380026466
 20
3.798438482831004
 30
0.0
 40
0.0820874594465043
100
AcDbArc
 50
90.0
 51
270.0
  0
LWPOLYLINE
  5
BCD28CE5C6CAF2D
330
BCD28CE5C6CB03F
100
AcDbEntity
  8
TEXT
100
AcDbPolyline
 90
        2
 70
     0
 43
0.0001332181640625
 10
3.508627046925502
 20
3.80725595204313
 10
3.498635684620811
 20
3.88052594227751
  0
LWPOLYLINE
  5
BCD28CE5C6CAF31
330
BCD28CE5C6CB03F
100
AcDbEntity
  8
TEXT
100
AcDbPolyline
 90
        2
 70
     0
 43
0.0001332181640625
 10
3.498635684620811
 20
3.853882309465009
 10
3.508627046925502
 20
3.793934135636883
  0
LWPOLYLINE
  5
BCD28CE5C6CAF35
330
BCD28CE5C6CB03F
100
AcDbEntity
  8
TEXT
100
AcDbPolyline
 90
        3
 70
     0
 43
0.0006660908203125
 10
3.651836573292689
 20
3.767290502824382
 10
3.651836573292689
 20
3.88052594227751
 10
3.538601133839563
 20
3.88052594227751
  0
LWPOLYLINE
  5
BCD28CE5C6CAF3A
330
BCD28CE5C6CB03F
100
AcDbEntity
  8
TEXT
100
AcDbPolyline
 90
        3
 70
     0
 43
0.0006660908203125
 10
3.625192940480188
 20
3.767290502824382
 10
3.625192940480188
 20
3.853882309465009
 10
3.538601133839563
 20
3.853882309465009
  0
LWPOLYLINE
  5
BCD28CE5C6CAF3F
330
BCD28CE5C6CB03F
100
AcDbEntity
  8
TEXT
100
AcDbPolyline
 90
        2
 70
     0
 43
0.0001332181640625
 10
3.625192940480188
 20
3.853882309465009
 10
3.565244766652064
 20
3.793934135636883
  0
LWPOLYLINE
  5
BCD28CE5C6CAF43
330
BCD28CE5C6CB03F
100
AcDbEntity
  8
TEXT
100
AcDbPolyline
 90
        2
 70
     0
 43
0.0001332181640625
 10
3.538601133839563
 20
3.853882309465009
 10
3.528609771534874
 20
3.793934135636883
  0
LWPOLYLINE
  5
BCD28CE5C6CAF47
330
BCD28CE5C6CB03F
100
AcDbEntity
  8
TEXT
100
AcDbPolyline
 90
        2
 70
     0
 43
0.0001332181640625
 10
3.538601133839563
 20
3.88052594227751
 10
3.528609771534874
 20
3.80725595204313
  0
LWPOLYLINE
  5
BCD28CE5C6CAF4B
330
BCD28CE5C6CB03F
100
AcDbEntity
  8
TEXT
100
AcDbPolyline
 90
        2
 70
     0
 43
0.0001332181640625
 10
3.578566583058313
 20
3.757299140519693
 10
3.651836573292689
 20
3.767290502824382
  0
LWPOLYLINE
  5
BCD28CE5C6CAF4F
330
BCD28CE5C6CB03F
100
AcDbEntity
  8
TEXT
100
AcDbPolyline
 90
        2
 70
     0
 43
0.0001332181640625
 10
3.625192940480188
 20
3.767290502824382
 10
3.565244766652064
 20
3.757299140519693
  0
LWPOLYLINE
  5
BCD28CE5C6CAF53
330
BCD28CE5C6CB03F
100
AcDbEntity
  8
TEXT
100
AcDbPolyline
 90
        2
 70
     0
 43
0.0001332181640625
 10
3.651836573292689
 20
3.727325053605634
 10
3.578566583058313
 20
3.737316415910319
  0
LWPOLYLINE
  5
BCD28CE5C6CAF57
330
BCD28CE5C6CB03F
100
AcDbEntity
  8
TEXT
100
AcDbPolyline
 90
        2
 70
     0
 43
0.0001332181640625
 10
3.625192940480188
 20
3.727325053605634
 10
3.565244766652064
 20
3.737316415910319
  0
LWPOLYLINE
  5
BCD28CE5C6CAF5B
330
BCD28CE5C6CB03F
100
AcDbEntity
  8
TEXT
100
AcDbPolyline
 90
        2
 70
     0
 43
0.0001332181640625
 10
3.625192940480188
 20
3.640733246965007
 10
3.565244766652064
 20
3.700681420793133
  0
LWPOLYLINE
  5
BCD28CE5C6CAF5F
330
BCD28CE5C6CB03F
100
AcDbEntity
  8
TEXT
100
AcDbPolyline
 90
        3
 70
     0
 43
0.0006660908203125
 10
3.538601133839563
 20
3.640733246965007
 10
3.625192940480188
 20
3.640733246965007
 10
3.625192940480188
 20
3.727325053605634
  0
LWPOLYLINE
  5
BCD28CE5C6CAF64
330
BCD28CE5C6CB03F
100
AcDbEntity
  8
TEXT
100
AcDbPolyline
 90
        3
 70
     0
 43
0.0006660908203125
 10
3.538601133839563
 20
3.614089614152506
 10
3.651836573292689
 20
3.614089614152506
 10
3.651836573292689
 20
3.727325053605634
  0
LWPOLYLINE
  5
BCD28CE5C6CAF69
330
BCD28CE5C6CB03F
100
AcDbEntity
  8
TEXT
100
AcDbPolyline
 90
        5
 70
     0
 43
0.0001332181640625
 10
3.508627046925502
 20
3.687359604386883
 10
3.508627046925502
 20
3.700681420793133
 10
3.471992051808314
 20
3.700681420793133
 10
3.471992051808314
 20
3.737316415910319
 10
3.458670235402063
 20
3.737316415910319
  0
LWPOLYLINE
  5
BCD28CE5C6CAF70
330
BCD28CE5C6CB03F
100
AcDbEntity
  8
TEXT
100
AcDbPolyline
 90
        2
 70
     0
 43
0.0006660908203125
 10
3.498635684620811
 20
3.640733246965007
 10
3.498635684620811
 20
3.614089614152506
  0
LWPOLYLINE
  5
BCD28CE5C6CAF74
330
BCD28CE5C6CB03F
100
AcDbEntity
  8
TEXT
100
AcDbPolyline
 90
        2
 70
     0
 43
0.0001332181640625
 10
3.498635684620811
 20
3.640733246965007
 10
3.508627046925502
 20
3.700681420793133
  0
LWPOLYLINE
  5
BCD28CE5C6CAF78
330
BCD28CE5C6CB03F
100
AcDbEntity
  8
TEXT
100
AcDbPolyline
 90
        2
 70
     0
 43
0.0001332181640625
 10
3.498635684620811
 20
3.614089614152506
 10
3.508627046925502
 20
3.687359604386883
  0
LWPOLYLINE
  5
BCD28CE5C6CAF7C
330
BCD28CE5C6CB03F
100
AcDbEntity
  8
TEXT
100
AcDbPolyline
 90
        5
 70
     0
 43
0.0001332181640625
 10
3.458670235402063
 20
3.757299140519693
 10
3.471992051808312
 20
3.757299140519693
 10
3.471992051808312
 20
3.793934135636883
 10
3.508627046925502
 20
3.793934135636883
 10
3.508627046925502
 20
3.80725595204313
  0
LWPOLYLINE
  5
BCD28CE5C6CAF83
330
BCD28CE5C6CB03F
100
AcDbEntity
  8
TEXT
100
AcDbPolyline
 90
        5
 70
     0
 43
0.0001332181640625
 10
3.528609771534874
 20
3.80725595204313
 10
3.528609771534874
 20
3.793934135636883
 10
3.565244766652064
 20
3.793934135636883
 10
3.565244766652064
 20
3.757299140519693
 10
3.578566583058313
 20
3.757299140519693
  0
LWPOLYLINE
  5
BCD28CE5C6CAF8A
330
BCD28CE5C6CB03F
100
AcDbEntity
  8
TEXT
100
AcDbPolyline
 90
        2
 70
     0
 43
0.0001332181640625
 10
3.538601133839563
 20
3.640733246965007
 10
3.528609771534874
 20
3.700681420793133
  0
LWPOLYLINE
  5
BCD28CE5C6CAF8E
330
BCD28CE5C6CB03F
100
AcDbEntity
  8
TEXT
100
AcDbPolyline
 90
        2
 70
     0
 43
0.0001332181640625
 10
3.528609771534874
 20
3.687359604386883
 10
3.538601133839563
 20
3.614089614152506
  0
LWPOLYLINE
  5
BCD28CE5C6CAF92
330
BCD28CE5C6CB03F
100
AcDbEntity
  8
TEXT
100
AcDbPolyline
 90
        2
 70
     0
 43
0.0006660908203125
 10
3.538601133839563
 20
3.640733246965007
 10
3.538601133839563
 20
3.614089614152506
  0
LWPOLYLINE
  5
BCD28CE5C6CAF96
330
BCD28CE5C6CB03F
100
AcDbEntity
  8
TEXT
100
AcDbPolyline
 90
        5
 70
     0
 43
0.0001332181640625
 10
3.578566583058313
 20
3.737316415910319
 10
3.565244766652064
 20
3.737316415910319
 10
3.565244766652064
 20
3.700681420793133
 10
3.528609771534874
 20
3.700681420793133
 10
3.528609771534874
 20
3.687359604386883
  0
LWPOLYLINE
  5
BCD28CE5C6CAF9D
330
BCD28CE5C6CB03F
100
AcDbEntity
  8
TEXT
100
AcDbPolyline
 90
        2
 70
     0
 43
0.0006660908203125
 10
3.625192940480188
 20
3.767290502824382
 10
3.651836573292689
 20
3.767290502824382
  0
LWPOLYLINE
  5
BCD28CE5C6CAFA1
330
BCD28CE5C6CB03F
100
AcDbEntity
  8
TEXT
100
AcDbPolyline
 90
        2
 70
     0
 43
0.0006660908203125
 10
3.625192940480188
 20
3.727325053605634
 10
3.651836573292689
 20
3.727325053605634
  0
LINE
  5
BCD28CE5C6CAFA5
330
BCD28CE5C6CB03F
100
AcDbEntity
  8
TEXT
100
AcDbLine
 10
3.921950710140714
 20
3.816249247620741
 30
0.0
 11
4.088856364169685
 21
3.816249247620741
 31
0.0
  0
LINE
  5
BCD28CE5C6CAFA6
330
BCD28CE5C6CB03F
100
AcDbEntity
  8
TEXT
100
AcDbLine
 10
3.987550846385015
 20
3.780444526010113
 30
0.0
 11
3.921950710140714
 21
3.780444526010113
 31
0.0
  0
LINE
  5
BCD28CE5C6CAFA7
330
BCD28CE5C6CB03F
100
AcDbEntity
  8
TEXT
100
AcDbLine
 10
3.834625920579962
 20
3.614052909288995
 30
0.0
 11
3.987550846385015
 21
3.614052909288995
 31
0.0
  0
LINE
  5
BCD28CE5C6CAFA8
330
BCD28CE5C6CB03F
100
AcDbEntity
  8
TEXT
100
AcDbLine
 10
3.992491220291294
 20
3.682409915622435
 30
0.0
 11
3.83462592057996
 21
3.682409915622435
 31
0.0
  0
LINE
  5
BCD28CE5C6CAFA9
330
BCD28CE5C6CB03F
100
AcDbEntity
  8
TEXT
100
AcDbLine
 10
3.916713380026465
 20
3.716351023384499
 30
0.0
 11
3.992491220291294
 21
3.716351023384499
 31
0.0
  0
ARC
  5
BCD28CE5C6CAFAA
330
BCD28CE5C6CB03F
100
AcDbEntity
  8
TEXT
100
AcDbCircle
 10
3.921950710140714
 20
3.798346886815429
 30
0.0
 40
0.017902360805315
100
AcDbArc
 50
90.0
 51
270.0
  0
LINE
  5
BCD28CE5C6CAFAB
330
BCD28CE5C6CB03F
100
AcDbEntity
  8
TEXT
100
AcDbLine
 10
3.83462592057996
 20
3.682409915622435
 30
0.0
 11
3.834625920579962
 21
3.614052909288995
 31
0.0
  0
LINE
  5
BCD28CE5C6CAFAC
330
BCD28CE5C6CB03F
100
AcDbEntity
  8
TEXT
100
AcDbLine
 10
4.088856364169685
 20
3.816249247620741
 30
0.0
 11
4.088856364169685
 21
3.673845300627045
 31
0.0
  0
ARC
  5
BCD28CE5C6CAFAD
330
BCD28CE5C6CB03F
100
AcDbEntity
  8
TEXT
100
AcDbCircle
 10
3.987550846385016
 20
3.697248717649552
 30
0.0
 40
0.0831958083605586
100
AcDbArc
 50
270.0
 51
90.0
  0
ARC
  5
BCD28CE5C6CAFAE
330
BCD28CE5C6CB03F
100
AcDbEntity
  8
TEXT
100
AcDbCircle
 10
3.992491220291295
 20
3.699380469503469
 30
0.0
 40
0.0169705538810321
100
AcDbArc
 50
270.0
 51
90.0
  0
LWPOLYLINE
  5
BCD28CE5C6CAFAF
330
BCD28CE5C6CB03F
100
AcDbEntity
  8
TEXT
100
AcDbPolyline
 90
        2
 70
     0
 43
0.0006660908203125
 10
3.498635684620811
 20
3.853882309465009
 10
3.498635684620811
 20
3.88052594227751
  0
LWPOLYLINE
  5
BCD28CE5C6CAFB3
330
BCD28CE5C6CB03F
100
AcDbEntity
  8
TEXT
100
AcDbPolyline
 90
        2
 70
     0
 43
0.0006660908203125
 10
3.538601133839563
 20
3.853882309465009
 10
3.538601133839563
 20
3.88052594227751
  0
LINE
  5
BCD28CE5C6CAFB7
330
BCD28CE5C6CB03F
100
AcDbEntity
  8
TEXT
100
AcDbLine
 10
4.092445132924978
 20
3.880525942277506
 30
0.0
 11
3.916713380026465
 21
3.880525942277506
 31
0.0
  0
LINE
  5
BCD28CE5C6CAFB8
330
BCD28CE5C6CB03F
100
AcDbEntity
  8
TEXT
100
AcDbLine
 10
4.092445132924978
 20
3.914913859871644
 30
0.0
 11
4.092445132924978
 21
3.880525942277506
 31
0.0
  0
LINE
  5
BCD28CE5C6CAFB9
330
BCD28CE5C6CB03F
100
AcDbEntity
  8
TEXT
100
AcDbLine
 10
4.28291702494483
 20
3.779653946164386
 30
0.0
 11
4.224286703912892
 21
3.880525942277506
 31
0.0
  0
LINE
  5
BCD28CE5C6CAFBA
330
BCD28CE5C6CB03F
100
AcDbEntity
  8
TEXT
100
AcDbLine
 10
4.341665587750695
 20
3.880525942277506
 30
0.0
 11
4.28291702494483
 21
3.779653946164386
 31
0.0
  0
LINE
  5
BCD28CE5C6CAFBB
330
BCD28CE5C6CB03F
100
AcDbEntity
  8
TEXT
100
AcDbLine
 10
4.438596213110437
 20
3.696440747391994
 30
0.0
 11
4.438596213110437
 21
3.948537420016317
 31
0.0
  0
LINE
  5
BCD28CE5C6CAFBC
330
BCD28CE5C6CB03F
100
AcDbEntity
  8
TEXT
100
AcDbLine
 10
4.470908067248097
 20
3.880525942277506
 30
0.0
 11
4.470908067248097
 21
3.679661735545098
 31
0.0
  0
LINE
  5
BCD28CE5C6CAFBD
330
BCD28CE5C6CB03F
100
AcDbEntity
  8
TEXT
100
AcDbLine
 10
4.470908067248097
 20
3.679661735545098
 30
0.0
 11
4.453914430363496
 21
3.679661735545098
 31
0.0
  0
LINE
  5
BCD28CE5C6CAFBE
330
BCD28CE5C6CB03F
100
AcDbEntity
  8
TEXT
100
AcDbLine
 10
4.439735786606632
 20
3.614052909288995
 30
0.0
 11
4.537739120306066
 21
3.614052909288995
 31
0.0
  0
LINE
  5
BCD28CE5C6CAFBF
330
BCD28CE5C6CB03F
100
AcDbEntity
  8
TEXT
100
AcDbLine
 10
4.273316787947876
 20
3.634011415394008
 30
0.0
 11
4.37061649404132
 21
3.798361626329276
 31
0.0
  0
ARC
  5
BCD28CE5C6CAFC0
330
BCD28CE5C6CB03F
100
AcDbEntity
  8
TEXT
100
AcDbCircle
 10
4.239273228035662
 20
3.653600631562691
 30
0.0
 40
0.0392772371940762
100
AcDbArc
 50
270.1604552698595
 51
330.0831797321295
  0
LINE
  5
BCD28CE5C6CAFC1
330
BCD28CE5C6CB03F
100
AcDbEntity
  8
TEXT
100
AcDbLine
 10
4.14274297164979
 20
3.614052909288995
 30
0.0
 11
4.239383222724785
 21
3.614323548387277
 31
0.0
  0
LWPOLYLINE
  5
BCD28CE5C6CAFC2
330
BCD28CE5C6CB03F
100
AcDbEntity
  8
TEXT
100
AcDbPolyline
 90
        6
 70
     1
 43
0.0
 10
4.18526677522494
 20
3.816249247620741
 10
4.154950181004732
 20
3.816249247620741
 10
4.154950181004732
 20
3.693138249565846
 42
0.407328721240804
 10
4.166493832166208
 20
3.68131933488946
 10
4.227115531210939
 20
3.68131933488946
 10
4.244580871618257
 20
3.714131563932939
  0
LINE
  5
BCD28CE5C6CAFCA
330
BCD28CE5C6CB03F
100
AcDbEntity
  8
TEXT
100
AcDbLine
 10
4.37061649404132
 20
3.798361626329276
 30
0.0
 11
4.37061649404132
 21
3.66560425150392
 31
0.0
  0
ARC
  5
BCD28CE5C6CAFCB
330
BCD28CE5C6CB03F
100
AcDbEntity
  8
TEXT
100
AcDbCircle
 10
4.453914430363494
 20
3.695043541788523
 30
0.0
 40
0.0153818062434269
100
AcDbArc
 50
174.7883570302258
 51
270.0
  0
LWPOLYLINE
  5
BCD28CE5C6CAFCC
330
BCD28CE5C6CB03F
100
AcDbEntity
  8
TEXT
100
AcDbPolyline
 90
        2
 70
     0
 43
0.0
 10
4.370616494041319
 20
3.665604251503923
 42
0.3318488747599744
 10
4.439735786606632
 20
3.614052909288995
 42
-6.868794160588311
  0
LINE
  5
BCD28CE5C6CAFD0
330
BCD28CE5C6CB03F
100
AcDbEntity
  8
TEXT
100
AcDbLine
 10
4.595128189295327
 20
3.614052909288995
 30
0.0
 11
4.662186236077167
 21
3.614052909288995
 31
0.0
  0
LINE
  5
BCD28CE5C6CAFD1
330
BCD28CE5C6CB03F
100
AcDbEntity
  8
TEXT
100
AcDbLine
 10
4.595128189295327
 20
3.808695458454631
 30
0.0
 11
4.595128189295327
 21
3.614052909288995
 31
0.0
  0
LINE
  5
BCD28CE5C6CAFD2
330
BCD28CE5C6CB03F
100
AcDbEntity
  8
TEXT
100
AcDbLine
 10
4.537739120306066
 20
3.816249247620741
 30
0.0
 11
4.587574400129214
 21
3.816249247620741
 31
0.0
  0
LINE
  5
BCD28CE5C6CAFD3
330
BCD28CE5C6CB03F
100
AcDbEntity
  8
TEXT
100
AcDbLine
 10
4.537739120306066
 20
3.614052909288995
 30
0.0
 11
4.537739120306066
 21
3.816249247620741
 31
0.0
  0
LWPOLYLINE
  5
BCD28CE5C6CAFD4
330
BCD28CE5C6CB03F
100
AcDbEntity
  8
TEXT
100
AcDbPolyline
 90
        2
 70
     0
 43
0.0
 10
4.587574400129212
 20
3.816249247620741
 42
-0.4142135623731017
 10
4.595128189295325
 20
3.808695458454631
 42
-0.9999999999999998
  0
LINE
  5
BCD28CE5C6CAFD8
330
BCD28CE5C6CB03F
100
AcDbEntity
  8
TEXT
100
AcDbLine
 10
4.793384400906897
 20
3.816249247620741
 30
0.0
 11
4.793384400906897
 21
3.741196841546534
 31
0.0
  0
LINE
  5
BCD28CE5C6CAFD9
330
BCD28CE5C6CB03F
100
AcDbEntity
  8
TEXT
100
AcDbLine
 10
4.662186236077167
 20
3.816249247620741
 30
0.0
 11
4.716319832998117
 21
3.816249247620741
 31
0.0
  0
LINE
  5
BCD28CE5C6CAFDA
330
BCD28CE5C6CB03F
100
AcDbEntity
  8
TEXT
100
AcDbLine
 10
4.662186236077167
 20
3.614052909288995
 30
0.0
 11
4.662186236077167
 21
3.816249247620741
 31
0.0
  0
LWPOLYLINE
  5
BCD28CE5C6CAFDB
330
BCD28CE5C6CB03F
100
AcDbEntity
  8
TEXT
100
AcDbPolyline
 90
        2
 70
     0
 43
0.0
 10
4.716319832998116
 20
3.816249247620741
 42
-0.4142135623731017
 10
4.723873622164229
 20
3.808695458454631
 42
-0.9999999999999998
  0
LWPOLYLINE
  5
BCD28CE5C6CAFDF
330
BCD28CE5C6CB03F
100
AcDbEntity
  8
TEXT
100
AcDbPolyline
 90
        4
 70
     0
 43
0.0
 10
4.723873622164229
 20
3.808695458454631
 10
4.723873622164229
 20
3.614052909288995
 10
4.792351905452087
 20
3.614052909288995
 10
4.792351905452087
 20
3.657543854239433
 42
-1.714843617202739
  0
LINE
  5
BCD28CE5C6CAFE5
330
BCD28CE5C6CB03F
100
AcDbEntity
  8
TEXT
100
AcDbLine
 10
4.152487737768985
 20
3.880525942277506
 30
0.0
 11
4.152487737768985
 21
3.914913859871644
 31
0.0
  0
LINE
  5
BCD28CE5C6CAFE6
330
BCD28CE5C6CB03F
100
AcDbEntity
  8
TEXT
100
AcDbLine
 10
4.224286703912892
 20
3.880525942277506
 30
0.0
 11
4.152487737768985
 21
3.880525942277506
 31
0.0
  0
LINE
  5
BCD28CE5C6CAFE7
330
BCD28CE5C6CB03F
100
AcDbEntity
  8
TEXT
100
AcDbLine
 10
4.371787500544072
 20
3.880525942277506
 30
0.0
 11
4.341665587750695
 21
3.880525942277506
 31
0.0
  0
LINE
  5
BCD28CE5C6CAFE8
330
BCD28CE5C6CB03F
100
AcDbEntity
  8
TEXT
100
AcDbLine
 10
4.371787500544072
 20
3.948537420016317
 30
0.0
 11
4.371787500544072
 21
3.880525942277506
 31
0.0
  0
LINE
  5
BCD28CE5C6CAFE9
330
BCD28CE5C6CB03F
100
AcDbEntity
  8
TEXT
100
AcDbLine
 10
4.438596213110437
 20
3.948537420016317
 30
0.0
 11
4.371787500544072
 21
3.948537420016317
 31
0.0
  0
LWPOLYLINE
  5
BCD28CE5C6CAFEA
330
BCD28CE5C6CB03F
100
AcDbEntity
  8
TEXT
100
AcDbPolyline
 90
        3
 70
     0
 43
0.0
 10
4.759007972708439
 20
3.88052594227751
 10
4.640707813892395
 20
3.88052594227751
 10
4.640707813892395
 20
3.853358445516614
 42
-1.960274751411753
  0
LINE
  5
BCD28CE5C6CAFEF
330
BCD28CE5C6CB03F
100
AcDbEntity
  8
TEXT
100
AcDbLine
 10
4.604926123179233
 20
3.880525942277506
 30
0.0
 11
4.470908067248097
 21
3.880525942277506
 31
0.0
  0
LWPOLYLINE
  5
BCD28CE5C6CAFF0
330
BCD28CE5C6CB03F
100
AcDbEntity
  8
TEXT
100
AcDbPolyline
 90
        2
 70
     0
 43
0.0
 10
4.604926123179233
 20
3.88052594227751
 42
-0.3328679258950098
 10
4.640707813892395
 20
3.853358445516614
 42
6.772930709997214
  0
LINE
  5
BCD28CE5C6CAFF4
330
BCD28CE5C6CB03F
100
AcDbEntity
  8
TEXT
100
AcDbLine
 10
4.794789663421606
 20
3.880525942277506
 30
0.0
 11
4.794789663421606
 21
3.852203396507862
 31
0.0
  0
LWPOLYLINE
  5
BCD28CE5C6CAFF5
330
BCD28CE5C6CB03F
100
AcDbEntity
  8
TEXT
100
AcDbPolyline
 90
        2
 70
     0
 43
0.0
 10
4.759007972708439
 20
3.88052594227751
 42
-0.3277054968067132
 10
4.794789663421604
 20
3.852203396507866
 42
6.667889725900311
  0
LINE
  5
BCD28CE5C6CAFF9
330
BCD28CE5C6CB03F
100
AcDbEntity
  8
TEXT
100
AcDbLine
 10
5.008581511513706
 20
3.775313963724079
 30
0.0
 11
4.964830740331804
 21
3.857564239720224
 31
0.0
  0
LINE
  5
BCD28CE5C6CAFFA
330
BCD28CE5C6CB03F
100
AcDbEntity
  8
TEXT
100
AcDbLine
 10
5.008581511513706
 20
3.880525942277506
 30
0.0
 11
5.008581511513706
 21
3.775313963724079
 31
0.0
  0
LINE
  5
BCD28CE5C6CAFFB
330
BCD28CE5C6CB03F
100
AcDbEntity
  8
TEXT
100
AcDbLine
 10
5.236265250452075
 20
3.804660615865968
 30
0.0
 11
5.236265250452075
 21
3.945990148045107
 31
0.0
  0
LINE
  5
BCD28CE5C6CAFFC
330
BCD28CE5C6CB03F
100
AcDbEntity
  8
TEXT
100
AcDbLine
 10
5.283363409008059
 20
3.880525942277506
 30
0.0
 11
5.236265250452075
 21
3.804660615865968
 31
0.0
  0
LINE
  5
BCD28CE5C6CAFFD
330
BCD28CE5C6CB03F
100
AcDbEntity
  8
TEXT
100
AcDbLine
 10
5.293798125771982
 20
3.770632699336533
 30
0.0
 11
5.358355241737688
 21
3.880525942277506
 31
0.0
  0
LINE
  5
BCD28CE5C6CAFFE
330
BCD28CE5C6CB03F
100
AcDbEntity
  8
TEXT
100
AcDbLine
 10
5.172430259229302
 20
3.614052909288995
 30
0.0
 11
5.236808443547922
 21
3.614052909288995
 31
0.0
  0
LWPOLYLINE
  5
BCD28CE5C6CAFFF
330
BCD28CE5C6CB03F
100
AcDbEntity
  8
TEXT
100
AcDbPolyline
 90
        2
 70
     0
 43
0.0
 10
5.012521188818744
 20
3.657543854239433
 42
-0.2901071551932486
 10
4.969445255951099
 20
3.614052909288995
 42
-5.328517124445184
  0
ARC
  5
BCD28CE5C6CB003
330
BCD28CE5C6CB03F
100
AcDbEntity
  8
TEXT
100
AcDbCircle
 10
4.900590674294185
 20
3.787889872620743
 30
0.0
 40
0.028359375
100
AcDbArc
 50
25.78218179591245
 51
90.0
  0
LINE
  5
BCD28CE5C6CB004
330
BCD28CE5C6CB03F
100
AcDbEntity
  8
TEXT
100
AcDbLine
 10
4.936391749598308
 20
3.778974274158608
 30
0.0
 11
4.926126989184743
 21
3.800224813731303
 31
0.0
  0
LINE
  5
BCD28CE5C6CB005
330
BCD28CE5C6CB03F
100
AcDbEntity
  8
TEXT
100
AcDbLine
 10
4.854103759814925
 20
3.778974274158608
 30
0.0
 11
4.936391749598308
 21
3.778974274158608
 31
0.0
  0
LWPOLYLINE
  5
BCD28CE5C6CB006
330
BCD28CE5C6CB03F
100
AcDbEntity
  8
TEXT
100
AcDbPolyline
 90
        4
 70
     1
 43
0.0
 10
4.949322790881207
 20
3.71701688727302
 10
4.860662472221348
 20
3.71701688727302
 42
0.9999999999999998
 10
4.860662472221348
 20
3.67461834676916
 10
4.949322790881207
 20
3.67461834676916
 42
1.0
  0
LWPOLYLINE
  5
BCD28CE5C6CB00C
330
BCD28CE5C6CB03F
100
AcDbEntity
  8
TEXT
100
AcDbPolyline
 90
        2
 70
     0
 43
0.0
 10
4.835427838319723
 20
3.614052909288995
 10
4.969445255951099
 20
3.614052909288995
 42
0.9999999999999998
  0
LINE
  5
BCD28CE5C6CB010
330
BCD28CE5C6CB03F
100
AcDbEntity
  8
TEXT
100
AcDbLine
 10
5.095782277936739
 20
3.816249247620741
 30
0.0
 11
5.172430259229297
 21
3.816249247620741
 31
0.0
  0
LINE
  5
BCD28CE5C6CB011
330
BCD28CE5C6CB03F
100
AcDbEntity
  8
TEXT
100
AcDbLine
 10
5.172430259229297
 20
3.816249247620741
 30
0.0
 11
5.172430259229302
 21
3.614052909288995
 31
0.0
  0
ARC
  5
BCD28CE5C6CB012
330
BCD28CE5C6CB03F
100
AcDbEntity
  8
TEXT
100
AcDbCircle
 10
5.095782277936737
 20
3.791343372338078
 30
0.0
 40
0.0249058752826653
100
AcDbArc
 50
89.99971217465335
 51
179.9999999999985
  0
LINE
  5
BCD28CE5C6CB013
330
BCD28CE5C6CB03F
100
AcDbEntity
  8
TEXT
100
AcDbLine
 10
5.07087640265408
 20
3.614052909288995
 30
0.0
 11
5.070876402654074
 21
3.791343414720464
 31
0.0
  0
LWPOLYLINE
  5
BCD28CE5C6CB014
330
BCD28CE5C6CB03F
100
AcDbEntity
  8
TEXT
100
AcDbPolyline
 90
        2
 70
     0
 43
0.0
 10
5.012521188818744
 20
3.614052909288995
 10
5.070876402654078
 20
3.614052909288995
  0
LWPOLYLINE
  5
BCD28CE5C6CB018
330
BCD28CE5C6CB03F
100
AcDbEntity
  8
TEXT
100
AcDbPolyline
 90
        2
 70
     0
 43
0.0
 10
5.012521188818744
 20
3.657543854239433
 10
5.012521188818744
 20
3.614052909288995
  0
LINE
  5
BCD28CE5C6CB01C
330
BCD28CE5C6CB03F
100
AcDbEntity
  8
TEXT
100
AcDbLine
 10
5.389290349135593
 20
3.614052909288995
 30
0.0
 11
5.293798125771982
 21
3.770632699336533
 31
0.0
  0
LINE
  5
BCD28CE5C6CB01D
330
BCD28CE5C6CB03F
100
AcDbEntity
  8
TEXT
100
AcDbLine
 10
5.312711976759387
 20
3.614052909288995
 30
0.0
 11
5.389290349135593
 21
3.614052909288995
 31
0.0
  0
LINE
  5
BCD28CE5C6CB01E
330
BCD28CE5C6CB03F
100
AcDbEntity
  8
TEXT
100
AcDbLine
 10
5.236808443547922
 20
3.745632477765175
 30
0.0
 11
5.312711976759387
 21
3.614052909288995
 31
0.0
  0
LINE
  5
BCD28CE5C6CB01F
330
BCD28CE5C6CB03F
100
AcDbEntity
  8
TEXT
100
AcDbLine
 10
5.236808443547922
 20
3.614052909288995
 30
0.0
 11
5.236808443547922
 21
3.745632477765175
 31
0.0
  0
LINE
  5
BCD28CE5C6CB020
330
BCD28CE5C6CB03F
100
AcDbEntity
  8
TEXT
100
AcDbLine
 10
5.236265250452075
 20
3.945990148045107
 30
0.0
 11
5.167950371902802
 21
3.945990148045107
 31
0.0
  0
ARC
  5
BCD28CE5C6CB021
330
BCD28CE5C6CB03F
100
AcDbEntity
  8
TEXT
100
AcDbCircle
 10
4.927594632861596
 20
3.838942375156604
 30
0.0
 40
0.0416329381542859
100
AcDbArc
 50
26.56974201007528
 51
87.20939649401342
  0
LINE
  5
BCD28CE5C6CB022
330
BCD28CE5C6CB03F
100
AcDbEntity
  8
TEXT
100
AcDbLine
 10
5.072478417813207
 20
3.880525942277506
 30
0.0
 11
5.008581511513706
 21
3.880525942277506
 31
0.0
  0
LINE
  5
BCD28CE5C6CB023
330
BCD28CE5C6CB03F
100
AcDbEntity
  8
TEXT
100
AcDbLine
 10
5.072478417813207
 20
3.852978292416631
 30
0.0
 11
5.072478417813207
 21
3.880525942277506
 31
0.0
  0
ARC
  5
BCD28CE5C6CB024
330
BCD28CE5C6CB03F
100
AcDbEntity
  8
TEXT
100
AcDbCircle
 10
5.103671234876315
 20
3.849280214995241
 30
0.0
 40
0.0314112657011332
100
AcDbArc
 50
95.88484768694724
 51
173.2388340632136
  0
LINE
  5
BCD28CE5C6CB025
330
BCD28CE5C6CB03F
100
AcDbEntity
  8
TEXT
100
AcDbLine
 10
5.167950371902796
 20
3.880525942277506
 30
0.0
 11
5.10045065425328
 21
3.880525942277506
 31
0.0
  0
LINE
  5
BCD28CE5C6CB026
330
BCD28CE5C6CB03F
100
AcDbEntity
  8
TEXT
100
AcDbLine
 10
5.167950371902802
 20
3.945990148045107
 30
0.0
 11
5.167950371902796
 21
3.880525942277506
 31
0.0
  0
LINE
  5
BCD28CE5C6CB027
330
BCD28CE5C6CB03F
100
AcDbEntity
  8
TEXT
100
AcDbLine
 10
5.358355241737688
 20
3.880525942277506
 30
0.0
 11
5.283363409008061
 21
3.880525942277506
 31
0.0
  0
INSERT
  5
BCD28CE5C6CB05A
330
BCD28CE5C6CB03F
100
AcDbEntity
  8
ASHADE
 62
     1
100
AcDbBlockReference
  2
AVE_RENDER
 10
0.0
 20
0.0
 30
0.0
1001
AVE_RENDER
1002
{
1070
     6
1000
Pref
1070
    30
1070
    20
1070
     1
1070
     0
1000

1070
    10
1070
     1
1070
    30
1040
1.0
1070
     1
1040
0.3
1040
0.7
1040
0.0
1040
10.0
1010
-1.0
1020
-1.0
1030
-1.0
1040
0.3
1070
    49
1070
     0
1070
     0
1010
1.0
1020
1.0
1030
1.0
1040
45.0
1070
     1
1070
     0
1000
WCS
1040
0.0
1002
}
  0
INSERT
  5
BCD28CE5C6CB05B
330
BCD28CE5C6CB03F
100
AcDbEntity
  8
ASHADE
 62
     3
100
AcDbBlockReference
  2
AVE_RENDER
 10
0.0
 20
0.0
 30
0.0
1001
AVE_RENDER
1002
{
1070
     0
1000
Full Opt
1070
     0
1070
     1
1070
     1
1070
     1
1070
     0
1070
     0
1070
     0
1070
     1
1070
     1
1040
0.0001
1040
0.0001
1002
}
  0
INSERT
  5
BCD28CE5C6CB05C
330
BCD28CE5C6CB03F
100
AcDbEntity
  8
ASHADE
 62
     4
100
AcDbBlockReference
  2
AVE_RENDER
 10
0.0
 20
0.0
 30
0.0
1001
AVE_RENDER
1002
{
1070
     0
1000
Quick Opt
1070
     0
1070
     1
1070
     1
1070
     1
1070
     0
1070
     0
1070
     1
1002
}
  0
INSERT
  5
BCD28CE5C6CB05D
330
BCD28CE5C6CB03F
100
AcDbEntity
  8
ASHADE
 62
     5
100
AcDbBlockReference
  2
AVE_RENDER
 10
0.0
 20
0.0
 30
0.0
1001
AVE_RENDER
1002
{
1070
     1
1000
Scanl Opt
1070
     2
1070
     0
1070
     2
1040
2.0
1040
4.0
1070
     0
1070
     1
1070
     0
1040
0.03
1002
}
  0
INSERT
  5
BCD28CE5C6CB05E
330
BCD28CE5C6CB03F
100
AcDbEntity
  8
ASHADE
 62
     6
100
AcDbBlockReference
  2
AVE_RENDER
 10
0.0
 20
0.0
 30
0.0
1001
AVE_RENDER
1002
{
1070
     2
1000
Raytr Opt
1070
     2
1070
     0
1070
     2
1040
2.0
1040
4.0
1070
     0
1070
     1
1070
     1
1040
0.03
1070
     3
1040
0.03
1002
}
  0
INSERT
  5
BCD28CE5C6CB05F
330
BCD28CE5C6CB03F
100
AcDbEntity
  8
ASHADE
 62
     7
100
AcDbBlockReference
  2
AVE_RENDER
 10
0.0
 20
0.0
 30
0.0
1001
AVE_RENDER
1002
{
1070
     0
1000
RFile Opt
1070
     5
1070
   640
1070
   480
1070
 10000
1070
     3
1070
    32
1070
    24
1070
     0
1070
     0
1070
     0
1070
     1
1070
     0
1070
     0
1070
     0
1002
}
  0
INSERT
  5
BCD28CE5C6CB060
330
BCD28CE5C6CB03F
100
AcDbEntity
  8
ASHADE
 62
     8
100
AcDbBlockReference
  2
AVE_RENDER
 10
0.0
 20
0.0
 30
0.0
1001
AVE_RENDER
1002
{
1070
     0
1000
Fog Opt
1070
     0
1070
     0
1040
0.0
1040
1.0
1040
0.0
1040
1.0
1010
0.5
1020
0.5
1030
0.5
1002
}
  0
INSERT
  5
BCD28CE5C6CB061
330
BCD28CE5C6CB03F
100
AcDbEntity
  8
ASHADE
 62
     9
100
AcDbBlockReference
  2
AVE_RENDER
 10
0.0
 20
0.0
 30
0.0
1001
AVE_RENDER
1002
{
1070
     0
1000
BG Opt
1070
     0
1070
     1
1010
0.0
1020
0.0
1030
0.0
1010
1.0
1020
0.0
1030
0.0
1010
0.0
1020
1.0
1030
0.0
1010
0.0
1020
0.0
1030
1.0
1040
0.5
1040
0.33
1040
0.0
1000

1070
     1
1000

1070
     1
1070
     1
1040
1.0
1040
1.0
1040
0.0
1040
0.0
1070
     0
1002
}
  0
INSERT
  5
BCD28CE5C6CB068
330
BCD28CE5C6CB03F
100
AcDbEntity
  8
ASHADE
 62
     1
100
AcDbBlockReference
  2
AVE_GLOBAL
 10
0.0
 20
0.0
 30
0.0
1001
AVE_MATERIAL
1002
{
1000
*GLOBAL*
1000
1
1000
Global finish.
1002
{
1002
}
1002
{
1070
    63
1002
{
1002
{
1010
-1.0
1020
-1.0
1030
-1.0
1002
}
1040
0.1000000014901161
1000

1040
0.0
1002
{
1002
}
1040
0.0
1002
{
1002
}
1040
0.0
1002
}
1002
{
1002
{
1010
-1.0
1020
-1.0
1030
-1.0
1002
}
1040
0.6999999880790711
1000

1040
0.0
1002
{
1002
}
1040
0.0
1002
{
1002
}
1040
0.0
1002
}
1002
{
1002
{
1010
-1.0
1020
-1.0
1030
-1.0
1002
}
1040
0.2000000029802322
1000

1040
0.0
1002
{
1002
}
1040
0.0
1002
{
1002
}
1040
0.0
1002
}
1002
{
1070
     0
1002
{
1070
     1
1002
{
1040
1.0
1040
1.0
1000

1040
0.0
1002
{
1002
}
1040
0.0
1002
{
1002
}
1040
0.0
1002
}
1002
}
1040
1.0
1040
0.0
1040
0.0
1002
}
1002
{
1040
1.0
1040
1.0
1000

1040
0.0
1002
{
1002
}
1040
0.0
1002
{
1002
}
1040
0.0
1002
}
1002
{
1040
0.5
1040
1.0
1000

1040
0.0
1002
{
1002
}
1040
0.0
1002
{
1002
}
1040
0.0
1002
}
1002
{
1070
     0
1040
0.0
1002
{
1002
}
1040
1.0
1002
{
1002
}
1040
0.0
1002
}
1002
{
1040
0.0
1002
{
1002
{
1010
0.0
1020
0.0
1030
0.0
1002
}
1040
1.0
1000

1040
0.0
1002
{
1002
}
1040
0.0
1002
{
1002
}
1040
0.0
1002
}
1002
}
1002
{
1002
{
1070
     1
1002
{
1040
0.0
1040
1.0
1000

1040
0.0
1002
{
1002
}
1040
0.0
1002
{
1002
}
1040
0.0
1002
}
1002
}
1040
0.0
1002
{
1002
}
1010
1.0
1020
0.0
1030
0.0
1010
0.0
1020
1.0
1030
0.0
1010
0.0
1020
0.0
1030
1.0
1070
     0
1002
}
1002
{
1002
{
1040
1.0
1040
1.0
1002
{
1070
     1
1002
{
1040
1.0
1040
1.0
1000

1040
0.0
1002
{
1002
}
1040
0.0
1002
{
1002
}
1040
0.0
1002
}
1002
}
1002
}
1070
     0
1040
0.0
1002
{
1002
}
1002
}
1002
{
1002
}
1002
}
1002
{
1071
        3
1070
     3
1070
     0
1002
{
1070
     2
1070
     0
1070
     0
1040
0.0
1002
}
1070
     0
1070
     2
1002
{
1002
}
1002
}
1002
{
1040
8030.0
1040
190.3000030517578
1040
0.3050000071525574
1040
228.0
1040
545.0
1040
14.0
1040
17.39999961853027
1040
0.4560000002384186
1002
}
1002
}
  0
ENDSEC
  0
SECTION
  2
OBJECTS
  0
DICTIONARY
  5
BCD28CE5C6CB033
330
0
100
AcDbDictionary
  3
ACAD_GROUP
350
BCD28CE5C6CB034
  3
ACAD_LAYOUT
350
BCD28CE5C6CB074
  3
ACAD_MLINESTYLE
350
BCD28CE5C6CB035
  3
ACAD_PLOTSETTINGS
350
BCD28CE5C6CB075
  3
ACAD_PLOTSTYLENAME
350
BCD28CE5C6CB072
  3
ACDBHEADERROUNDTRIPXREC
350
BCD28CE5C6CB07F
  3
ACDBVARIABLEDICTIONARY
350
BCD28CE5C6CB07C
  0
DICTIONARY
  5
BCD28CE5C6CB0A1
330
BCD28CE5C6CB03F
100
AcDbDictionary
280
     1
  3
ACAD_LAYOUTSELFREF
360
BCD28CE5C6CB0A2
  0
DICTIONARY
  5
BCD28CE5C6CB09F
330
BCD28CE5C6CB03C
100
AcDbDictionary
280
     1
  3
ACAD_LAYOUTSELFREF
360
BCD28CE5C6CB0A0
  0
DICTIONARY
  5
BCD28CE5C6CB034
102
{ACAD_REACTORS
330
BCD28CE5C6CB033
102
}
330
BCD28CE5C6CB033
100
AcDbDictionary
  0
DICTIONARY
  5
BCD28CE5C6CB074
102
{ACAD_REACTORS
330
BCD28CE5C6CB033
102
}
330
BCD28CE5C6CB033
100
AcDbDictionary
  0
DICTIONARY
  5
BCD28CE5C6CB035
102
{ACAD_REACTORS
330
BCD28CE5C6CB033
102
}
330
BCD28CE5C6CB033
100
AcDbDictionary
  3
STANDARD
350
BCD28CE5C6CB042
  0
DICTIONARY
  5
BCD28CE5C6CB075
102
{ACAD_REACTORS
330
BCD28CE5C6CB033
102
}
330
BCD28CE5C6CB033
100
AcDbDictionary
  0
ACDBDICTIONARYWDFLT
  5
BCD28CE5C6CB072
102
{ACAD_REACTORS
330
BCD28CE5C6CB033
102
}
330
BCD28CE5C6CB033
100
AcDbDictionary
281
     1
  3
Normal
350
BCD28CE5C6CB073
100
AcDbDictionaryWithDefault
340
BCD28CE5C6CB073
  0
DICTIONARY
  5
BCD28CE5C6CB07F
102
{ACAD_REACTORS
330
BCD28CE5C6CB033
102
}
330
BCD28CE5C6CB033
100
AcDbDictionary
  3
CEPSNTYPE
350
BCD28CE5C6CB089
  3
FINGERPRINTGUID
350
BCD28CE5C6CB08A
  3
HYPERLINKBASE
350
BCD28CE5C6CB082
  3
INSUNITS
350
BCD28CE5C6CB088
  3
LAYOUTDICT
350
BCD28CE5C6CB084
  3
LWETCUNION
350
BCD28CE5C6CB087
  3
PLOTSETDICT
350
BCD28CE5C6CB085
  3
PLOTSTYLNAMDICT
350
BCD28CE5C6CB086
  3
PSVPSCALE
350
BCD28CE5C6CB08C
  3
PUCSBASE
350
BCD28CE5C6CB08F
  3
PUCSORGBACK
350
BCD28CE5C6CB095
  3
PUCSORGBOTTOM
350
BCD28CE5C6CB091
  3
PUCSORGFRONT
350
BCD28CE5C6CB094
  3
PUCSORGLEFT
350
BCD28CE5C6CB092
  3
PUCSORGRIGHT
350
BCD28CE5C6CB093
  3
PUCSORGTOP
350
BCD28CE5C6CB090
  3
PUCSORTHOREF
350
BCD28CE5C6CB08D
  3
PUCSORTHOVIEW
350
BCD28CE5C6CB08E
  3
STYLESHEET
350
BCD28CE5C6CB083
  3
TSTACKALIGN
350
BCD28CE5C6CB080
  3
TSTACKSIZE
350
BCD28CE5C6CB081
  3
UCSBASE
350
BCD28CE5C6CB098
  3
UCSORGBACK
350
BCD28CE5C6CB09E
  3
UCSORGBOTTOM
350
BCD28CE5C6CB09A
  3
UCSORGFRONT
350
BCD28CE5C6CB09D
  3
UCSORGLEFT
350
BCD28CE5C6CB09B
  3
UCSORGRIGHT
350
BCD28CE5C6CB09C
  3
UCSORGTOP
350
BCD28CE5C6CB099
  3
UCSORTHOREF
350
BCD28CE5C6CB096
  3
UCSORTHOVIEW
350
BCD28CE5C6CB097
  3
VERSIONGUID
350
BCD28CE5C6CB08B
  0
DICTIONARY
  5
BCD28CE5C6CB07C
102
{ACAD_REACTORS
330
BCD28CE5C6CB033
102
}
330
BCD28CE5C6CB033
100
AcDbDictionary
  3
DIMASSOC
350
BCD28CE5C6CB07D
  0
XRECORD
  5
BCD28CE5C6CB0A2
102
{ACAD_REACTORS
330
BCD28CE5C6CB0A1
102
}
330
BCD28CE5C6CB0A1
100
AcDbXrecord
340
BCD28CE5C6CB03F
  0
XRECORD
  5
BCD28CE5C6CB0A0
102
{ACAD_REACTORS
330
BCD28CE5C6CB09F
102
}
330
BCD28CE5C6CB09F
100
AcDbXrecord
340
BCD28CE5C6CB03C
  0
MLINESTYLE
  5
BCD28CE5C6CB042
102
{ACAD_REACTORS
330
BCD28CE5C6CB035
102
}
330
BCD28CE5C6CB035
100
AcDbMlineStyle
  2
STANDARD
 70
     0
  3

 62
     0
 51
90.0
 52
90.0
 71
     2
 49
0.5
 62
   256
  6
BYLAYER
 49
-0.5
 62
   256
  6
BYLAYER
  0
ACDBPLACEHOLDER
  5
BCD28CE5C6CB073
102
{ACAD_REACTORS
330
BCD28CE5C6CB072
102
}
330
BCD28CE5C6CB072
100
AcDbPlaceHolder
280
     0
  0
XRECORD
  5
BCD28CE5C6CB089
102
{ACAD_REACTORS
330
BCD28CE5C6CB07F
102
}
330
BCD28CE5C6CB07F
100
AcDbXrecord
 90
        0
  0
XRECORD
  5
BCD28CE5C6CB08A
102
{ACAD_REACTORS
330
BCD28CE5C6CB07F
102
}
330
BCD28CE5C6CB07F
100
AcDbXrecord
  1
{FC7E6950-8DB5-11D6-88E6-0090279574E7}
  0
XRECORD
  5
BCD28CE5C6CB082
102
{ACAD_REACTORS
330
BCD28CE5C6CB07F
102
}
330
BCD28CE5C6CB07F
100
AcDbXrecord
  1

  0
XRECORD
  5
BCD28CE5C6CB088
102
{ACAD_REACTORS
330
BCD28CE5C6CB07F
102
}
330
BCD28CE5C6CB07F
100
AcDbXrecord
 90
        0
  0
XRECORD
  5
BCD28CE5C6CB084
102
{ACAD_REACTORS
330
BCD28CE5C6CB07F
102
}
330
BCD28CE5C6CB07F
100
AcDbXrecord
340
BCD28CE5C6CB074
  0
XRECORD
  5
BCD28CE5C6CB087
102
{ACAD_REACTORS
330
BCD28CE5C6CB07F
102
}
330
BCD28CE5C6CB07F
100
AcDbXrecord
 90
    14877
  0
XRECORD
  5
BCD28CE5C6CB085
102
{ACAD_REACTORS
330
BCD28CE5C6CB07F
102
}
330
BCD28CE5C6CB07F
100
AcDbXrecord
340
BCD28CE5C6CB075
  0
XRECORD
  5
BCD28CE5C6CB086
102
{ACAD_REACTORS
330
BCD28CE5C6CB07F
102
}
330
BCD28CE5C6CB07F
100
AcDbXrecord
340
BCD28CE5C6CB072
  0
XRECORD
  5
BCD28CE5C6CB08C
102
{ACAD_REACTORS
330
BCD28CE5C6CB07F
102
}
330
BCD28CE5C6CB07F
100
AcDbXrecord
 40
0.0
  0
XRECORD
  5
BCD28CE5C6CB08F
102
{ACAD_REACTORS
330
BCD28CE5C6CB07F
102
}
330
BCD28CE5C6CB07F
100
AcDbXrecord
340
0
  0
XRECORD
  5
BCD28CE5C6CB095
102
{ACAD_REACTORS
330
BCD28CE5C6CB07F
102
}
330
BCD28CE5C6CB07F
100
AcDbXrecord
 10
0.0
 20
0.0
 30
0.0
  0
XRECORD
  5
BCD28CE5C6CB091
102
{ACAD_REACTORS
330
BCD28CE5C6CB07F
102
}
330
BCD28CE5C6CB07F
100
AcDbXrecord
 10
0.0
 20
0.0
 30
0.0
  0
XRECORD
  5
BCD28CE5C6CB094
102
{ACAD_REACTORS
330
BCD28CE5C6CB07F
102
}
330
BCD28CE5C6CB07F
100
AcDbXrecord
 10
0.0
 20
0.0
 30
0.0
  0
XRECORD
  5
BCD28CE5C6CB092
102
{ACAD_REACTORS
330
BCD28CE5C6CB07F
102
}
330
BCD28CE5C6CB07F
100
AcDbXrecord
 10
0.0
 20
0.0
 30
0.0
  0
XRECORD
  5
BCD28CE5C6CB093
102
{ACAD_REACTORS
330
BCD28CE5C6CB07F
102
}
330
BCD28CE5C6CB07F
100
AcDbXrecord
 10
0.0
 20
0.0
 30
0.0
  0
XRECORD
  5
BCD28CE5C6CB090
102
{ACAD_REACTORS
330
BCD28CE5C6CB07F
102
}
330
BCD28CE5C6CB07F
100
AcDbXrecord
 10
0.0
 20
0.0
 30
0.0
  0
XRECORD
  5
BCD28CE5C6CB08D
102
{ACAD_REACTORS
330
BCD28CE5C6CB07F
102
}
330
BCD28CE5C6CB07F
100
AcDbXrecord
340
0
  0
XRECORD
  5
BCD28CE5C6CB08E
102
{ACAD_REACTORS
330
BCD28CE5C6CB07F
102
}
330
BCD28CE5C6CB07F
100
AcDbXrecord
 70
     0
  0
XRECORD
  5
BCD28CE5C6CB083
102
{ACAD_REACTORS
330
BCD28CE5C6CB07F
102
}
330
BCD28CE5C6CB07F
100
AcDbXrecord
  1

  0
XRECORD
  5
BCD28CE5C6CB080
102
{ACAD_REACTORS
330
BCD28CE5C6CB07F
102
}
330
BCD28CE5C6CB07F
100
AcDbXrecord
 90
        1
  0
XRECORD
  5
BCD28CE5C6CB081
102
{ACAD_REACTORS
330
BCD28CE5C6CB07F
102
}
330
BCD28CE5C6CB07F
100
AcDbXrecord
 90
       70
  0
XRECORD
  5
BCD28CE5C6CB098
102
{ACAD_REACTORS
330
BCD28CE5C6CB07F
102
}
330
BCD28CE5C6CB07F
100
AcDbXrecord
340
0
  0
XRECORD
  5
BCD28CE5C6CB09E
102
{ACAD_REACTORS
330
BCD28CE5C6CB07F
102
}
330
BCD28CE5C6CB07F
100
AcDbXrecord
 10
0.0
 20
0.0
 30
0.0
  0
XRECORD
  5
BCD28CE5C6CB09A
102
{ACAD_REACTORS
330
BCD28CE5C6CB07F
102
}
330
BCD28CE5C6CB07F
100
AcDbXrecord
 10
0.0
 20
0.0
 30
0.0
  0
XRECORD
  5
BCD28CE5C6CB09D
102
{ACAD_REACTORS
330
BCD28CE5C6CB07F
102
}
330
BCD28CE5C6CB07F
100
AcDbXrecord
 10
0.0
 20
0.0
 30
0.0
  0
XRECORD
  5
BCD28CE5C6CB09B
102
{ACAD_REACTORS
330
BCD28CE5C6CB07F
102
}
330
BCD28CE5C6CB07F
100
AcDbXrecord
 10
0.0
 20
0.0
 30
0.0
  0
XRECORD
  5
BCD28CE5C6CB09C
102
{ACAD_REACTORS
330
BCD28CE5C6CB07F
102
}
330
BCD28CE5C6CB07F
100
AcDbXrecord
 10
0.0
 20
0.0
 30
0.0
  0
XRECORD
  5
BCD28CE5C6CB099
102
{ACAD_REACTORS
330
BCD28CE5C6CB07F
102
}
330
BCD28CE5C6CB07F
100
AcDbXrecord
 10
0.0
 20
0.0
 30
0.0
  0
XRECORD
  5
BCD28CE5C6CB096
102
{ACAD_REACTORS
330
BCD28CE5C6CB07F
102
}
330
BCD28CE5C6CB07F
100
AcDbXrecord
340
0
  0
XRECORD
  5
BCD28CE5C6CB097
102
{ACAD_REACTORS
330
BCD28CE5C6CB07F
102
}
330
BCD28CE5C6CB07F
100
AcDbXrecord
 70
     0
  0
XRECORD
  5
BCD28CE5C6CB08B
102
{ACAD_REACTORS
330
BCD28CE5C6CB07F
102
}
330
BCD28CE5C6CB07F
100
AcDbXrecord
  1
{FC7E6952-8DB5-11D6-88E6-0090279574E7}
  0
DICTIONARYVAR
  5
BCD28CE5C6CB07D
102
{ACAD_REACTORS
330
BCD28CE5C6CB07C
102
}
330
BCD28CE5C6CB07C
100
DictionaryVariables
280
     0
  1
1
  0
ENDSEC
  0
EOF
