  0
SECTION
  2
HEADER
  9
$ACADVER
  1
AC1014
  9
$ACADMAINTVER
 70
     9
  9
$DWGCODEPAGE
  3
ANSI_1252
  9
$INSBASE
 10
2.594512217383503
 20
2.202781584723314
 30
0.0
  9
$EXTMIN
 10
0.8263781694066956
 20
1.167511382342321
 30
0.0
  9
$EXTMAX
 10
4.311597491153824
 20
2.4287753427215
 30
0.0
  9
$LIMMIN
 10
0.0
 20
0.0
  9
$LIMMAX
 10
18.0
 20
12.0
  9
$ORTHOMODE
 70
     1
  9
$REGENMODE
 70
     1
  9
$FILLMODE
 70
     1
  9
$QTEXTMODE
 70
     0
  9
$MIRRTEXT
 70
     0
  9
$DRAGMODE
 70
     2
  9
$LTSCALE
 40
1.0
  9
$OSMODE
 70
    39
  9
$ATTMODE
 70
     1
  9
$TEXTSIZE
 40
0.125
  9
$TRACEWID
 40
0.05
  9
$TEXTSTYLE
  7
ROMANS
  9
$CLAYER
  8
0
  9
$CELTYPE
  6
BYLAYER
  9
$CECOLOR
 62
   256
  9
$CELTSCALE
 40
1.0
  9
$DELOBJ
 70
     1
  9
$DISPSILH
 70
     1
  9
$DIMSCALE
 40
1.0
  9
$DIMASZ
 40
0.125
  9
$DIMEXO
 40
0.125
  9
$DIMDLI
 40
0.375
  9
$DIMRND
 40
0.0
  9
$DIMDLE
 40
0.0
  9
$DIMEXE
 40
0.125
  9
$DIMTP
 40
0.0
  9
$DIMTM
 40
0.0
  9
$DIMTXT
 40
0.125
  9
$DIMCEN
 40
-0.125
  9
$DIMTSZ
 40
0.0
  9
$DIMTOL
 70
     0
  9
$DIMLIM
 70
     0
  9
$DIMTIH
 70
     1
  9
$DIMTOH
 70
     1
  9
$DIMSE1
 70
     0
  9
$DIMSE2
 70
     0
  9
$DIMTAD
 70
     0
  9
$DIMZIN
 70
     4
  9
$DIMBLK
  1

  9
$DIMASO
 70
     1
  9
$DIMSHO
 70
     1
  9
$DIMPOST
  1

  9
$DIMAPOST
  1

  9
$DIMALT
 70
     0
  9
$DIMALTD
 70
     2
  9
$DIMALTF
 40
25.4
  9
$DIMLFAC
 40
1.0
  9
$DIMTOFL
 70
     0
  9
$DIMTVP
 40
0.0
  9
$DIMTIX
 70
     1
  9
$DIMSOXD
 70
     0
  9
$DIMSAH
 70
     0
  9
$DIMBLK1
  1

  9
$DIMBLK2
  1

  9
$DIMSTYLE
  2
STANDARD
  9
$DIMCLRD
 70
     0
  9
$DIMCLRE
 70
     0
  9
$DIMCLRT
 70
     0
  9
$DIMTFAC
 40
1.0
  9
$DIMGAP
 40
0.09
  9
$DIMJUST
 70
     0
  9
$DIMSD1
 70
     0
  9
$DIMSD2
 70
     0
  9
$DIMTOLJ
 70
     1
  9
$DIMTZIN
 70
     4
  9
$DIMALTZ
 70
     0
  9
$DIMALTTZ
 70
     0
  9
$DIMFIT
 70
     3
  9
$DIMUPT
 70
     0
  9
$DIMUNIT
 70
     2
  9
$DIMDEC
 70
     3
  9
$DIMTDEC
 70
     3
  9
$DIMALTU
 70
     2
  9
$DIMALTTD
 70
     2
  9
$DIMTXSTY
  7
ROMANS
  9
$DIMAUNIT
 70
     0
  9
$LUNITS
 70
     2
  9
$LUPREC
 70
     3
  9
$SKETCHINC
 40
0.1
  9
$FILLETRAD
 40
0.03125
  9
$AUNITS
 70
     0
  9
$AUPREC
 70
     0
  9
$MENU
  1
ACAD
  9
$ELEVATION
 40
0.0
  9
$PELEVATION
 40
0.0
  9
$THICKNESS
 40
0.0
  9
$LIMCHECK
 70
     0
  9
$BLIPMODE
 70
     0
  9
$CHAMFERA
 40
0.0
  9
$CHAMFERB
 40
0.0
  9
$CHAMFERC
 40
0.0
  9
$CHAMFERD
 40
0.0
  9
$SKPOLY
 70
     0
  9
$TDCREATE
 40
2448994.546005787
  9
$TDUPDATE
 40
2452458.305293356
  9
$TDINDWG
 40
0.0007111690
  9
$TDUSRTIMER
 40
0.0007111690
  9
$USRTIMER
 70
     1
  9
$ANGBASE
 50
0.0
  9
$ANGDIR
 70
     0
  9
$PDMODE
 70
     0
  9
$PDSIZE
 40
0.0
  9
$PLINEWID
 40
0.0
  9
$COORDS
 70
     2
  9
$SPLFRAME
 70
     0
  9
$SPLINETYPE
 70
     6
  9
$SPLINESEGS
 70
     8
  9
$ATTDIA
 70
     0
  9
$ATTREQ
 70
     1
  9
$HANDLING
 70
 22529
  9
$HANDSEED
  5
BCD28CE5C6CACC2
  9
$SURFTAB1
 70
     6
  9
$SURFTAB2
 70
     6
  9
$SURFTYPE
 70
     6
  9
$SURFU
 70
     6
  9
$SURFV
 70
     6
  9
$UCSNAME
  2

  9
$UCSORG
 10
0.0
 20
0.0
 30
0.0
  9
$UCSXDIR
 10
1.0
 20
0.0
 30
0.0
  9
$UCSYDIR
 10
0.0
 20
1.0
 30
0.0
  9
$PUCSNAME
  2

  9
$PUCSORG
 10
0.0
 20
0.0
 30
0.0
  9
$PUCSXDIR
 10
1.0
 20
0.0
 30
0.0
  9
$PUCSYDIR
 10
0.0
 20
1.0
 30
0.0
  9
$USERI1
 70
     0
  9
$USERI2
 70
     0
  9
$USERI3
 70
     0
  9
$USERI4
 70
     0
  9
$USERI5
 70
     0
  9
$USERR1
 40
0.0
  9
$USERR2
 40
0.0
  9
$USERR3
 40
0.0
  9
$USERR4
 40
0.0
  9
$USERR5
 40
0.0
  9
$WORLDVIEW
 70
     1
  9
$SHADEDGE
 70
     3
  9
$SHADEDIF
 70
    70
  9
$TILEMODE
 70
     1
  9
$MAXACTVP
 70
    16
  9
$PINSBASE
 10
0.0
 20
0.0
 30
0.0
  9
$PLIMCHECK
 70
     0
  9
$PEXTMIN
 10
1.000000000000000E+20
 20
1.000000000000000E+20
 30
1.000000000000000E+20
  9
$PEXTMAX
 10
-1.000000000000000E+20
 20
-1.000000000000000E+20
 30
-1.000000000000000E+20
  9
$PLIMMIN
 10
0.0
 20
0.0
  9
$PLIMMAX
 10
12.0
 20
9.0
  9
$UNITMODE
 70
     0
  9
$VISRETAIN
 70
     0
  9
$PLINEGEN
 70
     1
  9
$PSLTSCALE
 70
     0
  9
$TREEDEPTH
 70
  3020
  9
$PICKSTYLE
 70
     1
  9
$CMLSTYLE
  2
STANDARD
  9
$CMLJUST
 70
     0
  9
$CMLSCALE
 40
1.0
  9
$PROXYGRAPHICS
 70
     1
  9
$MEASUREMENT
 70
     0
  0
ENDSEC
  0
SECTION
  2
CLASSES
  0
CLASS
  1
LWPOLYLINE
  2
AcDbPolyline
  3
AutoCAD 2000
 90
        0
280
     0
281
     1
  0
CLASS
  1
ACDBDICTIONARYWDFLT
  2
AcDbDictionaryWithDefault
  3
AutoCAD 2000
 90
        0
280
     0
281
     0
  0
CLASS
  1
ACDBPLACEHOLDER
  2
AcDbPlaceHolder
  3
AutoCAD 2000
 90
        0
280
     0
281
     0
  0
CLASS
  1
LAYOUT
  2
AcDbLayout
  3
AutoCAD 2000
 90
        0
280
     0
281
     0
  0
CLASS
  1
DICTIONARYVAR
  2
AcDbDictionaryVar
  3
AutoCAD 2000
 90
        0
280
     0
281
     0
  0
CLASS
  1
LONG_TRANSACTION
  2
AcDbLongTransaction
  3
AutoCAD 2000
 90
        0
280
     0
281
     0
  0
CLASS
  1
LWPOLYLINE
  2
AcDbPolyline
  3
AutoCAD 2000
 90
        0
280
     0
281
     1
  0
CLASS
  1
HATCH
  2
AcDbHatch
  3
AutoCAD 2000
 90
        0
280
     0
281
     1
  0
CLASS
  1
XRECORD
  2
AcDbXrecord
  3
AutoCAD 2000
 90
        0
280
     0
281
     0
  0
ENDSEC
  0
SECTION
  2
TABLES
  0
TABLE
  2
VPORT
  5
BCD28CE5C6CAC4E
330
0
100
AcDbSymbolTable
 70
     2
  0
VPORT
  5
BCD28CE5C6CAC9D
330
BCD28CE5C6CAC4E
100
AcDbSymbolTableRecord
100
AcDbViewportTableRecord
  2
*ACTIVE
 70
     0
 10
0.0
 20
0.0
 11
1.0
 21
1.0
 12
5.545901142798048
 22
1.798187278907498
 13
0.0
 23
0.0
 14
0.015625
 24
0.015625
 15
0.0
 25
0.0
 16
0.0
 26
0.0
 36
1.0
 17
0.0
 27
0.0
 37
0.0
 40
2.282647215150728
 41
4.320930232558139
 42
50.0
 43
0.0
 44
0.0
 50
0.0
 51
0.0
 71
     0
 72
  2000
 73
     1
 74
     0
 75
     0
 76
     0
 77
     0
 78
     0
  0
ENDTAB
  0
TABLE
  2
LTYPE
  5
BCD28CE5C6CAC4B
330
0
100
AcDbSymbolTable
 70
     1
  0
LTYPE
  5
BCD28CE5C6CAC58
330
BCD28CE5C6CAC4B
100
AcDbSymbolTableRecord
100
AcDbLinetypeTableRecord
  2
BYBLOCK
 70
     0
  3

 72
    65
 73
     0
 40
0.0
  0
LTYPE
  5
BCD28CE5C6CAC59
330
BCD28CE5C6CAC4B
100
AcDbSymbolTableRecord
100
AcDbLinetypeTableRecord
  2
BYLAYER
 70
     0
  3

 72
    65
 73
     0
 40
0.0
  0
LTYPE
  5
BCD28CE5C6CAC5A
330
BCD28CE5C6CAC4B
100
AcDbSymbolTableRecord
100
AcDbLinetypeTableRecord
  2
CONTINUOUS
 70
     0
  3
Solid line
 72
    65
 73
     0
 40
0.0
  0
ENDTAB
  0
TABLE
  2
LAYER
  5
BCD28CE5C6CAC48
330
0
100
AcDbSymbolTable
 70
     3
  0
LAYER
  5
BCD28CE5C6CAC55
330
BCD28CE5C6CAC48
100
AcDbSymbolTableRecord
100
AcDbLayerTableRecord
  2
0
 70
     0
 62
     7
  6
CONTINUOUS
  0
LAYER
  5
BCD28CE5C6CAC65
330
BCD28CE5C6CAC48
100
AcDbSymbolTableRecord
100
AcDbLayerTableRecord
  2
TEXT
 70
     0
 62
     3
  6
CONTINUOUS
  0
LAYER
  5
BCD28CE5C6CAC75
330
BCD28CE5C6CAC48
100
AcDbSymbolTableRecord
100
AcDbLayerTableRecord
  2
ASHADE
 70
     4
 62
     7
  6
CONTINUOUS
  0
ENDTAB
  0
TABLE
  2
STYLE
  5
BCD28CE5C6CAC49
330
0
100
AcDbSymbolTable
 70
     4
  0
STYLE
  5
BCD28CE5C6CAC56
330
BCD28CE5C6CAC49
100
AcDbSymbolTableRecord
100
AcDbTextStyleTableRecord
  2
STANDARD
 70
     0
 40
0.0
 41
1.0
 50
0.0
 71
     0
 42
0.3125
  3
txt
  4

  0
STYLE
  5
BCD28CE5C6CAC62
330
BCD28CE5C6CAC49
100
AcDbSymbolTableRecord
100
AcDbTextStyleTableRecord
  2
ITALICC
 70
     0
 40
0.0
 41
1.0
 50
0.0
 71
     0
 42
0.125
  3
italicc
  4

  0
STYLE
  5
BCD28CE5C6CAC72
330
BCD28CE5C6CAC49
100
AcDbSymbolTableRecord
100
AcDbTextStyleTableRecord
  2
ASHADE
 70
     0
 40
0.2
 41
1.0
 50
0.0
 71
     0
 42
0.3125
  3
simplex
  4

  0
STYLE
  5
BCD28CE5C6CAC8D
330
BCD28CE5C6CAC49
100
AcDbSymbolTableRecord
100
AcDbTextStyleTableRecord
  2
ROMANS
 70
     0
 40
0.0
 41
1.0
 50
0.0
 71
     0
 42
0.125
  3
romans.shx
  4

  0
ENDTAB
  0
TABLE
  2
VIEW
  5
BCD28CE5C6CAC4C
330
0
100
AcDbSymbolTable
 70
     0
  0
ENDTAB
  0
TABLE
  2
UCS
  5
BCD28CE5C6CAC4D
330
0
100
AcDbSymbolTable
 70
     0
  0
ENDTAB
  0
TABLE
  2
APPID
  5
BCD28CE5C6CAC4F
330
0
100
AcDbSymbolTable
 70
     6
  0
APPID
  5
BCD28CE5C6CAC57
330
BCD28CE5C6CAC4F
100
AcDbSymbolTableRecord
100
AcDbRegAppTableRecord
  2
ACAD
 70
     0
  0
APPID
  5
BCD28CE5C6CAC73
330
BCD28CE5C6CAC4F
100
AcDbSymbolTableRecord
100
AcDbRegAppTableRecord
  2
AVE_RENDER
 70
     0
  0
APPID
  5
BCD28CE5C6CAC74
330
BCD28CE5C6CAC4F
100
AcDbSymbolTableRecord
100
AcDbRegAppTableRecord
  2
AVE_ENTITY_MATERIAL
 70
     0
  0
APPID
  5
BCD28CE5C6CAC81
330
BCD28CE5C6CAC4F
100
AcDbSymbolTableRecord
100
AcDbRegAppTableRecord
  2
AVE_FINISH
 70
     0
  0
APPID
  5
BCD28CE5C6CAC82
330
BCD28CE5C6CAC4F
100
AcDbSymbolTableRecord
100
AcDbRegAppTableRecord
  2
AVE_MATERIAL
 70
     0
  0
APPID
  5
BCD28CE5C6CAC83
330
BCD28CE5C6CAC4F
100
AcDbSymbolTableRecord
100
AcDbRegAppTableRecord
  2
AVE_GLOBAL
 70
     0
  0
ENDTAB
  0
TABLE
  2
DIMSTYLE
  5
BCD28CE5C6CAC50
330
0
100
AcDbSymbolTable
 70
     1
  0
DIMSTYLE
105
BCD28CE5C6CAC6A
330
BCD28CE5C6CAC50
100
AcDbSymbolTableRecord
100
AcDbDimStyleTableRecord
  2
STANDARD
 70
     0
  3

  4

  5

  6

  7

 40
1.0
 41
0.125
 42
0.125
 43
0.375
 44
0.125
 45
0.0
 46
0.0
 47
0.0
 48
0.0
140
0.125
141
-0.125
142
0.0
143
25.4
144
1.0
145
0.0
146
1.0
147
0.09
 71
     0
 72
     0
 73
     1
 74
     1
 75
     0
 76
     0
 77
     0
 78
     4
170
     0
171
     2
172
     0
173
     0
174
     1
175
     0
176
     0
177
     0
178
     0
270
     2
271
     3
272
     3
273
     2
274
     2
340
BCD28CE5C6CAC8D
275
     0
280
     0
281
     0
282
     0
283
     1
284
     4
285
     0
286
     0
287
     3
288
     0
  0
ENDTAB
  0
TABLE
  2
BLOCK_RECORD
  5
BCD28CE5C6CAC47
330
0
100
AcDbSymbolTable
 70
     2
  0
BLOCK_RECORD
  5
BCD28CE5C6CAC5E
102
{ACAD_XDICTIONARY
360
BCD28CE5C6CACC0
102
}
330
BCD28CE5C6CAC47
100
AcDbSymbolTableRecord
100
AcDbBlockTableRecord
  2
*MODEL_SPACE
  0
BLOCK_RECORD
  5
BCD28CE5C6CAC5B
102
{ACAD_XDICTIONARY
360
BCD28CE5C6CACBE
102
}
330
BCD28CE5C6CAC47
100
AcDbSymbolTableRecord
100
AcDbBlockTableRecord
  2
*PAPER_SPACE
  0
BLOCK_RECORD
  5
BCD28CE5C6CAC76
330
BCD28CE5C6CAC47
100
AcDbSymbolTableRecord
100
AcDbBlockTableRecord
  2
AVE_RENDER
  0
BLOCK_RECORD
  5
BCD28CE5C6CAC84
330
BCD28CE5C6CAC47
100
AcDbSymbolTableRecord
100
AcDbBlockTableRecord
  2
AVE_GLOBAL
  0
ENDTAB
  0
ENDSEC
  0
SECTION
  2
BLOCKS
  0
BLOCK
  5
BCD28CE5C6CAC68
330
BCD28CE5C6CAC5E
100
AcDbEntity
  8
0
100
AcDbBlockBegin
  2
*MODEL_SPACE
 70
     0
 10
0.0
 20
0.0
 30
0.0
  3
*MODEL_SPACE
  1

  0
ENDBLK
  5
BCD28CE5C6CAC69
330
BCD28CE5C6CAC5E
100
AcDbEntity
  8
0
100
AcDbBlockEnd
  0
BLOCK
  5
BCD28CE5C6CAC66
330
BCD28CE5C6CAC5B
100
AcDbEntity
 67
     1
  8
0
100
AcDbBlockBegin
  2
*PAPER_SPACE
 70
     0
 10
0.0
 20
0.0
 30
0.0
  3
*PAPER_SPACE
  1

  0
ENDBLK
  5
BCD28CE5C6CAC67
330
BCD28CE5C6CAC5B
100
AcDbEntity
 67
     1
  8
0
100
AcDbBlockEnd
  0
BLOCK
  5
BCD28CE5C6CAC77
330
BCD28CE5C6CAC76
100
AcDbEntity
  8
0
100
AcDbBlockBegin
  2
AVE_RENDER
 70
     0
 10
0.0
 20
0.0
 30
0.0
  3
AVE_RENDER
  1
AVE_RENDER
  0
ENDBLK
  5
BCD28CE5C6CAC78
330
BCD28CE5C6CAC76
100
AcDbEntity
  8
0
100
AcDbBlockEnd
  0
BLOCK
  5
BCD28CE5C6CAC85
330
BCD28CE5C6CAC84
100
AcDbEntity
  8
0
100
AcDbBlockBegin
  2
AVE_GLOBAL
 70
     0
 10
0.0
 20
0.0
 30
0.0
  3
AVE_GLOBAL
  1
AVE_GLOBAL
  0
ENDBLK
  5
BCD28CE5C6CAC86
330
BCD28CE5C6CAC84
100
AcDbEntity
  8
0
100
AcDbBlockEnd
  0
ENDSEC
  0
SECTION
  2
ENTITIES
  0
LWPOLYLINE
  5
BCD28CE5C6C96A6
330
BCD28CE5C6CAC5E
100
AcDbEntity
  8
0
100
AcDbPolyline
 90
       23
 70
     1
 43
0.0
 10
1.881859748633838
 20
1.991275342721501
 10
2.015233160897311
 20
1.991275342721501
 42
0.2679491924311233
 10
2.042296454765574
 20
2.0069003427215
 10
2.069359748633838
 20
2.0537753427215
 10
1.881859748633838
 20
2.0537753427215
 10
1.881859748633838
 20
2.3506503427215
 10
3.256859748633838
 20
2.3506503427215
 10
3.256859748633838
 20
2.0537753427215
 10
3.069359748633838
 20
2.0537753427215
 10
3.096423042502101
 20
2.0069003427215
 42
0.2679491924311233
 10
3.123486336370365
 20
1.991275342721501
 10
3.256859748633838
 20
1.991275342721501
 10
3.256859748633838
 20
1.960025342721501
 42
1.0
 10
3.319359748633838
 20
1.960025342721501
 10
3.319359748633838
 20
2.4287753427215
 42
-0.1249999999999998
 10
3.069359748633838
 20
2.4287753427215
 42
-0.1249999999999998
 10
2.819359748633838
 20
2.4287753427215
 42
-0.1249999999999998
 10
2.569359748633838
 20
2.4287753427215
 42
-0.1249999999999998
 10
2.319359748633838
 20
2.4287753427215
 42
-0.1249999999999998
 10
2.069359748633838
 20
2.4287753427215
 42
-0.1249999999999998
 10
1.819359748633838
 20
2.4287753427215
 10
1.819359748633838
 20
1.960025342721501
 42
1.0
 10
1.881859748633838
 20
1.960025342721501
  0
TEXT
  5
BCD28CE5C6CAB09
330
BCD28CE5C6CAC5E
100
AcDbEntity
  8
TEXT
100
AcDbText
 10
1.816383558157648
 20
1.625529986424902
 30
0.0
 40
0.125
  1
PART #110294
  7
ITALICC
 72
     1
 11
2.569359748633838
 21
1.625529986424902
 31
0.0
100
AcDbText
  0
TEXT
  5
BCD28CE5C6CAB0A
330
BCD28CE5C6CAC5E
100
AcDbEntity
  8
TEXT
100
AcDbText
 10
2.982664906884159
 20
1.178607343752527
 30
0.0
 40
0.0522247191011236
  1
Phone  1-800-328-2495
 41
1.272321428571429
 72
     5
 11
4.311597491153823
 21
1.178607343752527
 31
0.0
100
AcDbText
  0
TEXT
  5
BCD28CE5C6CAB0B
330
BCD28CE5C6CAC5E
100
AcDbEntity
  8
TEXT
100
AcDbText
 10
2.982664906884159
 20
1.458382624651403
 30
0.0
 40
0.0522247191011236
  1
Stylmark  Incorporated
 41
1.221428571428573
 72
     5
 11
4.311597491153823
 21
1.458382624651403
 31
0.0
100
AcDbText
  0
TEXT
  5
BCD28CE5C6CAB0C
330
BCD28CE5C6CAC5E
100
AcDbEntity
  8
TEXT
100
AcDbText
 10
2.982664906884159
 20
1.365124197685111
 30
0.0
 40
0.0522247191011236
  1
6536 Main St. N.E. * P.O. Box 32008
 41
0.8388932496075366
 72
     5
 11
4.311597491153823
 21
1.365124197685111
 31
0.0
100
AcDbText
  0
TEXT
  5
BCD28CE5C6CAB0D
330
BCD28CE5C6CAC5E
100
AcDbEntity
  8
TEXT
100
AcDbText
 10
2.982664906884159
 20
1.271865770718819
 30
0.0
 40
0.0522247191011236
  1
Minneapolis, MN 55432-0008
 41
1.11444212721585
 72
     5
 11
4.311597491153823
 21
1.271865770718819
 31
0.0
100
AcDbText
  0
LWPOLYLINE
  5
BCD28CE5C6CAB0E
330
BCD28CE5C6CAC5E
100
AcDbEntity
  8
TEXT
100
AcDbPolyline
 90
        3
 70
     0
 43
0.0006660908203125
 10
0.8267112148168518
 20
1.292252106389962
 10
0.8267112148168518
 20
1.179016666936834
 10
0.9399466542699741
 20
1.179016666936834
  0
LWPOLYLINE
  5
BCD28CE5C6CAB13
330
BCD28CE5C6CAC5E
100
AcDbEntity
  8
TEXT
100
AcDbPolyline
 90
        3
 70
     0
 43
0.0006660908203125
 10
0.8533548476293493
 20
1.292252106389962
 10
0.8533548476293493
 20
1.205660299749335
 10
0.9399466542699741
 20
1.205660299749335
  0
LWPOLYLINE
  5
BCD28CE5C6CAB18
330
BCD28CE5C6CAC5E
100
AcDbEntity
  8
TEXT
100
AcDbPolyline
 90
        2
 70
     0
 43
0.0001332181640625
 10
0.8999812050512261
 20
1.302243468694647
 10
0.8267112148168518
 20
1.292252106389962
  0
LWPOLYLINE
  5
BCD28CE5C6CAB1C
330
BCD28CE5C6CAC5E
100
AcDbEntity
  8
TEXT
100
AcDbPolyline
 90
        2
 70
     0
 43
0.0001332181640625
 10
0.8533548476293493
 20
1.292252106389962
 10
0.9133030214574766
 20
1.302243468694647
  0
LWPOLYLINE
  5
BCD28CE5C6CAB20
330
BCD28CE5C6CAC5E
100
AcDbEntity
  8
TEXT
100
AcDbPolyline
 90
        2
 70
     0
 43
0.0001332181640625
 10
0.8533548476293493
 20
1.205660299749335
 10
0.9133030214574766
 20
1.265608473577461
  0
LWPOLYLINE
  5
BCD28CE5C6CAB24
330
BCD28CE5C6CAC5E
100
AcDbEntity
  8
TEXT
100
AcDbPolyline
 90
        3
 70
     0
 43
0.0006660908203125
 10
0.9399466542699741
 20
1.445452995061837
 10
0.8267112148168518
 20
1.445452995061837
 10
0.8267112148168518
 20
1.33221755560871
  0
LWPOLYLINE
  5
BCD28CE5C6CAB29
330
BCD28CE5C6CAC5E
100
AcDbEntity
  8
TEXT
100
AcDbPolyline
 90
        3
 70
     0
 43
0.0006660908203125
 10
0.9399466542699741
 20
1.418809362249336
 10
0.8533548476293493
 20
1.418809362249336
 10
0.8533548476293493
 20
1.33221755560871
  0
LWPOLYLINE
  5
BCD28CE5C6CAB2E
330
BCD28CE5C6CAC5E
100
AcDbEntity
  8
TEXT
100
AcDbPolyline
 90
        2
 70
     0
 43
0.0001332181640625
 10
0.8533548476293493
 20
1.418809362249336
 10
0.9133030214574748
 20
1.358861188421211
  0
LWPOLYLINE
  5
BCD28CE5C6CAB32
330
BCD28CE5C6CAC5E
100
AcDbEntity
  8
TEXT
100
AcDbPolyline
 90
        2
 70
     0
 43
0.0001332181640625
 10
0.8533548476293493
 20
1.33221755560871
 10
0.9133030214574748
 20
1.322226193304021
  0
LWPOLYLINE
  5
BCD28CE5C6CAB36
330
BCD28CE5C6CAC5E
100
AcDbEntity
  8
TEXT
100
AcDbPolyline
 90
        2
 70
     0
 43
0.0001332181640625
 10
0.8267112148168518
 20
1.33221755560871
 10
0.8999812050512261
 20
1.322226193304021
  0
LWPOLYLINE
  5
BCD28CE5C6CAB3A
330
BCD28CE5C6CAC5E
100
AcDbEntity
  8
TEXT
100
AcDbPolyline
 90
        2
 70
     0
 43
0.0006660908203125
 10
0.8533548476293493
 20
1.292252106389962
 10
0.8267112148168518
 20
1.292252106389962
  0
LWPOLYLINE
  5
BCD28CE5C6CAB3E
330
BCD28CE5C6CAC5E
100
AcDbEntity
  8
TEXT
100
AcDbPolyline
 90
        2
 70
     0
 43
0.0006660908203125
 10
0.8533548476293493
 20
1.33221755560871
 10
0.8267112148168518
 20
1.33221755560871
  0
LINE
  5
BCD28CE5C6CAB42
330
BCD28CE5C6CAC5E
100
AcDbEntity
  8
TEXT
100
AcDbLine
 10
2.341901643943349
 20
1.381176300405068
 30
0.0
 11
2.234695370556059
 21
1.381176300405068
 31
0.0
  0
LINE
  5
BCD28CE5C6CAB43
330
BCD28CE5C6CAC5E
100
AcDbEntity
  8
TEXT
100
AcDbLine
 10
2.370932542287827
 20
1.445452995061834
 30
0.0
 11
2.236100633070768
 21
1.445452995061834
 31
0.0
  0
ARC
  5
BCD28CE5C6CAB44
330
BCD28CE5C6CAC5E
100
AcDbEntity
  8
TEXT
100
AcDbCircle
 10
2.295414729464085
 20
1.276215745798818
 30
0.0
 40
0.0676855811441166
100
AcDbArc
 50
90.0
 51
153.7768192527749
  0
LWPOLYLINE
  5
BCD28CE5C6CAB45
330
BCD28CE5C6CAC5E
100
AcDbEntity
  8
TEXT
100
AcDbPolyline
 90
        2
 70
     0
 43
0.0
 10
2.233662875101249
 20
1.222470907023761
 42
0.2901071551932823
 10
2.276738807968885
 20
1.178979962073323
 42
5.328517124445801
  0
ARC
  5
BCD28CE5C6CAB49
330
BCD28CE5C6CAC5E
100
AcDbEntity
  8
TEXT
100
AcDbCircle
 10
1.590283351792599
 20
1.238772353411373
 30
0.0
 40
0.0601160179737537
100
AcDbArc
 50
180.0000000000003
 51
264.0521544866073
  0
LINE
  5
BCD28CE5C6CAB4A
330
BCD28CE5C6CAC5E
100
AcDbEntity
  8
TEXT
100
AcDbLine
 10
1.593798707418147
 20
1.479840912655972
 30
0.0
 11
1.53375610257414
 21
1.479840912655972
 31
0.0
  0
ARC
  5
BCD28CE5C6CAB4B
330
BCD28CE5C6CAC5E
100
AcDbEntity
  8
TEXT
100
AcDbCircle
 10
1.358024349675629
 20
1.363365535615332
 30
0.0
 40
0.0820874594465043
100
AcDbArc
 50
90.0
 51
270.0
  0
LWPOLYLINE
  5
BCD28CE5C6CAB4C
330
BCD28CE5C6CAC5E
100
AcDbEntity
  8
TEXT
100
AcDbPolyline
 90
        2
 70
     0
 43
0.0001332181640625
 10
0.9499380165746647
 20
1.372183004827458
 10
0.9399466542699741
 20
1.445452995061837
  0
LWPOLYLINE
  5
BCD28CE5C6CAB50
330
BCD28CE5C6CAC5E
100
AcDbEntity
  8
TEXT
100
AcDbPolyline
 90
        2
 70
     0
 43
0.0001332181640625
 10
0.9399466542699741
 20
1.418809362249336
 10
0.9499380165746647
 20
1.358861188421211
  0
LWPOLYLINE
  5
BCD28CE5C6CAB54
330
BCD28CE5C6CAC5E
100
AcDbEntity
  8
TEXT
100
AcDbPolyline
 90
        3
 70
     0
 43
0.0006660908203125
 10
1.093147542941851
 20
1.33221755560871
 10
1.093147542941851
 20
1.445452995061837
 10
0.9799121034887257
 20
1.445452995061837
  0
LWPOLYLINE
  5
BCD28CE5C6CAB59
330
BCD28CE5C6CAC5E
100
AcDbEntity
  8
TEXT
100
AcDbPolyline
 90
        3
 70
     0
 43
0.0006660908203125
 10
1.06650391012935
 20
1.33221755560871
 10
1.06650391012935
 20
1.418809362249336
 10
0.9799121034887257
 20
1.418809362249336
  0
LWPOLYLINE
  5
BCD28CE5C6CAB5E
330
BCD28CE5C6CAC5E
100
AcDbEntity
  8
TEXT
100
AcDbPolyline
 90
        2
 70
     0
 43
0.0001332181640625
 10
1.06650391012935
 20
1.418809362249336
 10
1.006555736301226
 20
1.358861188421211
  0
LWPOLYLINE
  5
BCD28CE5C6CAB62
330
BCD28CE5C6CAC5E
100
AcDbEntity
  8
TEXT
100
AcDbPolyline
 90
        2
 70
     0
 43
0.0001332181640625
 10
0.9799121034887257
 20
1.418809362249336
 10
0.9699207411840369
 20
1.358861188421211
  0
LWPOLYLINE
  5
BCD28CE5C6CAB66
330
BCD28CE5C6CAC5E
100
AcDbEntity
  8
TEXT
100
AcDbPolyline
 90
        2
 70
     0
 43
0.0001332181640625
 10
0.9799121034887257
 20
1.445452995061837
 10
0.9699207411840369
 20
1.372183004827458
  0
LWPOLYLINE
  5
BCD28CE5C6CAB6A
330
BCD28CE5C6CAC5E
100
AcDbEntity
  8
TEXT
100
AcDbPolyline
 90
        2
 70
     0
 43
0.0001332181640625
 10
1.019877552707475
 20
1.322226193304021
 10
1.093147542941851
 20
1.33221755560871
  0
LWPOLYLINE
  5
BCD28CE5C6CAB6E
330
BCD28CE5C6CAC5E
100
AcDbEntity
  8
TEXT
100
AcDbPolyline
 90
        2
 70
     0
 43
0.0001332181640625
 10
1.06650391012935
 20
1.33221755560871
 10
1.006555736301226
 20
1.322226193304021
  0
LWPOLYLINE
  5
BCD28CE5C6CAB72
330
BCD28CE5C6CAC5E
100
AcDbEntity
  8
TEXT
100
AcDbPolyline
 90
        2
 70
     0
 43
0.0001332181640625
 10
1.093147542941851
 20
1.292252106389962
 10
1.019877552707475
 20
1.302243468694647
  0
LWPOLYLINE
  5
BCD28CE5C6CAB76
330
BCD28CE5C6CAC5E
100
AcDbEntity
  8
TEXT
100
AcDbPolyline
 90
        2
 70
     0
 43
0.0001332181640625
 10
1.06650391012935
 20
1.292252106389962
 10
1.006555736301226
 20
1.302243468694647
  0
LWPOLYLINE
  5
BCD28CE5C6CAB7A
330
BCD28CE5C6CAC5E
100
AcDbEntity
  8
TEXT
100
AcDbPolyline
 90
        2
 70
     0
 43
0.0001332181640625
 10
1.06650391012935
 20
1.205660299749335
 10
1.006555736301226
 20
1.265608473577461
  0
LWPOLYLINE
  5
BCD28CE5C6CAB7E
330
BCD28CE5C6CAC5E
100
AcDbEntity
  8
TEXT
100
AcDbPolyline
 90
        3
 70
     0
 43
0.0006660908203125
 10
0.9799121034887257
 20
1.205660299749335
 10
1.06650391012935
 20
1.205660299749335
 10
1.06650391012935
 20
1.292252106389962
  0
LWPOLYLINE
  5
BCD28CE5C6CAB83
330
BCD28CE5C6CAC5E
100
AcDbEntity
  8
TEXT
100
AcDbPolyline
 90
        3
 70
     0
 43
0.0006660908203125
 10
0.9799121034887257
 20
1.179016666936834
 10
1.093147542941851
 20
1.179016666936834
 10
1.093147542941851
 20
1.292252106389962
  0
LWPOLYLINE
  5
BCD28CE5C6CAB88
330
BCD28CE5C6CAC5E
100
AcDbEntity
  8
TEXT
100
AcDbPolyline
 90
        5
 70
     0
 43
0.0001332181640625
 10
0.9499380165746647
 20
1.25228665717121
 10
0.9499380165746647
 20
1.265608473577461
 10
0.9133030214574766
 20
1.265608473577461
 10
0.9133030214574766
 20
1.302243468694647
 10
0.8999812050512261
 20
1.302243468694647
  0
LWPOLYLINE
  5
BCD28CE5C6CAB8F
330
BCD28CE5C6CAC5E
100
AcDbEntity
  8
TEXT
100
AcDbPolyline
 90
        2
 70
     0
 43
0.0006660908203125
 10
0.9399466542699741
 20
1.205660299749335
 10
0.9399466542699741
 20
1.179016666936834
  0
LWPOLYLINE
  5
BCD28CE5C6CAB93
330
BCD28CE5C6CAC5E
100
AcDbEntity
  8
TEXT
100
AcDbPolyline
 90
        2
 70
     0
 43
0.0001332181640625
 10
0.9399466542699741
 20
1.205660299749335
 10
0.9499380165746647
 20
1.265608473577461
  0
LWPOLYLINE
  5
BCD28CE5C6CAB97
330
BCD28CE5C6CAC5E
100
AcDbEntity
  8
TEXT
100
AcDbPolyline
 90
        2
 70
     0
 43
0.0001332181640625
 10
0.9399466542699741
 20
1.179016666936834
 10
0.9499380165746647
 20
1.25228665717121
  0
LWPOLYLINE
  5
BCD28CE5C6CAB9B
330
BCD28CE5C6CAC5E
100
AcDbEntity
  8
TEXT
100
AcDbPolyline
 90
        5
 70
     0
 43
0.0001332181640625
 10
0.8999812050512261
 20
1.322226193304021
 10
0.9133030214574748
 20
1.322226193304021
 10
0.9133030214574748
 20
1.358861188421211
 10
0.9499380165746647
 20
1.358861188421211
 10
0.9499380165746647
 20
1.372183004827458
  0
LWPOLYLINE
  5
BCD28CE5C6CABA2
330
BCD28CE5C6CAC5E
100
AcDbEntity
  8
TEXT
100
AcDbPolyline
 90
        5
 70
     0
 43
0.0001332181640625
 10
0.9699207411840369
 20
1.372183004827458
 10
0.9699207411840369
 20
1.358861188421211
 10
1.006555736301226
 20
1.358861188421211
 10
1.006555736301226
 20
1.322226193304021
 10
1.019877552707475
 20
1.322226193304021
  0
LWPOLYLINE
  5
BCD28CE5C6CABA9
330
BCD28CE5C6CAC5E
100
AcDbEntity
  8
TEXT
100
AcDbPolyline
 90
        2
 70
     0
 43
0.0001332181640625
 10
0.9799121034887257
 20
1.205660299749335
 10
0.9699207411840369
 20
1.265608473577461
  0
LWPOLYLINE
  5
BCD28CE5C6CABAD
330
BCD28CE5C6CAC5E
100
AcDbEntity
  8
TEXT
100
AcDbPolyline
 90
        2
 70
     0
 43
0.0001332181640625
 10
0.9699207411840369
 20
1.25228665717121
 10
0.9799121034887257
 20
1.179016666936834
  0
LWPOLYLINE
  5
BCD28CE5C6CABB1
330
BCD28CE5C6CAC5E
100
AcDbEntity
  8
TEXT
100
AcDbPolyline
 90
        2
 70
     0
 43
0.0006660908203125
 10
0.9799121034887257
 20
1.205660299749335
 10
0.9799121034887257
 20
1.179016666936834
  0
LWPOLYLINE
  5
BCD28CE5C6CABB5
330
BCD28CE5C6CAC5E
100
AcDbEntity
  8
TEXT
100
AcDbPolyline
 90
        5
 70
     0
 43
0.0001332181640625
 10
1.019877552707475
 20
1.302243468694647
 10
1.006555736301226
 20
1.302243468694647
 10
1.006555736301226
 20
1.265608473577461
 10
0.9699207411840369
 20
1.265608473577461
 10
0.9699207411840369
 20
1.25228665717121
  0
LWPOLYLINE
  5
BCD28CE5C6CABBC
330
BCD28CE5C6CAC5E
100
AcDbEntity
  8
TEXT
100
AcDbPolyline
 90
        2
 70
     0
 43
0.0006660908203125
 10
1.06650391012935
 20
1.33221755560871
 10
1.093147542941851
 20
1.33221755560871
  0
LWPOLYLINE
  5
BCD28CE5C6CABC0
330
BCD28CE5C6CAC5E
100
AcDbEntity
  8
TEXT
100
AcDbPolyline
 90
        2
 70
     0
 43
0.0006660908203125
 10
1.06650391012935
 20
1.292252106389962
 10
1.093147542941851
 20
1.292252106389962
  0
LINE
  5
BCD28CE5C6CABC4
330
BCD28CE5C6CAC5E
100
AcDbEntity
  8
TEXT
100
AcDbLine
 10
1.363261679789876
 20
1.381176300405068
 30
0.0
 11
1.530167333818847
 21
1.381176300405068
 31
0.0
  0
LINE
  5
BCD28CE5C6CABC5
330
BCD28CE5C6CAC5E
100
AcDbEntity
  8
TEXT
100
AcDbLine
 10
1.428861816034177
 20
1.345371578794441
 30
0.0
 11
1.363261679789876
 21
1.345371578794441
 31
0.0
  0
LINE
  5
BCD28CE5C6CABC6
330
BCD28CE5C6CAC5E
100
AcDbEntity
  8
TEXT
100
AcDbLine
 10
1.275936890229124
 20
1.178979962073323
 30
0.0
 11
1.428861816034177
 21
1.178979962073323
 31
0.0
  0
LINE
  5
BCD28CE5C6CABC7
330
BCD28CE5C6CAC5E
100
AcDbEntity
  8
TEXT
100
AcDbLine
 10
1.433802189940457
 20
1.247336968406762
 30
0.0
 11
1.275936890229123
 21
1.247336968406762
 31
0.0
  0
LINE
  5
BCD28CE5C6CABC8
330
BCD28CE5C6CAC5E
100
AcDbEntity
  8
TEXT
100
AcDbLine
 10
1.358024349675628
 20
1.281278076168827
 30
0.0
 11
1.433802189940457
 21
1.281278076168827
 31
0.0
  0
ARC
  5
BCD28CE5C6CABC9
330
BCD28CE5C6CAC5E
100
AcDbEntity
  8
TEXT
100
AcDbCircle
 10
1.363261679789877
 20
1.363273939599756
 30
0.0
 40
0.017902360805315
100
AcDbArc
 50
90.0
 51
270.0
  0
LINE
  5
BCD28CE5C6CABCA
330
BCD28CE5C6CAC5E
100
AcDbEntity
  8
TEXT
100
AcDbLine
 10
1.275936890229123
 20
1.247336968406762
 30
0.0
 11
1.275936890229124
 21
1.178979962073323
 31
0.0
  0
LINE
  5
BCD28CE5C6CABCB
330
BCD28CE5C6CAC5E
100
AcDbEntity
  8
TEXT
100
AcDbLine
 10
1.530167333818847
 20
1.381176300405068
 30
0.0
 11
1.530167333818847
 21
1.238772353411373
 31
0.0
  0
ARC
  5
BCD28CE5C6CABCC
330
BCD28CE5C6CAC5E
100
AcDbEntity
  8
TEXT
100
AcDbCircle
 10
1.428861816034178
 20
1.26217577043388
 30
0.0
 40
0.0831958083605586
100
AcDbArc
 50
270.0
 51
90.0
  0
ARC
  5
BCD28CE5C6CABCD
330
BCD28CE5C6CAC5E
100
AcDbEntity
  8
TEXT
100
AcDbCircle
 10
1.433802189940458
 20
1.264307522287796
 30
0.0
 40
0.0169705538810321
100
AcDbArc
 50
270.0
 51
90.0
  0
LWPOLYLINE
  5
BCD28CE5C6CABCE
330
BCD28CE5C6CAC5E
100
AcDbEntity
  8
TEXT
100
AcDbPolyline
 90
        2
 70
     0
 43
0.0006660908203125
 10
0.9399466542699741
 20
1.418809362249336
 10
0.9399466542699741
 20
1.445452995061837
  0
LWPOLYLINE
  5
BCD28CE5C6CABD2
330
BCD28CE5C6CAC5E
100
AcDbEntity
  8
TEXT
100
AcDbPolyline
 90
        2
 70
     0
 43
0.0006660908203125
 10
0.9799121034887257
 20
1.418809362249336
 10
0.9799121034887257
 20
1.445452995061837
  0
LINE
  5
BCD28CE5C6CABD6
330
BCD28CE5C6CAC5E
100
AcDbEntity
  8
TEXT
100
AcDbLine
 10
1.53375610257414
 20
1.445452995061834
 30
0.0
 11
1.358024349675628
 21
1.445452995061834
 31
0.0
  0
LINE
  5
BCD28CE5C6CABD7
330
BCD28CE5C6CAC5E
100
AcDbEntity
  8
TEXT
100
AcDbLine
 10
1.53375610257414
 20
1.479840912655972
 30
0.0
 11
1.53375610257414
 21
1.445452995061834
 31
0.0
  0
LINE
  5
BCD28CE5C6CABD8
330
BCD28CE5C6CAC5E
100
AcDbEntity
  8
TEXT
100
AcDbLine
 10
1.724227994593992
 20
1.344580998948713
 30
0.0
 11
1.665597673562055
 21
1.445452995061834
 31
0.0
  0
LINE
  5
BCD28CE5C6CABD9
330
BCD28CE5C6CAC5E
100
AcDbEntity
  8
TEXT
100
AcDbLine
 10
1.782976557399858
 20
1.445452995061834
 30
0.0
 11
1.724227994593992
 21
1.344580998948713
 31
0.0
  0
LINE
  5
BCD28CE5C6CABDA
330
BCD28CE5C6CAC5E
100
AcDbEntity
  8
TEXT
100
AcDbLine
 10
1.879907182759599
 20
1.261367800176322
 30
0.0
 11
1.879907182759599
 21
1.513464472800644
 31
0.0
  0
LINE
  5
BCD28CE5C6CABDB
330
BCD28CE5C6CAC5E
100
AcDbEntity
  8
TEXT
100
AcDbLine
 10
1.912219036897259
 20
1.445452995061834
 30
0.0
 11
1.912219036897259
 21
1.244588788329426
 31
0.0
  0
LINE
  5
BCD28CE5C6CABDC
330
BCD28CE5C6CAC5E
100
AcDbEntity
  8
TEXT
100
AcDbLine
 10
1.912219036897259
 20
1.244588788329426
 30
0.0
 11
1.895225400012658
 21
1.244588788329426
 31
0.0
  0
LINE
  5
BCD28CE5C6CABDD
330
BCD28CE5C6CAC5E
100
AcDbEntity
  8
TEXT
100
AcDbLine
 10
1.881046756255794
 20
1.178979962073323
 30
0.0
 11
1.979050089955229
 21
1.178979962073323
 31
0.0
  0
LINE
  5
BCD28CE5C6CABDE
330
BCD28CE5C6CAC5E
100
AcDbEntity
  8
TEXT
100
AcDbLine
 10
1.714627757597038
 20
1.198938468178336
 30
0.0
 11
1.811927463690483
 21
1.363288679113604
 31
0.0
  0
ARC
  5
BCD28CE5C6CABDF
330
BCD28CE5C6CAC5E
100
AcDbEntity
  8
TEXT
100
AcDbCircle
 10
1.680584197684824
 20
1.218527684347019
 30
0.0
 40
0.0392772371940762
100
AcDbArc
 50
270.1604552698595
 51
330.0831797321295
  0
LINE
  5
BCD28CE5C6CABE0
330
BCD28CE5C6CAC5E
100
AcDbEntity
  8
TEXT
100
AcDbLine
 10
1.584053941298953
 20
1.178979962073323
 30
0.0
 11
1.680694192373947
 21
1.179250601171605
 31
0.0
  0
LWPOLYLINE
  5
BCD28CE5C6CABE1
330
BCD28CE5C6CAC5E
100
AcDbEntity
  8
TEXT
100
AcDbPolyline
 90
        6
 70
     1
 43
0.0
 10
1.626577744874103
 20
1.381176300405068
 10
1.596261150653894
 20
1.381176300405068
 10
1.596261150653894
 20
1.258065302350174
 42
0.407328721240804
 10
1.607804801815371
 20
1.246246387673788
 10
1.668426500860102
 20
1.246246387673788
 10
1.685891841267419
 20
1.279058616717267
  0
LINE
  5
BCD28CE5C6CABE9
330
BCD28CE5C6CAC5E
100
AcDbEntity
  8
TEXT
100
AcDbLine
 10
1.811927463690483
 20
1.363288679113604
 30
0.0
 11
1.811927463690483
 21
1.230531304288248
 31
0.0
  0
ARC
  5
BCD28CE5C6CABEA
330
BCD28CE5C6CAC5E
100
AcDbEntity
  8
TEXT
100
AcDbCircle
 10
1.895225400012656
 20
1.259970594572851
 30
0.0
 40
0.0153818062434269
100
AcDbArc
 50
174.7883570302258
 51
270.0
  0
LWPOLYLINE
  5
BCD28CE5C6CABEB
330
BCD28CE5C6CAC5E
100
AcDbEntity
  8
TEXT
100
AcDbPolyline
 90
        2
 70
     0
 43
0.0
 10
1.811927463690481
 20
1.230531304288251
 42
0.3318488747599744
 10
1.881046756255794
 20
1.178979962073323
 42
-6.868794160588311
  0
LINE
  5
BCD28CE5C6CABEF
330
BCD28CE5C6CAC5E
100
AcDbEntity
  8
TEXT
100
AcDbLine
 10
2.03643915894449
 20
1.178979962073323
 30
0.0
 11
2.10349720572633
 21
1.178979962073323
 31
0.0
  0
LINE
  5
BCD28CE5C6CABF0
330
BCD28CE5C6CAC5E
100
AcDbEntity
  8
TEXT
100
AcDbLine
 10
2.03643915894449
 20
1.373622511238959
 30
0.0
 11
2.03643915894449
 21
1.178979962073323
 31
0.0
  0
LINE
  5
BCD28CE5C6CABF1
330
BCD28CE5C6CAC5E
100
AcDbEntity
  8
TEXT
100
AcDbLine
 10
1.979050089955229
 20
1.381176300405068
 30
0.0
 11
2.028885369778376
 21
1.381176300405068
 31
0.0
  0
LINE
  5
BCD28CE5C6CABF2
330
BCD28CE5C6CAC5E
100
AcDbEntity
  8
TEXT
100
AcDbLine
 10
1.979050089955229
 20
1.178979962073323
 30
0.0
 11
1.979050089955229
 21
1.381176300405068
 31
0.0
  0
LWPOLYLINE
  5
BCD28CE5C6CABF3
330
BCD28CE5C6CAC5E
100
AcDbEntity
  8
TEXT
100
AcDbPolyline
 90
        2
 70
     0
 43
0.0
 10
2.028885369778374
 20
1.381176300405068
 42
-0.4142135623731017
 10
2.036439158944488
 20
1.373622511238959
 42
-0.9999999999999998
  0
LINE
  5
BCD28CE5C6CABF7
330
BCD28CE5C6CAC5E
100
AcDbEntity
  8
TEXT
100
AcDbLine
 10
2.234695370556059
 20
1.381176300405068
 30
0.0
 11
2.234695370556059
 21
1.306123894330862
 31
0.0
  0
LINE
  5
BCD28CE5C6CABF8
330
BCD28CE5C6CAC5E
100
AcDbEntity
  8
TEXT
100
AcDbLine
 10
2.10349720572633
 20
1.381176300405068
 30
0.0
 11
2.15763080264728
 21
1.381176300405068
 31
0.0
  0
LINE
  5
BCD28CE5C6CABF9
330
BCD28CE5C6CAC5E
100
AcDbEntity
  8
TEXT
100
AcDbLine
 10
2.10349720572633
 20
1.178979962073323
 30
0.0
 11
2.10349720572633
 21
1.381176300405068
 31
0.0
  0
LWPOLYLINE
  5
BCD28CE5C6CABFA
330
BCD28CE5C6CAC5E
100
AcDbEntity
  8
TEXT
100
AcDbPolyline
 90
        2
 70
     0
 43
0.0
 10
2.157630802647278
 20
1.381176300405068
 42
-0.4142135623731017
 10
2.165184591813392
 20
1.373622511238959
 42
-0.9999999999999998
  0
LWPOLYLINE
  5
BCD28CE5C6CABFE
330
BCD28CE5C6CAC5E
100
AcDbEntity
  8
TEXT
100
AcDbPolyline
 90
        4
 70
     0
 43
0.0
 10
2.165184591813392
 20
1.373622511238959
 10
2.165184591813392
 20
1.178979962073323
 10
2.233662875101249
 20
1.178979962073323
 10
2.233662875101249
 20
1.222470907023761
 42
-1.714843617202739
  0
LINE
  5
BCD28CE5C6CAC04
330
BCD28CE5C6CAC5E
100
AcDbEntity
  8
TEXT
100
AcDbLine
 10
1.593798707418147
 20
1.445452995061834
 30
0.0
 11
1.593798707418147
 21
1.479840912655972
 31
0.0
  0
LINE
  5
BCD28CE5C6CAC05
330
BCD28CE5C6CAC5E
100
AcDbEntity
  8
TEXT
100
AcDbLine
 10
1.665597673562055
 20
1.445452995061834
 30
0.0
 11
1.593798707418147
 21
1.445452995061834
 31
0.0
  0
LINE
  5
BCD28CE5C6CAC06
330
BCD28CE5C6CAC5E
100
AcDbEntity
  8
TEXT
100
AcDbLine
 10
1.813098470193234
 20
1.445452995061834
 30
0.0
 11
1.782976557399858
 21
1.445452995061834
 31
0.0
  0
LINE
  5
BCD28CE5C6CAC07
330
BCD28CE5C6CAC5E
100
AcDbEntity
  8
TEXT
100
AcDbLine
 10
1.813098470193234
 20
1.513464472800644
 30
0.0
 11
1.813098470193234
 21
1.445452995061834
 31
0.0
  0
LINE
  5
BCD28CE5C6CAC08
330
BCD28CE5C6CAC5E
100
AcDbEntity
  8
TEXT
100
AcDbLine
 10
1.879907182759599
 20
1.513464472800644
 30
0.0
 11
1.813098470193234
 21
1.513464472800644
 31
0.0
  0
LWPOLYLINE
  5
BCD28CE5C6CAC09
330
BCD28CE5C6CAC5E
100
AcDbEntity
  8
TEXT
100
AcDbPolyline
 90
        3
 70
     0
 43
0.0
 10
2.200318942357601
 20
1.445452995061837
 10
2.082018783541557
 20
1.445452995061837
 10
2.082018783541557
 20
1.418285498300942
 42
-1.960274751411753
  0
LINE
  5
BCD28CE5C6CAC0E
330
BCD28CE5C6CAC5E
100
AcDbEntity
  8
TEXT
100
AcDbLine
 10
2.046237092828396
 20
1.445452995061834
 30
0.0
 11
1.912219036897259
 21
1.445452995061834
 31
0.0
  0
LWPOLYLINE
  5
BCD28CE5C6CAC0F
330
BCD28CE5C6CAC5E
100
AcDbEntity
  8
TEXT
100
AcDbPolyline
 90
        2
 70
     0
 43
0.0
 10
2.046237092828396
 20
1.445452995061837
 42
-0.3328679258950098
 10
2.082018783541557
 20
1.418285498300942
 42
6.772930709997214
  0
LINE
  5
BCD28CE5C6CAC13
330
BCD28CE5C6CAC5E
100
AcDbEntity
  8
TEXT
100
AcDbLine
 10
2.236100633070768
 20
1.445452995061834
 30
0.0
 11
2.236100633070768
 21
1.41713044929219
 31
0.0
  0
LWPOLYLINE
  5
BCD28CE5C6CAC14
330
BCD28CE5C6CAC5E
100
AcDbEntity
  8
TEXT
100
AcDbPolyline
 90
        2
 70
     0
 43
0.0
 10
2.200318942357601
 20
1.445452995061837
 42
-0.3277054968067132
 10
2.236100633070766
 20
1.417130449292194
 42
6.667889725900311
  0
LINE
  5
BCD28CE5C6CAC18
330
BCD28CE5C6CAC5E
100
AcDbEntity
  8
TEXT
100
AcDbLine
 10
2.449892481162868
 20
1.340241016508407
 30
0.0
 11
2.406141709980967
 21
1.422491292504552
 31
0.0
  0
LINE
  5
BCD28CE5C6CAC19
330
BCD28CE5C6CAC5E
100
AcDbEntity
  8
TEXT
100
AcDbLine
 10
2.449892481162868
 20
1.445452995061834
 30
0.0
 11
2.449892481162868
 21
1.340241016508407
 31
0.0
  0
LINE
  5
BCD28CE5C6CAC1A
330
BCD28CE5C6CAC5E
100
AcDbEntity
  8
TEXT
100
AcDbLine
 10
2.677576220101237
 20
1.369587668650296
 30
0.0
 11
2.677576220101237
 21
1.510917200829435
 31
0.0
  0
LINE
  5
BCD28CE5C6CAC1B
330
BCD28CE5C6CAC5E
100
AcDbEntity
  8
TEXT
100
AcDbLine
 10
2.724674378657222
 20
1.445452995061834
 30
0.0
 11
2.677576220101237
 21
1.369587668650296
 31
0.0
  0
LINE
  5
BCD28CE5C6CAC1C
330
BCD28CE5C6CAC5E
100
AcDbEntity
  8
TEXT
100
AcDbLine
 10
2.735109095421145
 20
1.33555975212086
 30
0.0
 11
2.79966621138685
 21
1.445452995061834
 31
0.0
  0
LINE
  5
BCD28CE5C6CAC1D
330
BCD28CE5C6CAC5E
100
AcDbEntity
  8
TEXT
100
AcDbLine
 10
2.613741228878464
 20
1.178979962073323
 30
0.0
 11
2.678119413197085
 21
1.178979962073323
 31
0.0
  0
LWPOLYLINE
  5
BCD28CE5C6CAC1E
330
BCD28CE5C6CAC5E
100
AcDbEntity
  8
TEXT
100
AcDbPolyline
 90
        2
 70
     0
 43
0.0
 10
2.453832158467906
 20
1.222470907023761
 42
-0.2901071551932486
 10
2.410756225600262
 20
1.178979962073323
 42
-5.328517124445184
  0
ARC
  5
BCD28CE5C6CAC22
330
BCD28CE5C6CAC5E
100
AcDbEntity
  8
TEXT
100
AcDbCircle
 10
2.341901643943347
 20
1.352816925405071
 30
0.0
 40
0.028359375
100
AcDbArc
 50
25.78218179591245
 51
90.0
  0
LINE
  5
BCD28CE5C6CAC23
330
BCD28CE5C6CAC5E
100
AcDbEntity
  8
TEXT
100
AcDbLine
 10
2.37770271924747
 20
1.343901326942936
 30
0.0
 11
2.367437958833906
 21
1.365151866515631
 31
0.0
  0
LINE
  5
BCD28CE5C6CAC24
330
BCD28CE5C6CAC5E
100
AcDbEntity
  8
TEXT
100
AcDbLine
 10
2.295414729464087
 20
1.343901326942936
 30
0.0
 11
2.37770271924747
 21
1.343901326942936
 31
0.0
  0
LWPOLYLINE
  5
BCD28CE5C6CAC25
330
BCD28CE5C6CAC5E
100
AcDbEntity
  8
TEXT
100
AcDbPolyline
 90
        4
 70
     1
 43
0.0
 10
2.390633760530369
 20
1.281943940057348
 10
2.301973441870511
 20
1.281943940057348
 42
0.9999999999999998
 10
2.301973441870511
 20
1.239545399553487
 10
2.390633760530369
 20
1.239545399553487
 42
1.0
  0
LWPOLYLINE
  5
BCD28CE5C6CAC2B
330
BCD28CE5C6CAC5E
100
AcDbEntity
  8
TEXT
100
AcDbPolyline
 90
        2
 70
     0
 43
0.0
 10
2.276738807968885
 20
1.178979962073323
 10
2.410756225600262
 20
1.178979962073323
 42
0.9999999999999998
  0
LINE
  5
BCD28CE5C6CAC2F
330
BCD28CE5C6CAC5E
100
AcDbEntity
  8
TEXT
100
AcDbLine
 10
2.537093247585901
 20
1.381176300405068
 30
0.0
 11
2.613741228878459
 21
1.381176300405068
 31
0.0
  0
LINE
  5
BCD28CE5C6CAC30
330
BCD28CE5C6CAC5E
100
AcDbEntity
  8
TEXT
100
AcDbLine
 10
2.613741228878459
 20
1.381176300405068
 30
0.0
 11
2.613741228878464
 21
1.178979962073323
 31
0.0
  0
ARC
  5
BCD28CE5C6CAC31
330
BCD28CE5C6CAC5E
100
AcDbEntity
  8
TEXT
100
AcDbCircle
 10
2.537093247585899
 20
1.356270425122406
 30
0.0
 40
0.0249058752826653
100
AcDbArc
 50
89.99971217465335
 51
179.9999999999985
  0
LINE
  5
BCD28CE5C6CAC32
330
BCD28CE5C6CAC5E
100
AcDbEntity
  8
TEXT
100
AcDbLine
 10
2.512187372303242
 20
1.178979962073323
 30
0.0
 11
2.512187372303237
 21
1.356270467504791
 31
0.0
  0
LWPOLYLINE
  5
BCD28CE5C6CAC33
330
BCD28CE5C6CAC5E
100
AcDbEntity
  8
TEXT
100
AcDbPolyline
 90
        2
 70
     0
 43
0.0
 10
2.453832158467906
 20
1.178979962073323
 10
2.51218737230324
 20
1.178979962073323
  0
LWPOLYLINE
  5
BCD28CE5C6CAC37
330
BCD28CE5C6CAC5E
100
AcDbEntity
  8
TEXT
100
AcDbPolyline
 90
        2
 70
     0
 43
0.0
 10
2.453832158467906
 20
1.222470907023761
 10
2.453832158467906
 20
1.178979962073323
  0
LINE
  5
BCD28CE5C6CAC3B
330
BCD28CE5C6CAC5E
100
AcDbEntity
  8
TEXT
100
AcDbLine
 10
2.830601318784755
 20
1.178979962073323
 30
0.0
 11
2.735109095421145
 21
1.33555975212086
 31
0.0
  0
LINE
  5
BCD28CE5C6CAC3C
330
BCD28CE5C6CAC5E
100
AcDbEntity
  8
TEXT
100
AcDbLine
 10
2.754022946408549
 20
1.178979962073323
 30
0.0
 11
2.830601318784755
 21
1.178979962073323
 31
0.0
  0
LINE
  5
BCD28CE5C6CAC3D
330
BCD28CE5C6CAC5E
100
AcDbEntity
  8
TEXT
100
AcDbLine
 10
2.678119413197085
 20
1.310559530549503
 30
0.0
 11
2.754022946408549
 21
1.178979962073323
 31
0.0
  0
LINE
  5
BCD28CE5C6CAC3E
330
BCD28CE5C6CAC5E
100
AcDbEntity
  8
TEXT
100
AcDbLine
 10
2.678119413197085
 20
1.178979962073323
 30
0.0
 11
2.678119413197085
 21
1.310559530549503
 31
0.0
  0
LINE
  5
BCD28CE5C6CAC3F
330
BCD28CE5C6CAC5E
100
AcDbEntity
  8
TEXT
100
AcDbLine
 10
2.677576220101237
 20
1.510917200829435
 30
0.0
 11
2.609261341551964
 21
1.510917200829435
 31
0.0
  0
ARC
  5
BCD28CE5C6CAC40
330
BCD28CE5C6CAC5E
100
AcDbEntity
  8
TEXT
100
AcDbCircle
 10
2.368905602510758
 20
1.403869427940932
 30
0.0
 40
0.0416329381542859
100
AcDbArc
 50
26.56974201007528
 51
87.20939649401342
  0
LINE
  5
BCD28CE5C6CAC41
330
BCD28CE5C6CAC5E
100
AcDbEntity
  8
TEXT
100
AcDbLine
 10
2.513789387462369
 20
1.445452995061834
 30
0.0
 11
2.449892481162868
 21
1.445452995061834
 31
0.0
  0
LINE
  5
BCD28CE5C6CAC42
330
BCD28CE5C6CAC5E
100
AcDbEntity
  8
TEXT
100
AcDbLine
 10
2.513789387462369
 20
1.417905345200959
 30
0.0
 11
2.513789387462369
 21
1.445452995061834
 31
0.0
  0
ARC
  5
BCD28CE5C6CAC43
330
BCD28CE5C6CAC5E
100
AcDbEntity
  8
TEXT
100
AcDbCircle
 10
2.544982204525477
 20
1.414207267779569
 30
0.0
 40
0.0314112657011332
100
AcDbArc
 50
95.88484768694724
 51
173.2388340632136
  0
LINE
  5
BCD28CE5C6CAC44
330
BCD28CE5C6CAC5E
100
AcDbEntity
  8
TEXT
100
AcDbLine
 10
2.609261341551959
 20
1.445452995061834
 30
0.0
 11
2.541761623902442
 21
1.445452995061834
 31
0.0
  0
LINE
  5
BCD28CE5C6CAC45
330
BCD28CE5C6CAC5E
100
AcDbEntity
  8
TEXT
100
AcDbLine
 10
2.609261341551964
 20
1.510917200829435
 30
0.0
 11
2.609261341551959
 21
1.445452995061834
 31
0.0
  0
LINE
  5
BCD28CE5C6CAC46
330
BCD28CE5C6CAC5E
100
AcDbEntity
  8
TEXT
100
AcDbLine
 10
2.79966621138685
 20
1.445452995061834
 30
0.0
 11
2.724674378657224
 21
1.445452995061834
 31
0.0
  0
INSERT
  5
BCD28CE5C6CAC79
330
BCD28CE5C6CAC5E
100
AcDbEntity
  8
ASHADE
 62
     1
100
AcDbBlockReference
  2
AVE_RENDER
 10
0.0
 20
0.0
 30
0.0
1001
AVE_RENDER
1002
{
1070
     6
1000
Pref
1070
    30
1070
    20
1070
     1
1070
     0
1000

1070
    10
1070
     1
1070
    30
1040
1.0
1070
     1
1040
0.3
1040
0.7
1040
0.0
1040
10.0
1010
-1.0
1020
-1.0
1030
-1.0
1040
0.3
1070
    49
1070
     0
1070
     0
1010
1.0
1020
1.0
1030
1.0
1040
45.0
1070
     1
1070
     0
1000
WCS
1040
0.0
1002
}
  0
INSERT
  5
BCD28CE5C6CAC7A
330
BCD28CE5C6CAC5E
100
AcDbEntity
  8
ASHADE
 62
     3
100
AcDbBlockReference
  2
AVE_RENDER
 10
0.0
 20
0.0
 30
0.0
1001
AVE_RENDER
1002
{
1070
     0
1000
Full Opt
1070
     0
1070
     1
1070
     1
1070
     1
1070
     0
1070
     0
1070
     0
1070
     1
1070
     1
1040
0.0001
1040
0.0001
1002
}
  0
INSERT
  5
BCD28CE5C6CAC7B
330
BCD28CE5C6CAC5E
100
AcDbEntity
  8
ASHADE
 62
     4
100
AcDbBlockReference
  2
AVE_RENDER
 10
0.0
 20
0.0
 30
0.0
1001
AVE_RENDER
1002
{
1070
     0
1000
Quick Opt
1070
     0
1070
     1
1070
     1
1070
     1
1070
     0
1070
     0
1070
     1
1002
}
  0
INSERT
  5
BCD28CE5C6CAC7C
330
BCD28CE5C6CAC5E
100
AcDbEntity
  8
ASHADE
 62
     5
100
AcDbBlockReference
  2
AVE_RENDER
 10
0.0
 20
0.0
 30
0.0
1001
AVE_RENDER
1002
{
1070
     1
1000
Scanl Opt
1070
     2
1070
     0
1070
     2
1040
2.0
1040
4.0
1070
     0
1070
     1
1070
     0
1040
0.03
1002
}
  0
INSERT
  5
BCD28CE5C6CAC7D
330
BCD28CE5C6CAC5E
100
AcDbEntity
  8
ASHADE
 62
     6
100
AcDbBlockReference
  2
AVE_RENDER
 10
0.0
 20
0.0
 30
0.0
1001
AVE_RENDER
1002
{
1070
     2
1000
Raytr Opt
1070
     2
1070
     0
1070
     2
1040
2.0
1040
4.0
1070
     0
1070
     1
1070
     1
1040
0.03
1070
     3
1040
0.03
1002
}
  0
INSERT
  5
BCD28CE5C6CAC7E
330
BCD28CE5C6CAC5E
100
AcDbEntity
  8
ASHADE
 62
     7
100
AcDbBlockReference
  2
AVE_RENDER
 10
0.0
 20
0.0
 30
0.0
1001
AVE_RENDER
1002
{
1070
     0
1000
RFile Opt
1070
     5
1070
   640
1070
   480
1070
 10000
1070
     3
1070
    32
1070
    24
1070
     0
1070
     0
1070
     0
1070
     1
1070
     0
1070
     0
1070
     0
1002
}
  0
INSERT
  5
BCD28CE5C6CAC7F
330
BCD28CE5C6CAC5E
100
AcDbEntity
  8
ASHADE
 62
     8
100
AcDbBlockReference
  2
AVE_RENDER
 10
0.0
 20
0.0
 30
0.0
1001
AVE_RENDER
1002
{
1070
     0
1000
Fog Opt
1070
     0
1070
     0
1040
0.0
1040
1.0
1040
0.0
1040
1.0
1010
0.5
1020
0.5
1030
0.5
1002
}
  0
INSERT
  5
BCD28CE5C6CAC80
330
BCD28CE5C6CAC5E
100
AcDbEntity
  8
ASHADE
 62
     9
100
AcDbBlockReference
  2
AVE_RENDER
 10
0.0
 20
0.0
 30
0.0
1001
AVE_RENDER
1002
{
1070
     0
1000
BG Opt
1070
     0
1070
     1
1010
0.0
1020
0.0
1030
0.0
1010
1.0
1020
0.0
1030
0.0
1010
0.0
1020
1.0
1030
0.0
1010
0.0
1020
0.0
1030
1.0
1040
0.5
1040
0.33
1040
0.0
1000

1070
     1
1000

1070
     1
1070
     1
1040
1.0
1040
1.0
1040
0.0
1040
0.0
1070
     0
1002
}
  0
INSERT
  5
BCD28CE5C6CAC87
330
BCD28CE5C6CAC5E
100
AcDbEntity
  8
ASHADE
 62
     1
100
AcDbBlockReference
  2
AVE_GLOBAL
 10
0.0
 20
0.0
 30
0.0
1001
AVE_MATERIAL
1002
{
1000
*GLOBAL*
1000
1
1000
Global finish.
1002
{
1002
}
1002
{
1070
    63
1002
{
1002
{
1010
-1.0
1020
-1.0
1030
-1.0
1002
}
1040
0.1000000014901161
1000

1040
0.0
1002
{
1002
}
1040
0.0
1002
{
1002
}
1040
0.0
1002
}
1002
{
1002
{
1010
-1.0
1020
-1.0
1030
-1.0
1002
}
1040
0.6999999880790711
1000

1040
0.0
1002
{
1002
}
1040
0.0
1002
{
1002
}
1040
0.0
1002
}
1002
{
1002
{
1010
-1.0
1020
-1.0
1030
-1.0
1002
}
1040
0.2000000029802322
1000

1040
0.0
1002
{
1002
}
1040
0.0
1002
{
1002
}
1040
0.0
1002
}
1002
{
1070
     0
1002
{
1070
     1
1002
{
1040
1.0
1040
1.0
1000

1040
0.0
1002
{
1002
}
1040
0.0
1002
{
1002
}
1040
0.0
1002
}
1002
}
1040
1.0
1040
0.0
1040
0.0
1002
}
1002
{
1040
1.0
1040
1.0
1000

1040
0.0
1002
{
1002
}
1040
0.0
1002
{
1002
}
1040
0.0
1002
}
1002
{
1040
0.5
1040
1.0
1000

1040
0.0
1002
{
1002
}
1040
0.0
1002
{
1002
}
1040
0.0
1002
}
1002
{
1070
     0
1040
0.0
1002
{
1002
}
1040
1.0
1002
{
1002
}
1040
0.0
1002
}
1002
{
1040
0.0
1002
{
1002
{
1010
0.0
1020
0.0
1030
0.0
1002
}
1040
1.0
1000

1040
0.0
1002
{
1002
}
1040
0.0
1002
{
1002
}
1040
0.0
1002
}
1002
}
1002
{
1002
{
1070
     1
1002
{
1040
0.0
1040
1.0
1000

1040
0.0
1002
{
1002
}
1040
0.0
1002
{
1002
}
1040
0.0
1002
}
1002
}
1040
0.0
1002
{
1002
}
1010
1.0
1020
0.0
1030
0.0
1010
0.0
1020
1.0
1030
0.0
1010
0.0
1020
0.0
1030
1.0
1070
     0
1002
}
1002
{
1002
{
1040
1.0
1040
1.0
1002
{
1070
     1
1002
{
1040
1.0
1040
1.0
1000

1040
0.0
1002
{
1002
}
1040
0.0
1002
{
1002
}
1040
0.0
1002
}
1002
}
1002
}
1070
     0
1040
0.0
1002
{
1002
}
1002
}
1002
{
1002
}
1002
}
1002
{
1071
        3
1070
     3
1070
     0
1002
{
1070
     2
1070
     0
1070
     0
1040
0.0
1002
}
1070
     0
1070
     2
1002
{
1002
}
1002
}
1002
{
1040
8030.0
1040
190.3000030517578
1040
0.3050000071525574
1040
228.0
1040
545.0
1040
14.0
1040
17.39999961853027
1040
0.4560000002384186
1002
}
1002
}
  0
ENDSEC
  0
SECTION
  2
OBJECTS
  0
DICTIONARY
  5
BCD28CE5C6CAC52
330
0
100
AcDbDictionary
  3
ACAD_GROUP
350
BCD28CE5C6CAC53
  3
ACAD_LAYOUT
350
BCD28CE5C6CAC93
  3
ACAD_MLINESTYLE
350
BCD28CE5C6CAC54
  3
ACAD_PLOTSETTINGS
350
BCD28CE5C6CAC94
  3
ACAD_PLOTSTYLENAME
350
BCD28CE5C6CAC91
  3
ACDBHEADERROUNDTRIPXREC
350
BCD28CE5C6CAC9E
  3
ACDBVARIABLEDICTIONARY
350
BCD28CE5C6CAC9B
  0
DICTIONARY
  5
BCD28CE5C6CACC0
330
BCD28CE5C6CAC5E
100
AcDbDictionary
280
     1
  3
ACAD_LAYOUTSELFREF
360
BCD28CE5C6CACC1
  0
DICTIONARY
  5
BCD28CE5C6CACBE
330
BCD28CE5C6CAC5B
100
AcDbDictionary
280
     1
  3
ACAD_LAYOUTSELFREF
360
BCD28CE5C6CACBF
  0
DICTIONARY
  5
BCD28CE5C6CAC53
102
{ACAD_REACTORS
330
BCD28CE5C6CAC52
102
}
330
BCD28CE5C6CAC52
100
AcDbDictionary
  0
DICTIONARY
  5
BCD28CE5C6CAC93
102
{ACAD_REACTORS
330
BCD28CE5C6CAC52
102
}
330
BCD28CE5C6CAC52
100
AcDbDictionary
  0
DICTIONARY
  5
BCD28CE5C6CAC54
102
{ACAD_REACTORS
330
BCD28CE5C6CAC52
102
}
330
BCD28CE5C6CAC52
100
AcDbDictionary
  3
STANDARD
350
BCD28CE5C6CAC61
  0
DICTIONARY
  5
BCD28CE5C6CAC94
102
{ACAD_REACTORS
330
BCD28CE5C6CAC52
102
}
330
BCD28CE5C6CAC52
100
AcDbDictionary
  0
ACDBDICTIONARYWDFLT
  5
BCD28CE5C6CAC91
102
{ACAD_REACTORS
330
BCD28CE5C6CAC52
102
}
330
BCD28CE5C6CAC52
100
AcDbDictionary
281
     1
  3
Normal
350
BCD28CE5C6CAC92
100
AcDbDictionaryWithDefault
340
BCD28CE5C6CAC92
  0
DICTIONARY
  5
BCD28CE5C6CAC9E
102
{ACAD_REACTORS
330
BCD28CE5C6CAC52
102
}
330
BCD28CE5C6CAC52
100
AcDbDictionary
  3
CEPSNTYPE
350
BCD28CE5C6CACA8
  3
FINGERPRINTGUID
350
BCD28CE5C6CACA9
  3
HYPERLINKBASE
350
BCD28CE5C6CACA1
  3
INSUNITS
350
BCD28CE5C6CACA7
  3
LAYOUTDICT
350
BCD28CE5C6CACA3
  3
LWETCUNION
350
BCD28CE5C6CACA6
  3
PLOTSETDICT
350
BCD28CE5C6CACA4
  3
PLOTSTYLNAMDICT
350
BCD28CE5C6CACA5
  3
PSVPSCALE
350
BCD28CE5C6CACAB
  3
PUCSBASE
350
BCD28CE5C6CACAE
  3
PUCSORGBACK
350
BCD28CE5C6CACB4
  3
PUCSORGBOTTOM
350
BCD28CE5C6CACB0
  3
PUCSORGFRONT
350
BCD28CE5C6CACB3
  3
PUCSORGLEFT
350
BCD28CE5C6CACB1
  3
PUCSORGRIGHT
350
BCD28CE5C6CACB2
  3
PUCSORGTOP
350
BCD28CE5C6CACAF
  3
PUCSORTHOREF
350
BCD28CE5C6CACAC
  3
PUCSORTHOVIEW
350
BCD28CE5C6CACAD
  3
STYLESHEET
350
BCD28CE5C6CACA2
  3
TSTACKALIGN
350
BCD28CE5C6CAC9F
  3
TSTACKSIZE
350
BCD28CE5C6CACA0
  3
UCSBASE
350
BCD28CE5C6CACB7
  3
UCSORGBACK
350
BCD28CE5C6CACBD
  3
UCSORGBOTTOM
350
BCD28CE5C6CACB9
  3
UCSORGFRONT
350
BCD28CE5C6CACBC
  3
UCSORGLEFT
350
BCD28CE5C6CACBA
  3
UCSORGRIGHT
350
BCD28CE5C6CACBB
  3
UCSORGTOP
350
BCD28CE5C6CACB8
  3
UCSORTHOREF
350
BCD28CE5C6CACB5
  3
UCSORTHOVIEW
350
BCD28CE5C6CACB6
  3
VERSIONGUID
350
BCD28CE5C6CACAA
  0
DICTIONARY
  5
BCD28CE5C6CAC9B
102
{ACAD_REACTORS
330
BCD28CE5C6CAC52
102
}
330
BCD28CE5C6CAC52
100
AcDbDictionary
  3
DIMASSOC
350
BCD28CE5C6CAC9C
  0
XRECORD
  5
BCD28CE5C6CACC1
102
{ACAD_REACTORS
330
BCD28CE5C6CACC0
102
}
330
BCD28CE5C6CACC0
100
AcDbXrecord
340
BCD28CE5C6CAC5E
  0
XRECORD
  5
BCD28CE5C6CACBF
102
{ACAD_REACTORS
330
BCD28CE5C6CACBE
102
}
330
BCD28CE5C6CACBE
100
AcDbXrecord
340
BCD28CE5C6CAC5B
  0
MLINESTYLE
  5
BCD28CE5C6CAC61
102
{ACAD_REACTORS
330
BCD28CE5C6CAC54
102
}
330
BCD28CE5C6CAC54
100
AcDbMlineStyle
  2
STANDARD
 70
     0
  3

 62
     0
 51
90.0
 52
90.0
 71
     2
 49
0.5
 62
   256
  6
BYLAYER
 49
-0.5
 62
   256
  6
BYLAYER
  0
ACDBPLACEHOLDER
  5
BCD28CE5C6CAC92
102
{ACAD_REACTORS
330
BCD28CE5C6CAC91
102
}
330
BCD28CE5C6CAC91
100
AcDbPlaceHolder
280
     0
  0
XRECORD
  5
BCD28CE5C6CACA8
102
{ACAD_REACTORS
330
BCD28CE5C6CAC9E
102
}
330
BCD28CE5C6CAC9E
100
AcDbXrecord
 90
        0
  0
XRECORD
  5
BCD28CE5C6CACA9
102
{ACAD_REACTORS
330
BCD28CE5C6CAC9E
102
}
330
BCD28CE5C6CAC9E
100
AcDbXrecord
  1
{F8384F10-8DB5-11D6-88E6-0090279574E7}
  0
XRECORD
  5
BCD28CE5C6CACA1
102
{ACAD_REACTORS
330
BCD28CE5C6CAC9E
102
}
330
BCD28CE5C6CAC9E
100
AcDbXrecord
  1

  0
XRECORD
  5
BCD28CE5C6CACA7
102
{ACAD_REACTORS
330
BCD28CE5C6CAC9E
102
}
330
BCD28CE5C6CAC9E
100
AcDbXrecord
 90
        0
  0
XRECORD
  5
BCD28CE5C6CACA3
102
{ACAD_REACTORS
330
BCD28CE5C6CAC9E
102
}
330
BCD28CE5C6CAC9E
100
AcDbXrecord
340
BCD28CE5C6CAC93
  0
XRECORD
  5
BCD28CE5C6CACA6
102
{ACAD_REACTORS
330
BCD28CE5C6CAC9E
102
}
330
BCD28CE5C6CAC9E
100
AcDbXrecord
 90
    14877
  0
XRECORD
  5
BCD28CE5C6CACA4
102
{ACAD_REACTORS
330
BCD28CE5C6CAC9E
102
}
330
BCD28CE5C6CAC9E
100
AcDbXrecord
340
BCD28CE5C6CAC94
  0
XRECORD
  5
BCD28CE5C6CACA5
102
{ACAD_REACTORS
330
BCD28CE5C6CAC9E
102
}
330
BCD28CE5C6CAC9E
100
AcDbXrecord
340
BCD28CE5C6CAC91
  0
XRECORD
  5
BCD28CE5C6CACAB
102
{ACAD_REACTORS
330
BCD28CE5C6CAC9E
102
}
330
BCD28CE5C6CAC9E
100
AcDbXrecord
 40
0.0
  0
XRECORD
  5
BCD28CE5C6CACAE
102
{ACAD_REACTORS
330
BCD28CE5C6CAC9E
102
}
330
BCD28CE5C6CAC9E
100
AcDbXrecord
340
0
  0
XRECORD
  5
BCD28CE5C6CACB4
102
{ACAD_REACTORS
330
BCD28CE5C6CAC9E
102
}
330
BCD28CE5C6CAC9E
100
AcDbXrecord
 10
0.0
 20
0.0
 30
0.0
  0
XRECORD
  5
BCD28CE5C6CACB0
102
{ACAD_REACTORS
330
BCD28CE5C6CAC9E
102
}
330
BCD28CE5C6CAC9E
100
AcDbXrecord
 10
0.0
 20
0.0
 30
0.0
  0
XRECORD
  5
BCD28CE5C6CACB3
102
{ACAD_REACTORS
330
BCD28CE5C6CAC9E
102
}
330
BCD28CE5C6CAC9E
100
AcDbXrecord
 10
0.0
 20
0.0
 30
0.0
  0
XRECORD
  5
BCD28CE5C6CACB1
102
{ACAD_REACTORS
330
BCD28CE5C6CAC9E
102
}
330
BCD28CE5C6CAC9E
100
AcDbXrecord
 10
0.0
 20
0.0
 30
0.0
  0
XRECORD
  5
BCD28CE5C6CACB2
102
{ACAD_REACTORS
330
BCD28CE5C6CAC9E
102
}
330
BCD28CE5C6CAC9E
100
AcDbXrecord
 10
0.0
 20
0.0
 30
0.0
  0
XRECORD
  5
BCD28CE5C6CACAF
102
{ACAD_REACTORS
330
BCD28CE5C6CAC9E
102
}
330
BCD28CE5C6CAC9E
100
AcDbXrecord
 10
0.0
 20
0.0
 30
0.0
  0
XRECORD
  5
BCD28CE5C6CACAC
102
{ACAD_REACTORS
330
BCD28CE5C6CAC9E
102
}
330
BCD28CE5C6CAC9E
100
AcDbXrecord
340
0
  0
XRECORD
  5
BCD28CE5C6CACAD
102
{ACAD_REACTORS
330
BCD28CE5C6CAC9E
102
}
330
BCD28CE5C6CAC9E
100
AcDbXrecord
 70
     0
  0
XRECORD
  5
BCD28CE5C6CACA2
102
{ACAD_REACTORS
330
BCD28CE5C6CAC9E
102
}
330
BCD28CE5C6CAC9E
100
AcDbXrecord
  1

  0
XRECORD
  5
BCD28CE5C6CAC9F
102
{ACAD_REACTORS
330
BCD28CE5C6CAC9E
102
}
330
BCD28CE5C6CAC9E
100
AcDbXrecord
 90
        1
  0
XRECORD
  5
BCD28CE5C6CACA0
102
{ACAD_REACTORS
330
BCD28CE5C6CAC9E
102
}
330
BCD28CE5C6CAC9E
100
AcDbXrecord
 90
       70
  0
XRECORD
  5
BCD28CE5C6CACB7
102
{ACAD_REACTORS
330
BCD28CE5C6CAC9E
102
}
330
BCD28CE5C6CAC9E
100
AcDbXrecord
340
0
  0
XRECORD
  5
BCD28CE5C6CACBD
102
{ACAD_REACTORS
330
BCD28CE5C6CAC9E
102
}
330
BCD28CE5C6CAC9E
100
AcDbXrecord
 10
0.0
 20
0.0
 30
0.0
  0
XRECORD
  5
BCD28CE5C6CACB9
102
{ACAD_REACTORS
330
BCD28CE5C6CAC9E
102
}
330
BCD28CE5C6CAC9E
100
AcDbXrecord
 10
0.0
 20
0.0
 30
0.0
  0
XRECORD
  5
BCD28CE5C6CACBC
102
{ACAD_REACTORS
330
BCD28CE5C6CAC9E
102
}
330
BCD28CE5C6CAC9E
100
AcDbXrecord
 10
0.0
 20
0.0
 30
0.0
  0
XRECORD
  5
BCD28CE5C6CACBA
102
{ACAD_REACTORS
330
BCD28CE5C6CAC9E
102
}
330
BCD28CE5C6CAC9E
100
AcDbXrecord
 10
0.0
 20
0.0
 30
0.0
  0
XRECORD
  5
BCD28CE5C6CACBB
102
{ACAD_REACTORS
330
BCD28CE5C6CAC9E
102
}
330
BCD28CE5C6CAC9E
100
AcDbXrecord
 10
0.0
 20
0.0
 30
0.0
  0
XRECORD
  5
BCD28CE5C6CACB8
102
{ACAD_REACTORS
330
BCD28CE5C6CAC9E
102
}
330
BCD28CE5C6CAC9E
100
AcDbXrecord
 10
0.0
 20
0.0
 30
0.0
  0
XRECORD
  5
BCD28CE5C6CACB5
102
{ACAD_REACTORS
330
BCD28CE5C6CAC9E
102
}
330
BCD28CE5C6CAC9E
100
AcDbXrecord
340
0
  0
XRECORD
  5
BCD28CE5C6CACB6
102
{ACAD_REACTORS
330
BCD28CE5C6CAC9E
102
}
330
BCD28CE5C6CAC9E
100
AcDbXrecord
 70
     0
  0
XRECORD
  5
BCD28CE5C6CACAA
102
{ACAD_REACTORS
330
BCD28CE5C6CAC9E
102
}
330
BCD28CE5C6CAC9E
100
AcDbXrecord
  1
{F8384F12-8DB5-11D6-88E6-0090279574E7}
  0
DICTIONARYVAR
  5
BCD28CE5C6CAC9C
102
{ACAD_REACTORS
330
BCD28CE5C6CAC9B
102
}
330
BCD28CE5C6CAC9B
100
DictionaryVariables
280
     0
  1
1
  0
ENDSEC
  0
EOF
