  0
SECTION
  2
HEADER
  9
$ACADVER
  1
AC1014
  9
$ACADMAINTVER
 70
     9
  9
$DWGCODEPAGE
  3
ANSI_1252
  9
$INSBASE
 10
4.495731191885111
 20
4.126365538124654
 30
0.0
  9
$EXTMIN
 10
3.252749612657968
 20
3.322863736456274
 30
0.0
  9
$EXTMAX
 10
6.737968934405103
 20
6.626365538124654
 30
0.0
  9
$LIMMIN
 10
0.0
 20
0.0
  9
$LIMMAX
 10
18.0
 20
12.0
  9
$ORTHOMODE
 70
     1
  9
$REGENMODE
 70
     1
  9
$FILLMODE
 70
     1
  9
$QTEXTMODE
 70
     0
  9
$MIRRTEXT
 70
     0
  9
$DRAGMODE
 70
     2
  9
$LTSCALE
 40
1.0
  9
$OSMODE
 70
    39
  9
$ATTMODE
 70
     1
  9
$TEXTSIZE
 40
0.125
  9
$TRACEWID
 40
0.05
  9
$TEXTSTYLE
  7
ROMANS
  9
$CLAYER
  8
0
  9
$CELTYPE
  6
BYLAYER
  9
$CECOLOR
 62
   256
  9
$CELTSCALE
 40
1.0
  9
$DELOBJ
 70
     1
  9
$DISPSILH
 70
     1
  9
$DIMSCALE
 40
1.0
  9
$DIMASZ
 40
0.125
  9
$DIMEXO
 40
0.125
  9
$DIMDLI
 40
0.375
  9
$DIMRND
 40
0.0
  9
$DIMDLE
 40
0.0
  9
$DIMEXE
 40
0.125
  9
$DIMTP
 40
0.0
  9
$DIMTM
 40
0.0
  9
$DIMTXT
 40
0.125
  9
$DIMCEN
 40
-0.125
  9
$DIMTSZ
 40
0.0
  9
$DIMTOL
 70
     0
  9
$DIMLIM
 70
     0
  9
$DIMTIH
 70
     1
  9
$DIMTOH
 70
     1
  9
$DIMSE1
 70
     0
  9
$DIMSE2
 70
     0
  9
$DIMTAD
 70
     0
  9
$DIMZIN
 70
     4
  9
$DIMBLK
  1

  9
$DIMASO
 70
     1
  9
$DIMSHO
 70
     1
  9
$DIMPOST
  1

  9
$DIMAPOST
  1

  9
$DIMALT
 70
     0
  9
$DIMALTD
 70
     2
  9
$DIMALTF
 40
25.4
  9
$DIMLFAC
 40
1.0
  9
$DIMTOFL
 70
     0
  9
$DIMTVP
 40
0.0
  9
$DIMTIX
 70
     1
  9
$DIMSOXD
 70
     0
  9
$DIMSAH
 70
     0
  9
$DIMBLK1
  1

  9
$DIMBLK2
  1

  9
$DIMSTYLE
  2
STANDARD
  9
$DIMCLRD
 70
     0
  9
$DIMCLRE
 70
     0
  9
$DIMCLRT
 70
     0
  9
$DIMTFAC
 40
1.0
  9
$DIMGAP
 40
0.09
  9
$DIMJUST
 70
     0
  9
$DIMSD1
 70
     0
  9
$DIMSD2
 70
     0
  9
$DIMTOLJ
 70
     1
  9
$DIMTZIN
 70
     4
  9
$DIMALTZ
 70
     0
  9
$DIMALTTZ
 70
     0
  9
$DIMFIT
 70
     3
  9
$DIMUPT
 70
     0
  9
$DIMUNIT
 70
     2
  9
$DIMDEC
 70
     3
  9
$DIMTDEC
 70
     3
  9
$DIMALTU
 70
     2
  9
$DIMALTTD
 70
     2
  9
$DIMTXSTY
  7
ROMANS
  9
$DIMAUNIT
 70
     0
  9
$LUNITS
 70
     2
  9
$LUPREC
 70
     3
  9
$SKETCHINC
 40
0.1
  9
$FILLETRAD
 40
0.03125
  9
$AUNITS
 70
     0
  9
$AUPREC
 70
     0
  9
$MENU
  1
ACAD
  9
$ELEVATION
 40
0.0
  9
$PELEVATION
 40
0.0
  9
$THICKNESS
 40
0.0
  9
$LIMCHECK
 70
     0
  9
$BLIPMODE
 70
     0
  9
$CHAMFERA
 40
0.0
  9
$CHAMFERB
 40
0.0
  9
$CHAMFERC
 40
0.0
  9
$CHAMFERD
 40
0.0
  9
$SKPOLY
 70
     0
  9
$TDCREATE
 40
2448994.545314120
  9
$TDUPDATE
 40
2452458.305205729
  9
$TDINDWG
 40
0.0006603704
  9
$TDUSRTIMER
 40
0.0006603704
  9
$USRTIMER
 70
     1
  9
$ANGBASE
 50
0.0
  9
$ANGDIR
 70
     0
  9
$PDMODE
 70
     0
  9
$PDSIZE
 40
0.0
  9
$PLINEWID
 40
0.0
  9
$COORDS
 70
     2
  9
$SPLFRAME
 70
     0
  9
$SPLINETYPE
 70
     6
  9
$SPLINESEGS
 70
     8
  9
$ATTDIA
 70
     0
  9
$ATTREQ
 70
     1
  9
$HANDLING
 70
 22529
  9
$HANDSEED
  5
BCD28CE5C6CA88E
  9
$SURFTAB1
 70
     6
  9
$SURFTAB2
 70
     6
  9
$SURFTYPE
 70
     6
  9
$SURFU
 70
     6
  9
$SURFV
 70
     6
  9
$UCSNAME
  2

  9
$UCSORG
 10
0.0
 20
0.0
 30
0.0
  9
$UCSXDIR
 10
1.0
 20
0.0
 30
0.0
  9
$UCSYDIR
 10
0.0
 20
1.0
 30
0.0
  9
$PUCSNAME
  2

  9
$PUCSORG
 10
0.0
 20
0.0
 30
0.0
  9
$PUCSXDIR
 10
1.0
 20
0.0
 30
0.0
  9
$PUCSYDIR
 10
0.0
 20
1.0
 30
0.0
  9
$USERI1
 70
     0
  9
$USERI2
 70
     0
  9
$USERI3
 70
     0
  9
$USERI4
 70
     0
  9
$USERI5
 70
     0
  9
$USERR1
 40
0.0
  9
$USERR2
 40
0.0
  9
$USERR3
 40
0.0
  9
$USERR4
 40
0.0
  9
$USERR5
 40
0.0
  9
$WORLDVIEW
 70
     1
  9
$SHADEDGE
 70
     3
  9
$SHADEDIF
 70
    70
  9
$TILEMODE
 70
     1
  9
$MAXACTVP
 70
    16
  9
$PINSBASE
 10
3.6347951712016
 20
50.00000000000001
 30
5.02553024228155
  9
$PLIMCHECK
 70
     0
  9
$PEXTMIN
 10
1.000000000000000E+20
 20
1.000000000000000E+20
 30
1.000000000000000E+20
  9
$PEXTMAX
 10
-1.000000000000000E+20
 20
-1.000000000000000E+20
 30
-1.000000000000000E+20
  9
$PLIMMIN
 10
0.0
 20
0.0
  9
$PLIMMAX
 10
12.0
 20
9.0
  9
$UNITMODE
 70
     0
  9
$VISRETAIN
 70
     0
  9
$PLINEGEN
 70
     1
  9
$PSLTSCALE
 70
     0
  9
$TREEDEPTH
 70
  3020
  9
$PICKSTYLE
 70
     1
  9
$CMLSTYLE
  2
STANDARD
  9
$CMLJUST
 70
     0
  9
$CMLSCALE
 40
1.0
  9
$PROXYGRAPHICS
 70
     1
  9
$MEASUREMENT
 70
     0
  0
ENDSEC
  0
SECTION
  2
CLASSES
  0
CLASS
  1
LWPOLYLINE
  2
AcDbPolyline
  3
AutoCAD 2000
 90
        0
280
     0
281
     1
  0
CLASS
  1
ACDBDICTIONARYWDFLT
  2
AcDbDictionaryWithDefault
  3
AutoCAD 2000
 90
        0
280
     0
281
     0
  0
CLASS
  1
ACDBPLACEHOLDER
  2
AcDbPlaceHolder
  3
AutoCAD 2000
 90
        0
280
     0
281
     0
  0
CLASS
  1
LAYOUT
  2
AcDbLayout
  3
AutoCAD 2000
 90
        0
280
     0
281
     0
  0
CLASS
  1
DICTIONARYVAR
  2
AcDbDictionaryVar
  3
AutoCAD 2000
 90
        0
280
     0
281
     0
  0
CLASS
  1
LONG_TRANSACTION
  2
AcDbLongTransaction
  3
AutoCAD 2000
 90
        0
280
     0
281
     0
  0
CLASS
  1
LWPOLYLINE
  2
AcDbPolyline
  3
AutoCAD 2000
 90
        0
280
     0
281
     1
  0
CLASS
  1
HATCH
  2
AcDbHatch
  3
AutoCAD 2000
 90
        0
280
     0
281
     1
  0
CLASS
  1
XRECORD
  2
AcDbXrecord
  3
AutoCAD 2000
 90
        0
280
     0
281
     0
  0
ENDSEC
  0
SECTION
  2
TABLES
  0
TABLE
  2
VPORT
  5
BCD28CE5C6CA835
330
0
100
AcDbSymbolTable
 70
     2
  0
VPORT
  5
BCD28CE5C6CA869
330
BCD28CE5C6CA835
100
AcDbSymbolTableRecord
100
AcDbViewportTableRecord
  2
*ACTIVE
 70
     0
 10
0.0
 20
0.0
 11
1.0
 21
1.0
 12
9.859890486375753
 22
4.974609401745965
 13
0.0
 23
0.0
 14
0.015625
 24
0.015625
 15
0.0
 25
0.0
 16
0.0
 26
0.0
 36
1.0
 17
0.0
 27
0.0
 37
0.0
 40
3.731195502999985
 41
4.320930232558139
 42
50.0
 43
0.0
 44
0.0
 50
0.0
 51
0.0
 71
     0
 72
  2000
 73
     1
 74
     0
 75
     0
 76
     0
 77
     0
 78
     0
  0
ENDTAB
  0
TABLE
  2
LTYPE
  5
BCD28CE5C6CA832
330
0
100
AcDbSymbolTable
 70
     1
  0
LTYPE
  5
BCD28CE5C6CA83F
330
BCD28CE5C6CA832
100
AcDbSymbolTableRecord
100
AcDbLinetypeTableRecord
  2
BYBLOCK
 70
     0
  3

 72
    65
 73
     0
 40
0.0
  0
LTYPE
  5
BCD28CE5C6CA840
330
BCD28CE5C6CA832
100
AcDbSymbolTableRecord
100
AcDbLinetypeTableRecord
  2
BYLAYER
 70
     0
  3

 72
    65
 73
     0
 40
0.0
  0
LTYPE
  5
BCD28CE5C6CA841
330
BCD28CE5C6CA832
100
AcDbSymbolTableRecord
100
AcDbLinetypeTableRecord
  2
CONTINUOUS
 70
     0
  3
Solid line
 72
    65
 73
     0
 40
0.0
  0
ENDTAB
  0
TABLE
  2
LAYER
  5
BCD28CE5C6CA82F
330
0
100
AcDbSymbolTable
 70
     2
  0
LAYER
  5
BCD28CE5C6CA83C
330
BCD28CE5C6CA82F
100
AcDbSymbolTableRecord
100
AcDbLayerTableRecord
  2
0
 70
     0
 62
     7
  6
CONTINUOUS
  0
LAYER
  5
BCD28CE5C6CA84C
330
BCD28CE5C6CA82F
100
AcDbSymbolTableRecord
100
AcDbLayerTableRecord
  2
TEXT
 70
     0
 62
     3
  6
CONTINUOUS
  0
ENDTAB
  0
TABLE
  2
STYLE
  5
BCD28CE5C6CA830
330
0
100
AcDbSymbolTable
 70
     3
  0
STYLE
  5
BCD28CE5C6CA83D
330
BCD28CE5C6CA830
100
AcDbSymbolTableRecord
100
AcDbTextStyleTableRecord
  2
STANDARD
 70
     0
 40
0.0
 41
1.0
 50
0.0
 71
     0
 42
0.3125
  3
txt
  4

  0
STYLE
  5
BCD28CE5C6CA849
330
BCD28CE5C6CA830
100
AcDbSymbolTableRecord
100
AcDbTextStyleTableRecord
  2
ITALICC
 70
     0
 40
0.0
 41
1.0
 50
0.0
 71
     0
 42
0.125
  3
italicc
  4

  0
STYLE
  5
BCD28CE5C6CA859
330
BCD28CE5C6CA830
100
AcDbSymbolTableRecord
100
AcDbTextStyleTableRecord
  2
ROMANS
 70
     0
 40
0.0
 41
1.0
 50
0.0
 71
     0
 42
0.125
  3
romans.shx
  4

  0
ENDTAB
  0
TABLE
  2
VIEW
  5
BCD28CE5C6CA833
330
0
100
AcDbSymbolTable
 70
     0
  0
ENDTAB
  0
TABLE
  2
UCS
  5
BCD28CE5C6CA834
330
0
100
AcDbSymbolTable
 70
     0
  0
ENDTAB
  0
TABLE
  2
APPID
  5
BCD28CE5C6CA836
330
0
100
AcDbSymbolTable
 70
     1
  0
APPID
  5
BCD28CE5C6CA83E
330
BCD28CE5C6CA836
100
AcDbSymbolTableRecord
100
AcDbRegAppTableRecord
  2
ACAD
 70
     0
  0
ENDTAB
  0
TABLE
  2
DIMSTYLE
  5
BCD28CE5C6CA837
330
0
100
AcDbSymbolTable
 70
     1
  0
DIMSTYLE
105
BCD28CE5C6CA851
330
BCD28CE5C6CA837
100
AcDbSymbolTableRecord
100
AcDbDimStyleTableRecord
  2
STANDARD
 70
     0
  3

  4

  5

  6

  7

 40
1.0
 41
0.125
 42
0.125
 43
0.375
 44
0.125
 45
0.0
 46
0.0
 47
0.0
 48
0.0
140
0.125
141
-0.125
142
0.0
143
25.4
144
1.0
145
0.0
146
1.0
147
0.09
 71
     0
 72
     0
 73
     1
 74
     1
 75
     0
 76
     0
 77
     0
 78
     4
170
     0
171
     2
172
     0
173
     0
174
     1
175
     0
176
     0
177
     0
178
     0
270
     2
271
     3
272
     3
273
     2
274
     2
340
BCD28CE5C6CA859
275
     0
280
     0
281
     0
282
     0
283
     1
284
     4
285
     0
286
     0
287
     3
288
     0
  0
ENDTAB
  0
TABLE
  2
BLOCK_RECORD
  5
BCD28CE5C6CA82E
330
0
100
AcDbSymbolTable
 70
     0
  0
BLOCK_RECORD
  5
BCD28CE5C6CA845
102
{ACAD_XDICTIONARY
360
BCD28CE5C6CA88C
102
}
330
BCD28CE5C6CA82E
100
AcDbSymbolTableRecord
100
AcDbBlockTableRecord
  2
*MODEL_SPACE
  0
BLOCK_RECORD
  5
BCD28CE5C6CA842
102
{ACAD_XDICTIONARY
360
BCD28CE5C6CA88A
102
}
330
BCD28CE5C6CA82E
100
AcDbSymbolTableRecord
100
AcDbBlockTableRecord
  2
*PAPER_SPACE
  0
ENDTAB
  0
ENDSEC
  0
SECTION
  2
BLOCKS
  0
BLOCK
  5
BCD28CE5C6CA84F
330
BCD28CE5C6CA845
100
AcDbEntity
  8
0
100
AcDbBlockBegin
  2
*MODEL_SPACE
 70
     0
 10
0.0
 20
0.0
 30
0.0
  3
*MODEL_SPACE
  1

  0
ENDBLK
  5
BCD28CE5C6CA850
330
BCD28CE5C6CA845
100
AcDbEntity
  8
0
100
AcDbBlockEnd
  0
BLOCK
  5
BCD28CE5C6CA84D
330
BCD28CE5C6CA842
100
AcDbEntity
 67
     1
  8
0
100
AcDbBlockBegin
  2
*PAPER_SPACE
 70
     0
 10
0.0
 20
0.0
 30
0.0
  3
*PAPER_SPACE
  1

  0
ENDBLK
  5
BCD28CE5C6CA84E
330
BCD28CE5C6CA842
100
AcDbEntity
 67
     1
  8
0
100
AcDbBlockEnd
  0
ENDSEC
  0
SECTION
  2
ENTITIES
  0
LWPOLYLINE
  5
BCD28CE5C6C92EC
330
BCD28CE5C6CA845
100
AcDbEntity
  8
0
100
AcDbPolyline
 90
        6
 70
     1
 43
0.0
 10
5.495731191885111
 20
4.188865538124654
 10
5.495731191885113
 20
4.126365538124654
 10
4.495731191885111
 20
4.126365538124654
 10
4.495731191885111
 20
6.626365538124654
 10
4.558231191885111
 20
6.626365538124652
 10
4.558231191885111
 20
4.188865538124654
  0
TEXT
  5
BCD28CE5C6CA6F0
330
BCD28CE5C6CA845
100
AcDbEntity
  8
TEXT
100
AcDbText
 10
4.242755001408922
 20
3.780882340538855
 30
0.0
 40
0.125
  1
PART #110293
  7
ITALICC
 72
     1
 11
4.995731191885112
 21
3.780882340538855
 31
0.0
100
AcDbText
  0
TEXT
  5
BCD28CE5C6CA6F1
330
BCD28CE5C6CA845
100
AcDbEntity
  8
TEXT
100
AcDbText
 10
5.409036350135433
 20
3.33395969786648
 30
0.0
 40
0.0522247191011236
  1
Phone  1-800-328-2495
 41
1.272321428571429
 72
     5
 11
6.737968934405096
 21
3.33395969786648
 31
0.0
100
AcDbText
  0
TEXT
  5
BCD28CE5C6CA6F2
330
BCD28CE5C6CA845
100
AcDbEntity
  8
TEXT
100
AcDbText
 10
5.409036350135433
 20
3.613734978765357
 30
0.0
 40
0.0522247191011236
  1
Stylmark  Incorporated
 41
1.221428571428573
 72
     5
 11
6.737968934405096
 21
3.613734978765357
 31
0.0
100
AcDbText
  0
TEXT
  5
BCD28CE5C6CA6F3
330
BCD28CE5C6CA845
100
AcDbEntity
  8
TEXT
100
AcDbText
 10
5.409036350135433
 20
3.520476551799065
 30
0.0
 40
0.0522247191011236
  1
6536 Main St. N.E. * P.O. Box 32008
 41
0.8388932496075366
 72
     5
 11
6.737968934405096
 21
3.520476551799065
 31
0.0
100
AcDbText
  0
TEXT
  5
BCD28CE5C6CA6F4
330
BCD28CE5C6CA845
100
AcDbEntity
  8
TEXT
100
AcDbText
 10
5.409036350135433
 20
3.427218124832772
 30
0.0
 40
0.0522247191011236
  1
Minneapolis, MN 55432-0008
 41
1.11444212721585
 72
     5
 11
6.737968934405096
 21
3.427218124832772
 31
0.0
100
AcDbText
  0
LWPOLYLINE
  5
BCD28CE5C6CA6F5
330
BCD28CE5C6CA845
100
AcDbEntity
  8
TEXT
100
AcDbPolyline
 90
        3
 70
     0
 43
0.0006660908203125
 10
3.253082658068125
 20
3.447604460503915
 10
3.253082658068125
 20
3.334369021050787
 10
3.366318097521247
 20
3.334369021050787
  0
LWPOLYLINE
  5
BCD28CE5C6CA6FA
330
BCD28CE5C6CA845
100
AcDbEntity
  8
TEXT
100
AcDbPolyline
 90
        3
 70
     0
 43
0.0006660908203125
 10
3.279726290880622
 20
3.447604460503915
 10
3.279726290880622
 20
3.361012653863288
 10
3.366318097521247
 20
3.361012653863288
  0
LWPOLYLINE
  5
BCD28CE5C6CA6FF
330
BCD28CE5C6CA845
100
AcDbEntity
  8
TEXT
100
AcDbPolyline
 90
        2
 70
     0
 43
0.0001332181640625
 10
3.326352648302499
 20
3.4575958228086
 10
3.253082658068125
 20
3.447604460503915
  0
LWPOLYLINE
  5
BCD28CE5C6CA703
330
BCD28CE5C6CA845
100
AcDbEntity
  8
TEXT
100
AcDbPolyline
 90
        2
 70
     0
 43
0.0001332181640625
 10
3.279726290880622
 20
3.447604460503915
 10
3.33967446470875
 20
3.4575958228086
  0
LWPOLYLINE
  5
BCD28CE5C6CA707
330
BCD28CE5C6CA845
100
AcDbEntity
  8
TEXT
100
AcDbPolyline
 90
        2
 70
     0
 43
0.0001332181640625
 10
3.279726290880622
 20
3.361012653863288
 10
3.33967446470875
 20
3.420960827691414
  0
LWPOLYLINE
  5
BCD28CE5C6CA70B
330
BCD28CE5C6CA845
100
AcDbEntity
  8
TEXT
100
AcDbPolyline
 90
        3
 70
     0
 43
0.0006660908203125
 10
3.366318097521247
 20
3.600805349175791
 10
3.253082658068125
 20
3.600805349175791
 10
3.253082658068125
 20
3.487569909722663
  0
LWPOLYLINE
  5
BCD28CE5C6CA710
330
BCD28CE5C6CA845
100
AcDbEntity
  8
TEXT
100
AcDbPolyline
 90
        3
 70
     0
 43
0.0006660908203125
 10
3.366318097521247
 20
3.57416171636329
 10
3.279726290880622
 20
3.57416171636329
 10
3.279726290880622
 20
3.487569909722663
  0
LWPOLYLINE
  5
BCD28CE5C6CA715
330
BCD28CE5C6CA845
100
AcDbEntity
  8
TEXT
100
AcDbPolyline
 90
        2
 70
     0
 43
0.0001332181640625
 10
3.279726290880622
 20
3.57416171636329
 10
3.339674464708748
 20
3.514213542535164
  0
LWPOLYLINE
  5
BCD28CE5C6CA719
330
BCD28CE5C6CA845
100
AcDbEntity
  8
TEXT
100
AcDbPolyline
 90
        2
 70
     0
 43
0.0001332181640625
 10
3.279726290880622
 20
3.487569909722663
 10
3.339674464708748
 20
3.477578547417974
  0
LWPOLYLINE
  5
BCD28CE5C6CA71D
330
BCD28CE5C6CA845
100
AcDbEntity
  8
TEXT
100
AcDbPolyline
 90
        2
 70
     0
 43
0.0001332181640625
 10
3.253082658068125
 20
3.487569909722663
 10
3.326352648302499
 20
3.477578547417974
  0
LWPOLYLINE
  5
BCD28CE5C6CA721
330
BCD28CE5C6CA845
100
AcDbEntity
  8
TEXT
100
AcDbPolyline
 90
        2
 70
     0
 43
0.0006660908203125
 10
3.279726290880622
 20
3.447604460503915
 10
3.253082658068125
 20
3.447604460503915
  0
LWPOLYLINE
  5
BCD28CE5C6CA725
330
BCD28CE5C6CA845
100
AcDbEntity
  8
TEXT
100
AcDbPolyline
 90
        2
 70
     0
 43
0.0006660908203125
 10
3.279726290880622
 20
3.487569909722663
 10
3.253082658068125
 20
3.487569909722663
  0
LINE
  5
BCD28CE5C6CA729
330
BCD28CE5C6CA845
100
AcDbEntity
  8
TEXT
100
AcDbLine
 10
4.768273087194622
 20
3.536528654519022
 30
0.0
 11
4.661066813807333
 21
3.536528654519022
 31
0.0
  0
LINE
  5
BCD28CE5C6CA72A
330
BCD28CE5C6CA845
100
AcDbEntity
  8
TEXT
100
AcDbLine
 10
4.797303985539101
 20
3.600805349175787
 30
0.0
 11
4.662472076322042
 21
3.600805349175787
 31
0.0
  0
ARC
  5
BCD28CE5C6CA72B
330
BCD28CE5C6CA845
100
AcDbEntity
  8
TEXT
100
AcDbCircle
 10
4.721786172715359
 20
3.431568099912771
 30
0.0
 40
0.0676855811441166
100
AcDbArc
 50
90.0
 51
153.7768192527749
  0
LWPOLYLINE
  5
BCD28CE5C6CA72C
330
BCD28CE5C6CA845
100
AcDbEntity
  8
TEXT
100
AcDbPolyline
 90
        2
 70
     0
 43
0.0
 10
4.660034318352523
 20
3.377823261137714
 42
0.2901071551932823
 10
4.703110251220159
 20
3.334332316187276
 42
5.328517124445801
  0
ARC
  5
BCD28CE5C6CA730
330
BCD28CE5C6CA845
100
AcDbEntity
  8
TEXT
100
AcDbCircle
 10
4.016654795043873
 20
3.394124707525326
 30
0.0
 40
0.0601160179737537
100
AcDbArc
 50
180.0000000000003
 51
264.0521544866073
  0
LINE
  5
BCD28CE5C6CA731
330
BCD28CE5C6CA845
100
AcDbEntity
  8
TEXT
100
AcDbLine
 10
4.020170150669421
 20
3.635193266769925
 30
0.0
 11
3.960127545825414
 21
3.635193266769925
 31
0.0
  0
ARC
  5
BCD28CE5C6CA732
330
BCD28CE5C6CA845
100
AcDbEntity
  8
TEXT
100
AcDbCircle
 10
3.784395792926902
 20
3.518717889729285
 30
0.0
 40
0.0820874594465043
100
AcDbArc
 50
90.0
 51
270.0
  0
LWPOLYLINE
  5
BCD28CE5C6CA733
330
BCD28CE5C6CA845
100
AcDbEntity
  8
TEXT
100
AcDbPolyline
 90
        2
 70
     0
 43
0.0001332181640625
 10
3.376309459825938
 20
3.527535358941411
 10
3.366318097521247
 20
3.600805349175791
  0
LWPOLYLINE
  5
BCD28CE5C6CA737
330
BCD28CE5C6CA845
100
AcDbEntity
  8
TEXT
100
AcDbPolyline
 90
        2
 70
     0
 43
0.0001332181640625
 10
3.366318097521247
 20
3.57416171636329
 10
3.376309459825938
 20
3.514213542535164
  0
LWPOLYLINE
  5
BCD28CE5C6CA73B
330
BCD28CE5C6CA845
100
AcDbEntity
  8
TEXT
100
AcDbPolyline
 90
        3
 70
     0
 43
0.0006660908203125
 10
3.519518986193125
 20
3.487569909722663
 10
3.519518986193125
 20
3.600805349175791
 10
3.406283546739999
 20
3.600805349175791
  0
LWPOLYLINE
  5
BCD28CE5C6CA740
330
BCD28CE5C6CA845
100
AcDbEntity
  8
TEXT
100
AcDbPolyline
 90
        3
 70
     0
 43
0.0006660908203125
 10
3.492875353380624
 20
3.487569909722663
 10
3.492875353380624
 20
3.57416171636329
 10
3.406283546739999
 20
3.57416171636329
  0
LWPOLYLINE
  5
BCD28CE5C6CA745
330
BCD28CE5C6CA845
100
AcDbEntity
  8
TEXT
100
AcDbPolyline
 90
        2
 70
     0
 43
0.0001332181640625
 10
3.492875353380624
 20
3.57416171636329
 10
3.4329271795525
 20
3.514213542535164
  0
LWPOLYLINE
  5
BCD28CE5C6CA749
330
BCD28CE5C6CA845
100
AcDbEntity
  8
TEXT
100
AcDbPolyline
 90
        2
 70
     0
 43
0.0001332181640625
 10
3.406283546739999
 20
3.57416171636329
 10
3.39629218443531
 20
3.514213542535164
  0
LWPOLYLINE
  5
BCD28CE5C6CA74D
330
BCD28CE5C6CA845
100
AcDbEntity
  8
TEXT
100
AcDbPolyline
 90
        2
 70
     0
 43
0.0001332181640625
 10
3.406283546739999
 20
3.600805349175791
 10
3.39629218443531
 20
3.527535358941411
  0
LWPOLYLINE
  5
BCD28CE5C6CA751
330
BCD28CE5C6CA845
100
AcDbEntity
  8
TEXT
100
AcDbPolyline
 90
        2
 70
     0
 43
0.0001332181640625
 10
3.446248995958749
 20
3.477578547417974
 10
3.519518986193125
 20
3.487569909722663
  0
LWPOLYLINE
  5
BCD28CE5C6CA755
330
BCD28CE5C6CA845
100
AcDbEntity
  8
TEXT
100
AcDbPolyline
 90
        2
 70
     0
 43
0.0001332181640625
 10
3.492875353380624
 20
3.487569909722663
 10
3.4329271795525
 20
3.477578547417974
  0
LWPOLYLINE
  5
BCD28CE5C6CA759
330
BCD28CE5C6CA845
100
AcDbEntity
  8
TEXT
100
AcDbPolyline
 90
        2
 70
     0
 43
0.0001332181640625
 10
3.519518986193125
 20
3.447604460503915
 10
3.446248995958749
 20
3.4575958228086
  0
LWPOLYLINE
  5
BCD28CE5C6CA75D
330
BCD28CE5C6CA845
100
AcDbEntity
  8
TEXT
100
AcDbPolyline
 90
        2
 70
     0
 43
0.0001332181640625
 10
3.492875353380624
 20
3.447604460503915
 10
3.4329271795525
 20
3.4575958228086
  0
LWPOLYLINE
  5
BCD28CE5C6CA761
330
BCD28CE5C6CA845
100
AcDbEntity
  8
TEXT
100
AcDbPolyline
 90
        2
 70
     0
 43
0.0001332181640625
 10
3.492875353380624
 20
3.361012653863288
 10
3.4329271795525
 20
3.420960827691414
  0
LWPOLYLINE
  5
BCD28CE5C6CA765
330
BCD28CE5C6CA845
100
AcDbEntity
  8
TEXT
100
AcDbPolyline
 90
        3
 70
     0
 43
0.0006660908203125
 10
3.406283546739999
 20
3.361012653863288
 10
3.492875353380624
 20
3.361012653863288
 10
3.492875353380624
 20
3.447604460503915
  0
LWPOLYLINE
  5
BCD28CE5C6CA76A
330
BCD28CE5C6CA845
100
AcDbEntity
  8
TEXT
100
AcDbPolyline
 90
        3
 70
     0
 43
0.0006660908203125
 10
3.406283546739999
 20
3.334369021050787
 10
3.519518986193125
 20
3.334369021050787
 10
3.519518986193125
 20
3.447604460503915
  0
LWPOLYLINE
  5
BCD28CE5C6CA76F
330
BCD28CE5C6CA845
100
AcDbEntity
  8
TEXT
100
AcDbPolyline
 90
        5
 70
     0
 43
0.0001332181640625
 10
3.376309459825938
 20
3.407639011285163
 10
3.376309459825938
 20
3.420960827691414
 10
3.33967446470875
 20
3.420960827691414
 10
3.33967446470875
 20
3.4575958228086
 10
3.326352648302499
 20
3.4575958228086
  0
LWPOLYLINE
  5
BCD28CE5C6CA776
330
BCD28CE5C6CA845
100
AcDbEntity
  8
TEXT
100
AcDbPolyline
 90
        2
 70
     0
 43
0.0006660908203125
 10
3.366318097521247
 20
3.361012653863288
 10
3.366318097521247
 20
3.334369021050787
  0
LWPOLYLINE
  5
BCD28CE5C6CA77A
330
BCD28CE5C6CA845
100
AcDbEntity
  8
TEXT
100
AcDbPolyline
 90
        2
 70
     0
 43
0.0001332181640625
 10
3.366318097521247
 20
3.361012653863288
 10
3.376309459825938
 20
3.420960827691414
  0
LWPOLYLINE
  5
BCD28CE5C6CA77E
330
BCD28CE5C6CA845
100
AcDbEntity
  8
TEXT
100
AcDbPolyline
 90
        2
 70
     0
 43
0.0001332181640625
 10
3.366318097521247
 20
3.334369021050787
 10
3.376309459825938
 20
3.407639011285163
  0
LWPOLYLINE
  5
BCD28CE5C6CA782
330
BCD28CE5C6CA845
100
AcDbEntity
  8
TEXT
100
AcDbPolyline
 90
        5
 70
     0
 43
0.0001332181640625
 10
3.326352648302499
 20
3.477578547417974
 10
3.339674464708748
 20
3.477578547417974
 10
3.339674464708748
 20
3.514213542535164
 10
3.376309459825938
 20
3.514213542535164
 10
3.376309459825938
 20
3.527535358941411
  0
LWPOLYLINE
  5
BCD28CE5C6CA789
330
BCD28CE5C6CA845
100
AcDbEntity
  8
TEXT
100
AcDbPolyline
 90
        5
 70
     0
 43
0.0001332181640625
 10
3.39629218443531
 20
3.527535358941411
 10
3.39629218443531
 20
3.514213542535164
 10
3.4329271795525
 20
3.514213542535164
 10
3.4329271795525
 20
3.477578547417974
 10
3.446248995958749
 20
3.477578547417974
  0
LWPOLYLINE
  5
BCD28CE5C6CA790
330
BCD28CE5C6CA845
100
AcDbEntity
  8
TEXT
100
AcDbPolyline
 90
        2
 70
     0
 43
0.0001332181640625
 10
3.406283546739999
 20
3.361012653863288
 10
3.39629218443531
 20
3.420960827691414
  0
LWPOLYLINE
  5
BCD28CE5C6CA794
330
BCD28CE5C6CA845
100
AcDbEntity
  8
TEXT
100
AcDbPolyline
 90
        2
 70
     0
 43
0.0001332181640625
 10
3.39629218443531
 20
3.407639011285163
 10
3.406283546739999
 20
3.334369021050787
  0
LWPOLYLINE
  5
BCD28CE5C6CA798
330
BCD28CE5C6CA845
100
AcDbEntity
  8
TEXT
100
AcDbPolyline
 90
        2
 70
     0
 43
0.0006660908203125
 10
3.406283546739999
 20
3.361012653863288
 10
3.406283546739999
 20
3.334369021050787
  0
LWPOLYLINE
  5
BCD28CE5C6CA79C
330
BCD28CE5C6CA845
100
AcDbEntity
  8
TEXT
100
AcDbPolyline
 90
        5
 70
     0
 43
0.0001332181640625
 10
3.446248995958749
 20
3.4575958228086
 10
3.4329271795525
 20
3.4575958228086
 10
3.4329271795525
 20
3.420960827691414
 10
3.39629218443531
 20
3.420960827691414
 10
3.39629218443531
 20
3.407639011285163
  0
LWPOLYLINE
  5
BCD28CE5C6CA7A3
330
BCD28CE5C6CA845
100
AcDbEntity
  8
TEXT
100
AcDbPolyline
 90
        2
 70
     0
 43
0.0006660908203125
 10
3.492875353380624
 20
3.487569909722663
 10
3.519518986193125
 20
3.487569909722663
  0
LWPOLYLINE
  5
BCD28CE5C6CA7A7
330
BCD28CE5C6CA845
100
AcDbEntity
  8
TEXT
100
AcDbPolyline
 90
        2
 70
     0
 43
0.0006660908203125
 10
3.492875353380624
 20
3.447604460503915
 10
3.519518986193125
 20
3.447604460503915
  0
LINE
  5
BCD28CE5C6CA7AB
330
BCD28CE5C6CA845
100
AcDbEntity
  8
TEXT
100
AcDbLine
 10
3.789633123041149
 20
3.536528654519022
 30
0.0
 11
3.956538777070121
 21
3.536528654519022
 31
0.0
  0
LINE
  5
BCD28CE5C6CA7AC
330
BCD28CE5C6CA845
100
AcDbEntity
  8
TEXT
100
AcDbLine
 10
3.855233259285451
 20
3.500723932908394
 30
0.0
 11
3.789633123041149
 21
3.500723932908394
 31
0.0
  0
LINE
  5
BCD28CE5C6CA7AD
330
BCD28CE5C6CA845
100
AcDbEntity
  8
TEXT
100
AcDbLine
 10
3.702308333480398
 20
3.334332316187276
 30
0.0
 11
3.855233259285451
 21
3.334332316187276
 31
0.0
  0
LINE
  5
BCD28CE5C6CA7AE
330
BCD28CE5C6CA845
100
AcDbEntity
  8
TEXT
100
AcDbLine
 10
3.86017363319173
 20
3.402689322520715
 30
0.0
 11
3.702308333480396
 21
3.402689322520715
 31
0.0
  0
LINE
  5
BCD28CE5C6CA7AF
330
BCD28CE5C6CA845
100
AcDbEntity
  8
TEXT
100
AcDbLine
 10
3.784395792926901
 20
3.43663043028278
 30
0.0
 11
3.86017363319173
 21
3.43663043028278
 31
0.0
  0
ARC
  5
BCD28CE5C6CA7B0
330
BCD28CE5C6CA845
100
AcDbEntity
  8
TEXT
100
AcDbCircle
 10
3.78963312304115
 20
3.51862629371371
 30
0.0
 40
0.017902360805315
100
AcDbArc
 50
90.0
 51
270.0
  0
LINE
  5
BCD28CE5C6CA7B1
330
BCD28CE5C6CA845
100
AcDbEntity
  8
TEXT
100
AcDbLine
 10
3.702308333480396
 20
3.402689322520715
 30
0.0
 11
3.702308333480398
 21
3.334332316187276
 31
0.0
  0
LINE
  5
BCD28CE5C6CA7B2
330
BCD28CE5C6CA845
100
AcDbEntity
  8
TEXT
100
AcDbLine
 10
3.956538777070121
 20
3.536528654519022
 30
0.0
 11
3.956538777070121
 21
3.394124707525326
 31
0.0
  0
ARC
  5
BCD28CE5C6CA7B3
330
BCD28CE5C6CA845
100
AcDbEntity
  8
TEXT
100
AcDbCircle
 10
3.855233259285451
 20
3.417528124547833
 30
0.0
 40
0.0831958083605586
100
AcDbArc
 50
270.0
 51
90.0
  0
ARC
  5
BCD28CE5C6CA7B4
330
BCD28CE5C6CA845
100
AcDbEntity
  8
TEXT
100
AcDbCircle
 10
3.860173633191731
 20
3.41965987640175
 30
0.0
 40
0.0169705538810321
100
AcDbArc
 50
270.0
 51
90.0
  0
LWPOLYLINE
  5
BCD28CE5C6CA7B5
330
BCD28CE5C6CA845
100
AcDbEntity
  8
TEXT
100
AcDbPolyline
 90
        2
 70
     0
 43
0.0006660908203125
 10
3.366318097521247
 20
3.57416171636329
 10
3.366318097521247
 20
3.600805349175791
  0
LWPOLYLINE
  5
BCD28CE5C6CA7B9
330
BCD28CE5C6CA845
100
AcDbEntity
  8
TEXT
100
AcDbPolyline
 90
        2
 70
     0
 43
0.0006660908203125
 10
3.406283546739999
 20
3.57416171636329
 10
3.406283546739999
 20
3.600805349175791
  0
LINE
  5
BCD28CE5C6CA7BD
330
BCD28CE5C6CA845
100
AcDbEntity
  8
TEXT
100
AcDbLine
 10
3.960127545825414
 20
3.600805349175787
 30
0.0
 11
3.784395792926901
 21
3.600805349175787
 31
0.0
  0
LINE
  5
BCD28CE5C6CA7BE
330
BCD28CE5C6CA845
100
AcDbEntity
  8
TEXT
100
AcDbLine
 10
3.960127545825414
 20
3.635193266769925
 30
0.0
 11
3.960127545825414
 21
3.600805349175787
 31
0.0
  0
LINE
  5
BCD28CE5C6CA7BF
330
BCD28CE5C6CA845
100
AcDbEntity
  8
TEXT
100
AcDbLine
 10
4.150599437845266
 20
3.499933353062667
 30
0.0
 11
4.091969116813328
 21
3.600805349175787
 31
0.0
  0
LINE
  5
BCD28CE5C6CA7C0
330
BCD28CE5C6CA845
100
AcDbEntity
  8
TEXT
100
AcDbLine
 10
4.209348000651131
 20
3.600805349175787
 30
0.0
 11
4.150599437845266
 21
3.499933353062667
 31
0.0
  0
LINE
  5
BCD28CE5C6CA7C1
330
BCD28CE5C6CA845
100
AcDbEntity
  8
TEXT
100
AcDbLine
 10
4.306278626010873
 20
3.416720154290275
 30
0.0
 11
4.306278626010873
 21
3.668816826914598
 31
0.0
  0
LINE
  5
BCD28CE5C6CA7C2
330
BCD28CE5C6CA845
100
AcDbEntity
  8
TEXT
100
AcDbLine
 10
4.338590480148533
 20
3.600805349175787
 30
0.0
 11
4.338590480148533
 21
3.399941142443379
 31
0.0
  0
LINE
  5
BCD28CE5C6CA7C3
330
BCD28CE5C6CA845
100
AcDbEntity
  8
TEXT
100
AcDbLine
 10
4.338590480148533
 20
3.399941142443379
 30
0.0
 11
4.321596843263932
 21
3.399941142443379
 31
0.0
  0
LINE
  5
BCD28CE5C6CA7C4
330
BCD28CE5C6CA845
100
AcDbEntity
  8
TEXT
100
AcDbLine
 10
4.307418199507067
 20
3.334332316187276
 30
0.0
 11
4.405421533206502
 21
3.334332316187276
 31
0.0
  0
LINE
  5
BCD28CE5C6CA7C5
330
BCD28CE5C6CA845
100
AcDbEntity
  8
TEXT
100
AcDbLine
 10
4.140999200848312
 20
3.354290822292289
 30
0.0
 11
4.238298906941756
 21
3.518641033227557
 31
0.0
  0
ARC
  5
BCD28CE5C6CA7C6
330
BCD28CE5C6CA845
100
AcDbEntity
  8
TEXT
100
AcDbCircle
 10
4.106955640936098
 20
3.373880038460972
 30
0.0
 40
0.0392772371940762
100
AcDbArc
 50
270.1604552698595
 51
330.0831797321295
  0
LINE
  5
BCD28CE5C6CA7C7
330
BCD28CE5C6CA845
100
AcDbEntity
  8
TEXT
100
AcDbLine
 10
4.010425384550226
 20
3.334332316187276
 30
0.0
 11
4.107065635625221
 21
3.334602955285558
 31
0.0
  0
LWPOLYLINE
  5
BCD28CE5C6CA7C8
330
BCD28CE5C6CA845
100
AcDbEntity
  8
TEXT
100
AcDbPolyline
 90
        6
 70
     1
 43
0.0
 10
4.052949188125376
 20
3.536528654519022
 10
4.022632593905168
 20
3.536528654519022
 10
4.022632593905168
 20
3.413417656464127
 42
0.407328721240804
 10
4.034176245066644
 20
3.401598741787741
 10
4.094797944111375
 20
3.401598741787741
 10
4.112263284518693
 20
3.43441097083122
  0
LINE
  5
BCD28CE5C6CA7D0
330
BCD28CE5C6CA845
100
AcDbEntity
  8
TEXT
100
AcDbLine
 10
4.238298906941756
 20
3.518641033227557
 30
0.0
 11
4.238298906941756
 21
3.385883658402201
 31
0.0
  0
ARC
  5
BCD28CE5C6CA7D1
330
BCD28CE5C6CA845
100
AcDbEntity
  8
TEXT
100
AcDbCircle
 10
4.32159684326393
 20
3.415322948686804
 30
0.0
 40
0.0153818062434269
100
AcDbArc
 50
174.7883570302258
 51
270.0
  0
LWPOLYLINE
  5
BCD28CE5C6CA7D2
330
BCD28CE5C6CA845
100
AcDbEntity
  8
TEXT
100
AcDbPolyline
 90
        2
 70
     0
 43
0.0
 10
4.238298906941754
 20
3.385883658402204
 42
0.3318488747599744
 10
4.307418199507067
 20
3.334332316187276
 42
-6.868794160588311
  0
LINE
  5
BCD28CE5C6CA7D6
330
BCD28CE5C6CA845
100
AcDbEntity
  8
TEXT
100
AcDbLine
 10
4.462810602195763
 20
3.334332316187276
 30
0.0
 11
4.529868648977603
 21
3.334332316187276
 31
0.0
  0
LINE
  5
BCD28CE5C6CA7D7
330
BCD28CE5C6CA845
100
AcDbEntity
  8
TEXT
100
AcDbLine
 10
4.462810602195763
 20
3.528974865352912
 30
0.0
 11
4.462810602195763
 21
3.334332316187276
 31
0.0
  0
LINE
  5
BCD28CE5C6CA7D8
330
BCD28CE5C6CA845
100
AcDbEntity
  8
TEXT
100
AcDbLine
 10
4.405421533206502
 20
3.536528654519022
 30
0.0
 11
4.45525681302965
 21
3.536528654519022
 31
0.0
  0
LINE
  5
BCD28CE5C6CA7D9
330
BCD28CE5C6CA845
100
AcDbEntity
  8
TEXT
100
AcDbLine
 10
4.405421533206502
 20
3.334332316187276
 30
0.0
 11
4.405421533206502
 21
3.536528654519022
 31
0.0
  0
LWPOLYLINE
  5
BCD28CE5C6CA7DA
330
BCD28CE5C6CA845
100
AcDbEntity
  8
TEXT
100
AcDbPolyline
 90
        2
 70
     0
 43
0.0
 10
4.455256813029648
 20
3.536528654519022
 42
-0.4142135623731017
 10
4.462810602195761
 20
3.528974865352912
 42
-0.9999999999999998
  0
LINE
  5
BCD28CE5C6CA7DE
330
BCD28CE5C6CA845
100
AcDbEntity
  8
TEXT
100
AcDbLine
 10
4.661066813807333
 20
3.536528654519022
 30
0.0
 11
4.661066813807333
 21
3.461476248444815
 31
0.0
  0
LINE
  5
BCD28CE5C6CA7DF
330
BCD28CE5C6CA845
100
AcDbEntity
  8
TEXT
100
AcDbLine
 10
4.529868648977603
 20
3.536528654519022
 30
0.0
 11
4.584002245898553
 21
3.536528654519022
 31
0.0
  0
LINE
  5
BCD28CE5C6CA7E0
330
BCD28CE5C6CA845
100
AcDbEntity
  8
TEXT
100
AcDbLine
 10
4.529868648977603
 20
3.334332316187276
 30
0.0
 11
4.529868648977603
 21
3.536528654519022
 31
0.0
  0
LWPOLYLINE
  5
BCD28CE5C6CA7E1
330
BCD28CE5C6CA845
100
AcDbEntity
  8
TEXT
100
AcDbPolyline
 90
        2
 70
     0
 43
0.0
 10
4.584002245898552
 20
3.536528654519022
 42
-0.4142135623731017
 10
4.591556035064665
 20
3.528974865352912
 42
-0.9999999999999998
  0
LWPOLYLINE
  5
BCD28CE5C6CA7E5
330
BCD28CE5C6CA845
100
AcDbEntity
  8
TEXT
100
AcDbPolyline
 90
        4
 70
     0
 43
0.0
 10
4.591556035064665
 20
3.528974865352912
 10
4.591556035064665
 20
3.334332316187276
 10
4.660034318352523
 20
3.334332316187276
 10
4.660034318352523
 20
3.377823261137714
 42
-1.714843617202739
  0
LINE
  5
BCD28CE5C6CA7EB
330
BCD28CE5C6CA845
100
AcDbEntity
  8
TEXT
100
AcDbLine
 10
4.020170150669421
 20
3.600805349175787
 30
0.0
 11
4.020170150669421
 21
3.635193266769925
 31
0.0
  0
LINE
  5
BCD28CE5C6CA7EC
330
BCD28CE5C6CA845
100
AcDbEntity
  8
TEXT
100
AcDbLine
 10
4.091969116813328
 20
3.600805349175787
 30
0.0
 11
4.020170150669421
 21
3.600805349175787
 31
0.0
  0
LINE
  5
BCD28CE5C6CA7ED
330
BCD28CE5C6CA845
100
AcDbEntity
  8
TEXT
100
AcDbLine
 10
4.239469913444508
 20
3.600805349175787
 30
0.0
 11
4.209348000651131
 21
3.600805349175787
 31
0.0
  0
LINE
  5
BCD28CE5C6CA7EE
330
BCD28CE5C6CA845
100
AcDbEntity
  8
TEXT
100
AcDbLine
 10
4.239469913444508
 20
3.668816826914598
 30
0.0
 11
4.239469913444508
 21
3.600805349175787
 31
0.0
  0
LINE
  5
BCD28CE5C6CA7EF
330
BCD28CE5C6CA845
100
AcDbEntity
  8
TEXT
100
AcDbLine
 10
4.306278626010873
 20
3.668816826914598
 30
0.0
 11
4.239469913444508
 21
3.668816826914598
 31
0.0
  0
LWPOLYLINE
  5
BCD28CE5C6CA7F0
330
BCD28CE5C6CA845
100
AcDbEntity
  8
TEXT
100
AcDbPolyline
 90
        3
 70
     0
 43
0.0
 10
4.626690385608875
 20
3.600805349175791
 10
4.508390226792831
 20
3.600805349175791
 10
4.508390226792831
 20
3.573637852414895
 42
-1.960274751411753
  0
LINE
  5
BCD28CE5C6CA7F5
330
BCD28CE5C6CA845
100
AcDbEntity
  8
TEXT
100
AcDbLine
 10
4.472608536079669
 20
3.600805349175787
 30
0.0
 11
4.338590480148533
 21
3.600805349175787
 31
0.0
  0
LWPOLYLINE
  5
BCD28CE5C6CA7F6
330
BCD28CE5C6CA845
100
AcDbEntity
  8
TEXT
100
AcDbPolyline
 90
        2
 70
     0
 43
0.0
 10
4.472608536079669
 20
3.600805349175791
 42
-0.3328679258950098
 10
4.508390226792831
 20
3.573637852414895
 42
6.772930709997214
  0
LINE
  5
BCD28CE5C6CA7FA
330
BCD28CE5C6CA845
100
AcDbEntity
  8
TEXT
100
AcDbLine
 10
4.662472076322042
 20
3.600805349175787
 30
0.0
 11
4.662472076322042
 21
3.572482803406143
 31
0.0
  0
LWPOLYLINE
  5
BCD28CE5C6CA7FB
330
BCD28CE5C6CA845
100
AcDbEntity
  8
TEXT
100
AcDbPolyline
 90
        2
 70
     0
 43
0.0
 10
4.626690385608875
 20
3.600805349175791
 42
-0.3277054968067132
 10
4.66247207632204
 20
3.572482803406147
 42
6.667889725900311
  0
LINE
  5
BCD28CE5C6CA7FF
330
BCD28CE5C6CA845
100
AcDbEntity
  8
TEXT
100
AcDbLine
 10
4.876263924414142
 20
3.49559337062236
 30
0.0
 11
4.83251315323224
 21
3.577843646618505
 31
0.0
  0
LINE
  5
BCD28CE5C6CA800
330
BCD28CE5C6CA845
100
AcDbEntity
  8
TEXT
100
AcDbLine
 10
4.876263924414142
 20
3.600805349175787
 30
0.0
 11
4.876263924414142
 21
3.49559337062236
 31
0.0
  0
LINE
  5
BCD28CE5C6CA801
330
BCD28CE5C6CA845
100
AcDbEntity
  8
TEXT
100
AcDbLine
 10
5.103947663352511
 20
3.524940022764249
 30
0.0
 11
5.103947663352511
 21
3.666269554943388
 31
0.0
  0
LINE
  5
BCD28CE5C6CA802
330
BCD28CE5C6CA845
100
AcDbEntity
  8
TEXT
100
AcDbLine
 10
5.151045821908495
 20
3.600805349175787
 30
0.0
 11
5.103947663352511
 21
3.524940022764249
 31
0.0
  0
LINE
  5
BCD28CE5C6CA803
330
BCD28CE5C6CA845
100
AcDbEntity
  8
TEXT
100
AcDbLine
 10
5.161480538672418
 20
3.490912106234814
 30
0.0
 11
5.226037654638123
 21
3.600805349175787
 31
0.0
  0
LINE
  5
BCD28CE5C6CA804
330
BCD28CE5C6CA845
100
AcDbEntity
  8
TEXT
100
AcDbLine
 10
5.040112672129738
 20
3.334332316187276
 30
0.0
 11
5.104490856448358
 21
3.334332316187276
 31
0.0
  0
LWPOLYLINE
  5
BCD28CE5C6CA805
330
BCD28CE5C6CA845
100
AcDbEntity
  8
TEXT
100
AcDbPolyline
 90
        2
 70
     0
 43
0.0
 10
4.88020360171918
 20
3.377823261137714
 42
-0.2901071551932486
 10
4.837127668851535
 20
3.334332316187276
 42
-5.328517124445184
  0
ARC
  5
BCD28CE5C6CA809
330
BCD28CE5C6CA845
100
AcDbEntity
  8
TEXT
100
AcDbCircle
 10
4.768273087194621
 20
3.508169279519024
 30
0.0
 40
0.028359375
100
AcDbArc
 50
25.78218179591245
 51
90.0
  0
LINE
  5
BCD28CE5C6CA80A
330
BCD28CE5C6CA845
100
AcDbEntity
  8
TEXT
100
AcDbLine
 10
4.804074162498744
 20
3.499253681056889
 30
0.0
 11
4.793809402085179
 21
3.520504220629584
 31
0.0
  0
LINE
  5
BCD28CE5C6CA80B
330
BCD28CE5C6CA845
100
AcDbEntity
  8
TEXT
100
AcDbLine
 10
4.72178617271536
 20
3.499253681056889
 30
0.0
 11
4.804074162498744
 21
3.499253681056889
 31
0.0
  0
LWPOLYLINE
  5
BCD28CE5C6CA80C
330
BCD28CE5C6CA845
100
AcDbEntity
  8
TEXT
100
AcDbPolyline
 90
        4
 70
     1
 43
0.0
 10
4.817005203781643
 20
3.437296294171301
 10
4.728344885121784
 20
3.437296294171301
 42
0.9999999999999998
 10
4.728344885121784
 20
3.394897753667441
 10
4.817005203781643
 20
3.394897753667441
 42
1.0
  0
LWPOLYLINE
  5
BCD28CE5C6CA812
330
BCD28CE5C6CA845
100
AcDbEntity
  8
TEXT
100
AcDbPolyline
 90
        2
 70
     0
 43
0.0
 10
4.703110251220159
 20
3.334332316187276
 10
4.837127668851535
 20
3.334332316187276
 42
0.9999999999999998
  0
LINE
  5
BCD28CE5C6CA816
330
BCD28CE5C6CA845
100
AcDbEntity
  8
TEXT
100
AcDbLine
 10
4.963464690837175
 20
3.536528654519022
 30
0.0
 11
5.040112672129732
 21
3.536528654519022
 31
0.0
  0
LINE
  5
BCD28CE5C6CA817
330
BCD28CE5C6CA845
100
AcDbEntity
  8
TEXT
100
AcDbLine
 10
5.040112672129732
 20
3.536528654519022
 30
0.0
 11
5.040112672129738
 21
3.334332316187276
 31
0.0
  0
ARC
  5
BCD28CE5C6CA818
330
BCD28CE5C6CA845
100
AcDbEntity
  8
TEXT
100
AcDbCircle
 10
4.963464690837173
 20
3.511622779236359
 30
0.0
 40
0.0249058752826653
100
AcDbArc
 50
89.99971217465335
 51
179.9999999999985
  0
LINE
  5
BCD28CE5C6CA819
330
BCD28CE5C6CA845
100
AcDbEntity
  8
TEXT
100
AcDbLine
 10
4.938558815554515
 20
3.334332316187276
 30
0.0
 11
4.93855881555451
 21
3.511622821618745
 31
0.0
  0
LWPOLYLINE
  5
BCD28CE5C6CA81A
330
BCD28CE5C6CA845
100
AcDbEntity
  8
TEXT
100
AcDbPolyline
 90
        2
 70
     0
 43
0.0
 10
4.88020360171918
 20
3.334332316187276
 10
4.938558815554514
 20
3.334332316187276
  0
LWPOLYLINE
  5
BCD28CE5C6CA81E
330
BCD28CE5C6CA845
100
AcDbEntity
  8
TEXT
100
AcDbPolyline
 90
        2
 70
     0
 43
0.0
 10
4.88020360171918
 20
3.377823261137714
 10
4.88020360171918
 20
3.334332316187276
  0
LINE
  5
BCD28CE5C6CA822
330
BCD28CE5C6CA845
100
AcDbEntity
  8
TEXT
100
AcDbLine
 10
5.256972762036029
 20
3.334332316187276
 30
0.0
 11
5.161480538672418
 21
3.490912106234814
 31
0.0
  0
LINE
  5
BCD28CE5C6CA823
330
BCD28CE5C6CA845
100
AcDbEntity
  8
TEXT
100
AcDbLine
 10
5.180394389659823
 20
3.334332316187276
 30
0.0
 11
5.256972762036029
 21
3.334332316187276
 31
0.0
  0
LINE
  5
BCD28CE5C6CA824
330
BCD28CE5C6CA845
100
AcDbEntity
  8
TEXT
100
AcDbLine
 10
5.104490856448358
 20
3.465911884663456
 30
0.0
 11
5.180394389659823
 21
3.334332316187276
 31
0.0
  0
LINE
  5
BCD28CE5C6CA825
330
BCD28CE5C6CA845
100
AcDbEntity
  8
TEXT
100
AcDbLine
 10
5.104490856448358
 20
3.334332316187276
 30
0.0
 11
5.104490856448358
 21
3.465911884663456
 31
0.0
  0
LINE
  5
BCD28CE5C6CA826
330
BCD28CE5C6CA845
100
AcDbEntity
  8
TEXT
100
AcDbLine
 10
5.103947663352511
 20
3.666269554943388
 30
0.0
 11
5.035632784803238
 21
3.666269554943388
 31
0.0
  0
ARC
  5
BCD28CE5C6CA827
330
BCD28CE5C6CA845
100
AcDbEntity
  8
TEXT
100
AcDbCircle
 10
4.795277045762031
 20
3.559221782054885
 30
0.0
 40
0.0416329381542859
100
AcDbArc
 50
26.56974201007528
 51
87.20939649401342
  0
LINE
  5
BCD28CE5C6CA828
330
BCD28CE5C6CA845
100
AcDbEntity
  8
TEXT
100
AcDbLine
 10
4.940160830713643
 20
3.600805349175787
 30
0.0
 11
4.876263924414142
 21
3.600805349175787
 31
0.0
  0
LINE
  5
BCD28CE5C6CA829
330
BCD28CE5C6CA845
100
AcDbEntity
  8
TEXT
100
AcDbLine
 10
4.940160830713643
 20
3.573257699314912
 30
0.0
 11
4.940160830713643
 21
3.600805349175787
 31
0.0
  0
ARC
  5
BCD28CE5C6CA82A
330
BCD28CE5C6CA845
100
AcDbEntity
  8
TEXT
100
AcDbCircle
 10
4.971353647776751
 20
3.569559621893522
 30
0.0
 40
0.0314112657011332
100
AcDbArc
 50
95.88484768694724
 51
173.2388340632136
  0
LINE
  5
BCD28CE5C6CA82B
330
BCD28CE5C6CA845
100
AcDbEntity
  8
TEXT
100
AcDbLine
 10
5.035632784803232
 20
3.600805349175787
 30
0.0
 11
4.968133067153716
 21
3.600805349175787
 31
0.0
  0
LINE
  5
BCD28CE5C6CA82C
330
BCD28CE5C6CA845
100
AcDbEntity
  8
TEXT
100
AcDbLine
 10
5.035632784803238
 20
3.666269554943388
 30
0.0
 11
5.035632784803232
 21
3.600805349175787
 31
0.0
  0
LINE
  5
BCD28CE5C6CA82D
330
BCD28CE5C6CA845
100
AcDbEntity
  8
TEXT
100
AcDbLine
 10
5.226037654638123
 20
3.600805349175787
 30
0.0
 11
5.151045821908497
 21
3.600805349175787
 31
0.0
  0
ENDSEC
  0
SECTION
  2
OBJECTS
  0
DICTIONARY
  5
BCD28CE5C6CA839
330
0
100
AcDbDictionary
  3
ACAD_GROUP
350
BCD28CE5C6CA83A
  3
ACAD_LAYOUT
350
BCD28CE5C6CA85F
  3
ACAD_MLINESTYLE
350
BCD28CE5C6CA83B
  3
ACAD_PLOTSETTINGS
350
BCD28CE5C6CA860
  3
ACAD_PLOTSTYLENAME
350
BCD28CE5C6CA85D
  3
ACDBHEADERROUNDTRIPXREC
350
BCD28CE5C6CA86A
  3
ACDBVARIABLEDICTIONARY
350
BCD28CE5C6CA867
  0
DICTIONARY
  5
BCD28CE5C6CA88C
330
BCD28CE5C6CA845
100
AcDbDictionary
280
     1
  3
ACAD_LAYOUTSELFREF
360
BCD28CE5C6CA88D
  0
DICTIONARY
  5
BCD28CE5C6CA88A
330
BCD28CE5C6CA842
100
AcDbDictionary
280
     1
  3
ACAD_LAYOUTSELFREF
360
BCD28CE5C6CA88B
  0
DICTIONARY
  5
BCD28CE5C6CA83A
102
{ACAD_REACTORS
330
BCD28CE5C6CA839
102
}
330
BCD28CE5C6CA839
100
AcDbDictionary
  0
DICTIONARY
  5
BCD28CE5C6CA85F
102
{ACAD_REACTORS
330
BCD28CE5C6CA839
102
}
330
BCD28CE5C6CA839
100
AcDbDictionary
  0
DICTIONARY
  5
BCD28CE5C6CA83B
102
{ACAD_REACTORS
330
BCD28CE5C6CA839
102
}
330
BCD28CE5C6CA839
100
AcDbDictionary
  3
STANDARD
350
BCD28CE5C6CA848
  0
DICTIONARY
  5
BCD28CE5C6CA860
102
{ACAD_REACTORS
330
BCD28CE5C6CA839
102
}
330
BCD28CE5C6CA839
100
AcDbDictionary
  0
ACDBDICTIONARYWDFLT
  5
BCD28CE5C6CA85D
102
{ACAD_REACTORS
330
BCD28CE5C6CA839
102
}
330
BCD28CE5C6CA839
100
AcDbDictionary
281
     1
  3
Normal
350
BCD28CE5C6CA85E
100
AcDbDictionaryWithDefault
340
BCD28CE5C6CA85E
  0
DICTIONARY
  5
BCD28CE5C6CA86A
102
{ACAD_REACTORS
330
BCD28CE5C6CA839
102
}
330
BCD28CE5C6CA839
100
AcDbDictionary
  3
CEPSNTYPE
350
BCD28CE5C6CA874
  3
FINGERPRINTGUID
350
BCD28CE5C6CA875
  3
HYPERLINKBASE
350
BCD28CE5C6CA86D
  3
INSUNITS
350
BCD28CE5C6CA873
  3
LAYOUTDICT
350
BCD28CE5C6CA86F
  3
LWETCUNION
350
BCD28CE5C6CA872
  3
PLOTSETDICT
350
BCD28CE5C6CA870
  3
PLOTSTYLNAMDICT
350
BCD28CE5C6CA871
  3
PSVPSCALE
350
BCD28CE5C6CA877
  3
PUCSBASE
350
BCD28CE5C6CA87A
  3
PUCSORGBACK
350
BCD28CE5C6CA880
  3
PUCSORGBOTTOM
350
BCD28CE5C6CA87C
  3
PUCSORGFRONT
350
BCD28CE5C6CA87F
  3
PUCSORGLEFT
350
BCD28CE5C6CA87D
  3
PUCSORGRIGHT
350
BCD28CE5C6CA87E
  3
PUCSORGTOP
350
BCD28CE5C6CA87B
  3
PUCSORTHOREF
350
BCD28CE5C6CA878
  3
PUCSORTHOVIEW
350
BCD28CE5C6CA879
  3
STYLESHEET
350
BCD28CE5C6CA86E
  3
TSTACKALIGN
350
BCD28CE5C6CA86B
  3
TSTACKSIZE
350
BCD28CE5C6CA86C
  3
UCSBASE
350
BCD28CE5C6CA883
  3
UCSORGBACK
350
BCD28CE5C6CA889
  3
UCSORGBOTTOM
350
BCD28CE5C6CA885
  3
UCSORGFRONT
350
BCD28CE5C6CA888
  3
UCSORGLEFT
350
BCD28CE5C6CA886
  3
UCSORGRIGHT
350
BCD28CE5C6CA887
  3
UCSORGTOP
350
BCD28CE5C6CA884
  3
UCSORTHOREF
350
BCD28CE5C6CA881
  3
UCSORTHOVIEW
350
BCD28CE5C6CA882
  3
VERSIONGUID
350
BCD28CE5C6CA876
  0
DICTIONARY
  5
BCD28CE5C6CA867
102
{ACAD_REACTORS
330
BCD28CE5C6CA839
102
}
330
BCD28CE5C6CA839
100
AcDbDictionary
  3
DIMASSOC
350
BCD28CE5C6CA868
  0
XRECORD
  5
BCD28CE5C6CA88D
102
{ACAD_REACTORS
330
BCD28CE5C6CA88C
102
}
330
BCD28CE5C6CA88C
100
AcDbXrecord
340
BCD28CE5C6CA845
  0
XRECORD
  5
BCD28CE5C6CA88B
102
{ACAD_REACTORS
330
BCD28CE5C6CA88A
102
}
330
BCD28CE5C6CA88A
100
AcDbXrecord
340
BCD28CE5C6CA842
  0
MLINESTYLE
  5
BCD28CE5C6CA848
102
{ACAD_REACTORS
330
BCD28CE5C6CA83B
102
}
330
BCD28CE5C6CA83B
100
AcDbMlineStyle
  2
STANDARD
 70
     0
  3

 62
     0
 51
90.0
 52
90.0
 71
     2
 49
0.5
 62
   256
  6
BYLAYER
 49
-0.5
 62
   256
  6
BYLAYER
  0
ACDBPLACEHOLDER
  5
BCD28CE5C6CA85E
102
{ACAD_REACTORS
330
BCD28CE5C6CA85D
102
}
330
BCD28CE5C6CA85D
100
AcDbPlaceHolder
280
     0
  0
XRECORD
  5
BCD28CE5C6CA874
102
{ACAD_REACTORS
330
BCD28CE5C6CA86A
102
}
330
BCD28CE5C6CA86A
100
AcDbXrecord
 90
        0
  0
XRECORD
  5
BCD28CE5C6CA875
102
{ACAD_REACTORS
330
BCD28CE5C6CA86A
102
}
330
BCD28CE5C6CA86A
100
AcDbXrecord
  1
{F3B07FC0-8DB5-11D6-88E6-0090279574E7}
  0
XRECORD
  5
BCD28CE5C6CA86D
102
{ACAD_REACTORS
330
BCD28CE5C6CA86A
102
}
330
BCD28CE5C6CA86A
100
AcDbXrecord
  1

  0
XRECORD
  5
BCD28CE5C6CA873
102
{ACAD_REACTORS
330
BCD28CE5C6CA86A
102
}
330
BCD28CE5C6CA86A
100
AcDbXrecord
 90
        0
  0
XRECORD
  5
BCD28CE5C6CA86F
102
{ACAD_REACTORS
330
BCD28CE5C6CA86A
102
}
330
BCD28CE5C6CA86A
100
AcDbXrecord
340
BCD28CE5C6CA85F
  0
XRECORD
  5
BCD28CE5C6CA872
102
{ACAD_REACTORS
330
BCD28CE5C6CA86A
102
}
330
BCD28CE5C6CA86A
100
AcDbXrecord
 90
    14877
  0
XRECORD
  5
BCD28CE5C6CA870
102
{ACAD_REACTORS
330
BCD28CE5C6CA86A
102
}
330
BCD28CE5C6CA86A
100
AcDbXrecord
340
BCD28CE5C6CA860
  0
XRECORD
  5
BCD28CE5C6CA871
102
{ACAD_REACTORS
330
BCD28CE5C6CA86A
102
}
330
BCD28CE5C6CA86A
100
AcDbXrecord
340
BCD28CE5C6CA85D
  0
XRECORD
  5
BCD28CE5C6CA877
102
{ACAD_REACTORS
330
BCD28CE5C6CA86A
102
}
330
BCD28CE5C6CA86A
100
AcDbXrecord
 40
0.0
  0
XRECORD
  5
BCD28CE5C6CA87A
102
{ACAD_REACTORS
330
BCD28CE5C6CA86A
102
}
330
BCD28CE5C6CA86A
100
AcDbXrecord
340
0
  0
XRECORD
  5
BCD28CE5C6CA880
102
{ACAD_REACTORS
330
BCD28CE5C6CA86A
102
}
330
BCD28CE5C6CA86A
100
AcDbXrecord
 10
0.0
 20
0.0
 30
0.0
  0
XRECORD
  5
BCD28CE5C6CA87C
102
{ACAD_REACTORS
330
BCD28CE5C6CA86A
102
}
330
BCD28CE5C6CA86A
100
AcDbXrecord
 10
0.0
 20
0.0
 30
0.0
  0
XRECORD
  5
BCD28CE5C6CA87F
102
{ACAD_REACTORS
330
BCD28CE5C6CA86A
102
}
330
BCD28CE5C6CA86A
100
AcDbXrecord
 10
0.0
 20
0.0
 30
0.0
  0
XRECORD
  5
BCD28CE5C6CA87D
102
{ACAD_REACTORS
330
BCD28CE5C6CA86A
102
}
330
BCD28CE5C6CA86A
100
AcDbXrecord
 10
0.0
 20
0.0
 30
0.0
  0
XRECORD
  5
BCD28CE5C6CA87E
102
{ACAD_REACTORS
330
BCD28CE5C6CA86A
102
}
330
BCD28CE5C6CA86A
100
AcDbXrecord
 10
0.0
 20
0.0
 30
0.0
  0
XRECORD
  5
BCD28CE5C6CA87B
102
{ACAD_REACTORS
330
BCD28CE5C6CA86A
102
}
330
BCD28CE5C6CA86A
100
AcDbXrecord
 10
0.0
 20
0.0
 30
0.0
  0
XRECORD
  5
BCD28CE5C6CA878
102
{ACAD_REACTORS
330
BCD28CE5C6CA86A
102
}
330
BCD28CE5C6CA86A
100
AcDbXrecord
340
0
  0
XRECORD
  5
BCD28CE5C6CA879
102
{ACAD_REACTORS
330
BCD28CE5C6CA86A
102
}
330
BCD28CE5C6CA86A
100
AcDbXrecord
 70
     0
  0
XRECORD
  5
BCD28CE5C6CA86E
102
{ACAD_REACTORS
330
BCD28CE5C6CA86A
102
}
330
BCD28CE5C6CA86A
100
AcDbXrecord
  1

  0
XRECORD
  5
BCD28CE5C6CA86B
102
{ACAD_REACTORS
330
BCD28CE5C6CA86A
102
}
330
BCD28CE5C6CA86A
100
AcDbXrecord
 90
        1
  0
XRECORD
  5
BCD28CE5C6CA86C
102
{ACAD_REACTORS
330
BCD28CE5C6CA86A
102
}
330
BCD28CE5C6CA86A
100
AcDbXrecord
 90
       70
  0
XRECORD
  5
BCD28CE5C6CA883
102
{ACAD_REACTORS
330
BCD28CE5C6CA86A
102
}
330
BCD28CE5C6CA86A
100
AcDbXrecord
340
0
  0
XRECORD
  5
BCD28CE5C6CA889
102
{ACAD_REACTORS
330
BCD28CE5C6CA86A
102
}
330
BCD28CE5C6CA86A
100
AcDbXrecord
 10
0.0
 20
0.0
 30
0.0
  0
XRECORD
  5
BCD28CE5C6CA885
102
{ACAD_REACTORS
330
BCD28CE5C6CA86A
102
}
330
BCD28CE5C6CA86A
100
AcDbXrecord
 10
0.0
 20
0.0
 30
0.0
  0
XRECORD
  5
BCD28CE5C6CA888
102
{ACAD_REACTORS
330
BCD28CE5C6CA86A
102
}
330
BCD28CE5C6CA86A
100
AcDbXrecord
 10
0.0
 20
0.0
 30
0.0
  0
XRECORD
  5
BCD28CE5C6CA886
102
{ACAD_REACTORS
330
BCD28CE5C6CA86A
102
}
330
BCD28CE5C6CA86A
100
AcDbXrecord
 10
0.0
 20
0.0
 30
0.0
  0
XRECORD
  5
BCD28CE5C6CA887
102
{ACAD_REACTORS
330
BCD28CE5C6CA86A
102
}
330
BCD28CE5C6CA86A
100
AcDbXrecord
 10
0.0
 20
0.0
 30
0.0
  0
XRECORD
  5
BCD28CE5C6CA884
102
{ACAD_REACTORS
330
BCD28CE5C6CA86A
102
}
330
BCD28CE5C6CA86A
100
AcDbXrecord
 10
0.0
 20
0.0
 30
0.0
  0
XRECORD
  5
BCD28CE5C6CA881
102
{ACAD_REACTORS
330
BCD28CE5C6CA86A
102
}
330
BCD28CE5C6CA86A
100
AcDbXrecord
340
0
  0
XRECORD
  5
BCD28CE5C6CA882
102
{ACAD_REACTORS
330
BCD28CE5C6CA86A
102
}
330
BCD28CE5C6CA86A
100
AcDbXrecord
 70
     0
  0
XRECORD
  5
BCD28CE5C6CA876
102
{ACAD_REACTORS
330
BCD28CE5C6CA86A
102
}
330
BCD28CE5C6CA86A
100
AcDbXrecord
  1
{F3B07FC2-8DB5-11D6-88E6-0090279574E7}
  0
DICTIONARYVAR
  5
BCD28CE5C6CA868
102
{ACAD_REACTORS
330
BCD28CE5C6CA867
102
}
330
BCD28CE5C6CA867
100
DictionaryVariables
280
     0
  1
1
  0
ENDSEC
  0
EOF
