  0
SECTION
  2
HEADER
  9
$ACADVER
  1
AC1014
  9
$ACADMAINTVER
 70
     9
  9
$DWGCODEPAGE
  3
ANSI_1252
  9
$INSBASE
 10
5.319012539490622
 20
2.380580420569281
 30
0.0
  9
$EXTMIN
 10
3.777081929162489
 20
0.7836053531774525
 30
0.0
  9
$EXTMAX
 10
7.262301250909624
 20
3.064567121696951
 30
0.0
  9
$LIMMIN
 10
0.0
 20
0.0
  9
$LIMMAX
 10
18.0
 20
12.0
  9
$ORTHOMODE
 70
     1
  9
$REGENMODE
 70
     1
  9
$FILLMODE
 70
     1
  9
$QTEXTMODE
 70
     0
  9
$MIRRTEXT
 70
     0
  9
$DRAGMODE
 70
     2
  9
$LTSCALE
 40
1.0
  9
$OSMODE
 70
    39
  9
$ATTMODE
 70
     1
  9
$TEXTSIZE
 40
0.125
  9
$TRACEWID
 40
0.05
  9
$TEXTSTYLE
  7
ROMANS
  9
$CLAYER
  8
0
  9
$CELTYPE
  6
BYLAYER
  9
$CECOLOR
 62
   256
  9
$CELTSCALE
 40
1.0
  9
$DELOBJ
 70
     1
  9
$DISPSILH
 70
     1
  9
$DIMSCALE
 40
1.0
  9
$DIMASZ
 40
0.125
  9
$DIMEXO
 40
0.125
  9
$DIMDLI
 40
0.375
  9
$DIMRND
 40
0.0
  9
$DIMDLE
 40
0.0
  9
$DIMEXE
 40
0.125
  9
$DIMTP
 40
0.0
  9
$DIMTM
 40
0.0
  9
$DIMTXT
 40
0.125
  9
$DIMCEN
 40
-0.125
  9
$DIMTSZ
 40
0.0
  9
$DIMTOL
 70
     0
  9
$DIMLIM
 70
     0
  9
$DIMTIH
 70
     1
  9
$DIMTOH
 70
     1
  9
$DIMSE1
 70
     0
  9
$DIMSE2
 70
     0
  9
$DIMTAD
 70
     0
  9
$DIMZIN
 70
     4
  9
$DIMBLK
  1

  9
$DIMASO
 70
     1
  9
$DIMSHO
 70
     1
  9
$DIMPOST
  1

  9
$DIMAPOST
  1

  9
$DIMALT
 70
     0
  9
$DIMALTD
 70
     2
  9
$DIMALTF
 40
25.4
  9
$DIMLFAC
 40
1.0
  9
$DIMTOFL
 70
     0
  9
$DIMTVP
 40
0.0
  9
$DIMTIX
 70
     1
  9
$DIMSOXD
 70
     0
  9
$DIMSAH
 70
     0
  9
$DIMBLK1
  1

  9
$DIMBLK2
  1

  9
$DIMSTYLE
  2
STANDARD
  9
$DIMCLRD
 70
     0
  9
$DIMCLRE
 70
     0
  9
$DIMCLRT
 70
     0
  9
$DIMTFAC
 40
1.0
  9
$DIMGAP
 40
0.09
  9
$DIMJUST
 70
     0
  9
$DIMSD1
 70
     0
  9
$DIMSD2
 70
     0
  9
$DIMTOLJ
 70
     1
  9
$DIMTZIN
 70
     4
  9
$DIMALTZ
 70
     0
  9
$DIMALTTZ
 70
     0
  9
$DIMFIT
 70
     3
  9
$DIMUPT
 70
     0
  9
$DIMUNIT
 70
     2
  9
$DIMDEC
 70
     3
  9
$DIMTDEC
 70
     3
  9
$DIMALTU
 70
     2
  9
$DIMALTTD
 70
     2
  9
$DIMTXSTY
  7
ROMANS
  9
$DIMAUNIT
 70
     0
  9
$LUNITS
 70
     2
  9
$LUPREC
 70
     3
  9
$SKETCHINC
 40
0.1
  9
$FILLETRAD
 40
0.03125
  9
$AUNITS
 70
     0
  9
$AUPREC
 70
     0
  9
$MENU
  1
ACAD
  9
$ELEVATION
 40
0.0
  9
$PELEVATION
 40
0.0
  9
$THICKNESS
 40
0.0
  9
$LIMCHECK
 70
     0
  9
$BLIPMODE
 70
     0
  9
$CHAMFERA
 40
0.0
  9
$CHAMFERB
 40
0.0
  9
$CHAMFERC
 40
0.0
  9
$CHAMFERD
 40
0.0
  9
$SKPOLY
 70
     0
  9
$TDCREATE
 40
2448994.544720949
  9
$TDUPDATE
 40
2452458.305037905
  9
$TDINDWG
 40
0.0011535648
  9
$TDUSRTIMER
 40
0.0011535648
  9
$USRTIMER
 70
     1
  9
$ANGBASE
 50
0.0
  9
$ANGDIR
 70
     0
  9
$PDMODE
 70
     0
  9
$PDSIZE
 40
0.0
  9
$PLINEWID
 40
0.0
  9
$COORDS
 70
     2
  9
$SPLFRAME
 70
     0
  9
$SPLINETYPE
 70
     6
  9
$SPLINESEGS
 70
     8
  9
$ATTDIA
 70
     0
  9
$ATTREQ
 70
     1
  9
$HANDLING
 70
 22529
  9
$HANDSEED
  5
BCD28CE5C6CA54E
  9
$SURFTAB1
 70
     6
  9
$SURFTAB2
 70
     6
  9
$SURFTYPE
 70
     6
  9
$SURFU
 70
     6
  9
$SURFV
 70
     6
  9
$UCSNAME
  2

  9
$UCSORG
 10
0.0
 20
0.0
 30
0.0
  9
$UCSXDIR
 10
1.0
 20
0.0
 30
0.0
  9
$UCSYDIR
 10
0.0
 20
1.0
 30
0.0
  9
$PUCSNAME
  2

  9
$PUCSORG
 10
0.0
 20
0.0
 30
0.0
  9
$PUCSXDIR
 10
1.0
 20
0.0
 30
0.0
  9
$PUCSYDIR
 10
0.0
 20
1.0
 30
0.0
  9
$USERI1
 70
     0
  9
$USERI2
 70
     0
  9
$USERI3
 70
     0
  9
$USERI4
 70
     0
  9
$USERI5
 70
     0
  9
$USERR1
 40
0.0
  9
$USERR2
 40
0.0
  9
$USERR3
 40
0.0
  9
$USERR4
 40
0.0
  9
$USERR5
 40
0.0
  9
$WORLDVIEW
 70
     1
  9
$SHADEDGE
 70
     3
  9
$SHADEDIF
 70
    70
  9
$TILEMODE
 70
     1
  9
$MAXACTVP
 70
    16
  9
$PINSBASE
 10
3.631199272624869
 20
6.0
 30
3.173647531763273
  9
$PLIMCHECK
 70
     0
  9
$PEXTMIN
 10
1.000000000000000E+20
 20
1.000000000000000E+20
 30
1.000000000000000E+20
  9
$PEXTMAX
 10
-1.000000000000000E+20
 20
-1.000000000000000E+20
 30
-1.000000000000000E+20
  9
$PLIMMIN
 10
0.0
 20
0.0
  9
$PLIMMAX
 10
12.0
 20
9.0
  9
$UNITMODE
 70
     0
  9
$VISRETAIN
 70
     0
  9
$PLINEGEN
 70
     1
  9
$PSLTSCALE
 70
     0
  9
$TREEDEPTH
 70
  3020
  9
$PICKSTYLE
 70
     1
  9
$CMLSTYLE
  2
STANDARD
  9
$CMLJUST
 70
     0
  9
$CMLSCALE
 40
1.0
  9
$PROXYGRAPHICS
 70
     1
  9
$MEASUREMENT
 70
     0
  0
ENDSEC
  0
SECTION
  2
CLASSES
  0
CLASS
  1
LWPOLYLINE
  2
AcDbPolyline
  3
AutoCAD 2000
 90
        0
280
     0
281
     1
  0
CLASS
  1
ACDBDICTIONARYWDFLT
  2
AcDbDictionaryWithDefault
  3
AutoCAD 2000
 90
        0
280
     0
281
     0
  0
CLASS
  1
ACDBPLACEHOLDER
  2
AcDbPlaceHolder
  3
AutoCAD 2000
 90
        0
280
     0
281
     0
  0
CLASS
  1
LAYOUT
  2
AcDbLayout
  3
AutoCAD 2000
 90
        0
280
     0
281
     0
  0
CLASS
  1
DICTIONARYVAR
  2
AcDbDictionaryVar
  3
AutoCAD 2000
 90
        0
280
     0
281
     0
  0
CLASS
  1
LONG_TRANSACTION
  2
AcDbLongTransaction
  3
AutoCAD 2000
 90
        0
280
     0
281
     0
  0
CLASS
  1
LWPOLYLINE
  2
AcDbPolyline
  3
AutoCAD 2000
 90
        0
280
     0
281
     1
  0
CLASS
  1
HATCH
  2
AcDbHatch
  3
AutoCAD 2000
 90
        0
280
     0
281
     1
  0
CLASS
  1
XRECORD
  2
AcDbXrecord
  3
AutoCAD 2000
 90
        0
280
     0
281
     0
  0
ENDSEC
  0
SECTION
  2
TABLES
  0
TABLE
  2
VPORT
  5
BCD28CE5C6CA4DA
330
0
100
AcDbSymbolTable
 70
     2
  0
VPORT
  5
BCD28CE5C6CA529
330
BCD28CE5C6CA4DA
100
AcDbSymbolTableRecord
100
AcDbViewportTableRecord
  2
*ACTIVE
 70
     0
 10
0.0
 20
0.0
 11
1.0
 21
1.0
 12
8.87779104128732
 22
1.924072288819672
 13
0.0
 23
0.0
 14
0.015625
 24
0.015625
 15
0.0
 25
0.0
 16
0.0
 26
0.0
 36
1.0
 17
0.0
 27
0.0
 37
0.0
 40
2.575661821563412
 41
4.320930232558139
 42
50.0
 43
0.0
 44
0.0
 50
0.0
 51
0.0
 71
     0
 72
  2000
 73
     1
 74
     0
 75
     0
 76
     0
 77
     0
 78
     0
  0
ENDTAB
  0
TABLE
  2
LTYPE
  5
BCD28CE5C6CA4D7
330
0
100
AcDbSymbolTable
 70
     1
  0
LTYPE
  5
BCD28CE5C6CA4E4
330
BCD28CE5C6CA4D7
100
AcDbSymbolTableRecord
100
AcDbLinetypeTableRecord
  2
BYBLOCK
 70
     0
  3

 72
    65
 73
     0
 40
0.0
  0
LTYPE
  5
BCD28CE5C6CA4E5
330
BCD28CE5C6CA4D7
100
AcDbSymbolTableRecord
100
AcDbLinetypeTableRecord
  2
BYLAYER
 70
     0
  3

 72
    65
 73
     0
 40
0.0
  0
LTYPE
  5
BCD28CE5C6CA4E6
330
BCD28CE5C6CA4D7
100
AcDbSymbolTableRecord
100
AcDbLinetypeTableRecord
  2
CONTINUOUS
 70
     0
  3
Solid line
 72
    65
 73
     0
 40
0.0
  0
ENDTAB
  0
TABLE
  2
LAYER
  5
BCD28CE5C6CA4D4
330
0
100
AcDbSymbolTable
 70
     3
  0
LAYER
  5
BCD28CE5C6CA4E1
330
BCD28CE5C6CA4D4
100
AcDbSymbolTableRecord
100
AcDbLayerTableRecord
  2
0
 70
     0
 62
     7
  6
CONTINUOUS
  0
LAYER
  5
BCD28CE5C6CA4F1
330
BCD28CE5C6CA4D4
100
AcDbSymbolTableRecord
100
AcDbLayerTableRecord
  2
TEXT
 70
     0
 62
     3
  6
CONTINUOUS
  0
LAYER
  5
BCD28CE5C6CA501
330
BCD28CE5C6CA4D4
100
AcDbSymbolTableRecord
100
AcDbLayerTableRecord
  2
ASHADE
 70
     4
 62
     7
  6
CONTINUOUS
  0
ENDTAB
  0
TABLE
  2
STYLE
  5
BCD28CE5C6CA4D5
330
0
100
AcDbSymbolTable
 70
     4
  0
STYLE
  5
BCD28CE5C6CA4E2
330
BCD28CE5C6CA4D5
100
AcDbSymbolTableRecord
100
AcDbTextStyleTableRecord
  2
STANDARD
 70
     0
 40
0.0
 41
1.0
 50
0.0
 71
     0
 42
0.3125
  3
txt
  4

  0
STYLE
  5
BCD28CE5C6CA4EE
330
BCD28CE5C6CA4D5
100
AcDbSymbolTableRecord
100
AcDbTextStyleTableRecord
  2
ITALICC
 70
     0
 40
0.0
 41
1.0
 50
0.0
 71
     0
 42
0.125
  3
italicc
  4

  0
STYLE
  5
BCD28CE5C6CA4FE
330
BCD28CE5C6CA4D5
100
AcDbSymbolTableRecord
100
AcDbTextStyleTableRecord
  2
ASHADE
 70
     0
 40
0.2
 41
1.0
 50
0.0
 71
     0
 42
0.3125
  3
simplex
  4

  0
STYLE
  5
BCD28CE5C6CA519
330
BCD28CE5C6CA4D5
100
AcDbSymbolTableRecord
100
AcDbTextStyleTableRecord
  2
ROMANS
 70
     0
 40
0.0
 41
1.0
 50
0.0
 71
     0
 42
0.125
  3
romans.shx
  4

  0
ENDTAB
  0
TABLE
  2
VIEW
  5
BCD28CE5C6CA4D8
330
0
100
AcDbSymbolTable
 70
     0
  0
ENDTAB
  0
TABLE
  2
UCS
  5
BCD28CE5C6CA4D9
330
0
100
AcDbSymbolTable
 70
     0
  0
ENDTAB
  0
TABLE
  2
APPID
  5
BCD28CE5C6CA4DB
330
0
100
AcDbSymbolTable
 70
     6
  0
APPID
  5
BCD28CE5C6CA4E3
330
BCD28CE5C6CA4DB
100
AcDbSymbolTableRecord
100
AcDbRegAppTableRecord
  2
ACAD
 70
     0
  0
APPID
  5
BCD28CE5C6CA4FF
330
BCD28CE5C6CA4DB
100
AcDbSymbolTableRecord
100
AcDbRegAppTableRecord
  2
AVE_RENDER
 70
     0
  0
APPID
  5
BCD28CE5C6CA500
330
BCD28CE5C6CA4DB
100
AcDbSymbolTableRecord
100
AcDbRegAppTableRecord
  2
AVE_ENTITY_MATERIAL
 70
     0
  0
APPID
  5
BCD28CE5C6CA50D
330
BCD28CE5C6CA4DB
100
AcDbSymbolTableRecord
100
AcDbRegAppTableRecord
  2
AVE_FINISH
 70
     0
  0
APPID
  5
BCD28CE5C6CA50E
330
BCD28CE5C6CA4DB
100
AcDbSymbolTableRecord
100
AcDbRegAppTableRecord
  2
AVE_MATERIAL
 70
     0
  0
APPID
  5
BCD28CE5C6CA50F
330
BCD28CE5C6CA4DB
100
AcDbSymbolTableRecord
100
AcDbRegAppTableRecord
  2
AVE_GLOBAL
 70
     0
  0
ENDTAB
  0
TABLE
  2
DIMSTYLE
  5
BCD28CE5C6CA4DC
330
0
100
AcDbSymbolTable
 70
     1
  0
DIMSTYLE
105
BCD28CE5C6CA4F6
330
BCD28CE5C6CA4DC
100
AcDbSymbolTableRecord
100
AcDbDimStyleTableRecord
  2
STANDARD
 70
     0
  3

  4

  5

  6

  7

 40
1.0
 41
0.125
 42
0.125
 43
0.375
 44
0.125
 45
0.0
 46
0.0
 47
0.0
 48
0.0
140
0.125
141
-0.125
142
0.0
143
25.4
144
1.0
145
0.0
146
1.0
147
0.09
 71
     0
 72
     0
 73
     1
 74
     1
 75
     0
 76
     0
 77
     0
 78
     4
170
     0
171
     2
172
     0
173
     0
174
     1
175
     0
176
     0
177
     0
178
     0
270
     2
271
     3
272
     3
273
     2
274
     2
340
BCD28CE5C6CA519
275
     0
280
     0
281
     0
282
     0
283
     1
284
     4
285
     0
286
     0
287
     3
288
     0
  0
ENDTAB
  0
TABLE
  2
BLOCK_RECORD
  5
BCD28CE5C6CA4D3
330
0
100
AcDbSymbolTable
 70
     2
  0
BLOCK_RECORD
  5
BCD28CE5C6CA4EA
102
{ACAD_XDICTIONARY
360
BCD28CE5C6CA54C
102
}
330
BCD28CE5C6CA4D3
100
AcDbSymbolTableRecord
100
AcDbBlockTableRecord
  2
*MODEL_SPACE
  0
BLOCK_RECORD
  5
BCD28CE5C6CA4E7
102
{ACAD_XDICTIONARY
360
BCD28CE5C6CA54A
102
}
330
BCD28CE5C6CA4D3
100
AcDbSymbolTableRecord
100
AcDbBlockTableRecord
  2
*PAPER_SPACE
  0
BLOCK_RECORD
  5
BCD28CE5C6CA502
330
BCD28CE5C6CA4D3
100
AcDbSymbolTableRecord
100
AcDbBlockTableRecord
  2
AVE_RENDER
  0
BLOCK_RECORD
  5
BCD28CE5C6CA510
330
BCD28CE5C6CA4D3
100
AcDbSymbolTableRecord
100
AcDbBlockTableRecord
  2
AVE_GLOBAL
  0
ENDTAB
  0
ENDSEC
  0
SECTION
  2
BLOCKS
  0
BLOCK
  5
BCD28CE5C6CA4F4
330
BCD28CE5C6CA4EA
100
AcDbEntity
  8
0
100
AcDbBlockBegin
  2
*MODEL_SPACE
 70
     0
 10
0.0
 20
0.0
 30
0.0
  3
*MODEL_SPACE
  1

  0
ENDBLK
  5
BCD28CE5C6CA4F5
330
BCD28CE5C6CA4EA
100
AcDbEntity
  8
0
100
AcDbBlockEnd
  0
BLOCK
  5
BCD28CE5C6CA4F2
330
BCD28CE5C6CA4E7
100
AcDbEntity
 67
     1
  8
0
100
AcDbBlockBegin
  2
*PAPER_SPACE
 70
     0
 10
0.0
 20
0.0
 30
0.0
  3
*PAPER_SPACE
  1

  0
ENDBLK
  5
BCD28CE5C6CA4F3
330
BCD28CE5C6CA4E7
100
AcDbEntity
 67
     1
  8
0
100
AcDbBlockEnd
  0
BLOCK
  5
BCD28CE5C6CA503
330
BCD28CE5C6CA502
100
AcDbEntity
  8
0
100
AcDbBlockBegin
  2
AVE_RENDER
 70
     0
 10
0.0
 20
0.0
 30
0.0
  3
AVE_RENDER
  1
AVE_RENDER
  0
ENDBLK
  5
BCD28CE5C6CA504
330
BCD28CE5C6CA502
100
AcDbEntity
  8
0
100
AcDbBlockEnd
  0
BLOCK
  5
BCD28CE5C6CA511
330
BCD28CE5C6CA510
100
AcDbEntity
  8
0
100
AcDbBlockBegin
  2
AVE_GLOBAL
 70
     0
 10
0.0
 20
0.0
 30
0.0
  3
AVE_GLOBAL
  1
AVE_GLOBAL
  0
ENDBLK
  5
BCD28CE5C6CA512
330
BCD28CE5C6CA510
100
AcDbEntity
  8
0
100
AcDbBlockEnd
  0
ENDSEC
  0
SECTION
  2
ENTITIES
  0
LWPOLYLINE
  5
BCD28CE5C6C90A9
330
BCD28CE5C6CA4EA
100
AcDbEntity
  8
0
100
AcDbPolyline
 90
       17
 70
     1
 43
0.0
 10
4.832563508389632
 20
2.995498948709014
 10
4.832563508389631
 20
2.861981198878245
 42
0.2679491924311205
 10
4.848063508389631
 20
2.835134411360928
 10
4.895063508389632
 20
2.807998948709014
 10
4.895063508389632
 20
2.995498948709014
 10
6.206536893776721
 20
2.995498948709014
 42
-0.376479378756412
 10
4.895063508389632
 20
1.625610371218449
 10
4.895063508389632
 20
1.807998948709014
 10
4.848063508389632
 20
1.780863486057102
 42
0.2679491924311219
 10
4.832563508389633
 20
1.754016698539784
 10
4.832563508389633
 20
1.621525563321925
 42
-0.0055521879545577
 10
4.800648765218051
 20
1.620491877773298
 42
1.0
 10
4.801978251561212
 20
1.558006019644731
 42
0.4018060990082315
 10
6.270056437453915
 20
3.026084205537435
 42
0.4204582082826882
 10
6.238813508389633
 20
3.057998948709014
 10
4.801313508389632
 20
3.057998948709014
 42
1.0
 10
4.801313508389632
 20
2.995498948709014
  0
TEXT
  5
BCD28CE5C6CA395
330
BCD28CE5C6CA4EA
100
AcDbEntity
  8
TEXT
100
AcDbText
 10
4.767087317913443
 20
1.241623957260033
 30
0.0
 40
0.125
  1
PART #110290
  7
ITALICC
 72
     1
 11
5.520063508389633
 21
1.241623957260033
 31
0.0
100
AcDbText
  0
TEXT
  5
BCD28CE5C6CA396
330
BCD28CE5C6CA4EA
100
AcDbEntity
  8
TEXT
100
AcDbText
 10
5.933368666639953
 20
0.7947013145876588
 30
0.0
 40
0.0522247191011236
  1
Phone  1-800-328-2495
 41
1.272321428571429
 72
     5
 11
7.262301250909617
 21
0.7947013145876588
 31
0.0
100
AcDbText
  0
TEXT
  5
BCD28CE5C6CA397
330
BCD28CE5C6CA4EA
100
AcDbEntity
  8
TEXT
100
AcDbText
 10
5.933368666639953
 20
1.074476595486535
 30
0.0
 40
0.0522247191011236
  1
Stylmark  Incorporated
 41
1.221428571428573
 72
     5
 11
7.262301250909617
 21
1.074476595486535
 31
0.0
100
AcDbText
  0
TEXT
  5
BCD28CE5C6CA398
330
BCD28CE5C6CA4EA
100
AcDbEntity
  8
TEXT
100
AcDbText
 10
5.933368666639953
 20
0.981218168520243
 30
0.0
 40
0.0522247191011236
  1
6536 Main St. N.E. * P.O. Box 32008
 41
0.8388932496075366
 72
     5
 11
7.262301250909617
 21
0.981218168520243
 31
0.0
100
AcDbText
  0
TEXT
  5
BCD28CE5C6CA399
330
BCD28CE5C6CA4EA
100
AcDbEntity
  8
TEXT
100
AcDbText
 10
5.933368666639953
 20
0.8879597415539508
 30
0.0
 40
0.0522247191011236
  1
Minneapolis, MN 55432-0008
 41
1.11444212721585
 72
     5
 11
7.262301250909617
 21
0.8879597415539508
 31
0.0
100
AcDbText
  0
LWPOLYLINE
  5
BCD28CE5C6CA39A
330
BCD28CE5C6CA4EA
100
AcDbEntity
  8
TEXT
100
AcDbPolyline
 90
        3
 70
     0
 43
0.0006660908203125
 10
3.777414974572645
 20
0.9083460772250935
 10
3.777414974572645
 20
0.795110637771966
 10
3.890650414025768
 20
0.795110637771966
  0
LWPOLYLINE
  5
BCD28CE5C6CA39F
330
BCD28CE5C6CA4EA
100
AcDbEntity
  8
TEXT
100
AcDbPolyline
 90
        3
 70
     0
 43
0.0006660908203125
 10
3.804058607385143
 20
0.9083460772250935
 10
3.804058607385143
 20
0.8217542705844669
 10
3.890650414025768
 20
0.8217542705844669
  0
LWPOLYLINE
  5
BCD28CE5C6CA3A4
330
BCD28CE5C6CA4EA
100
AcDbEntity
  8
TEXT
100
AcDbPolyline
 90
        2
 70
     0
 43
0.0001332181640625
 10
3.85068496480702
 20
0.9183374395297787
 10
3.777414974572645
 20
0.9083460772250935
  0
LWPOLYLINE
  5
BCD28CE5C6CA3A8
330
BCD28CE5C6CA4EA
100
AcDbEntity
  8
TEXT
100
AcDbPolyline
 90
        2
 70
     0
 43
0.0001332181640625
 10
3.804058607385143
 20
0.9083460772250935
 10
3.86400678121327
 20
0.9183374395297787
  0
LWPOLYLINE
  5
BCD28CE5C6CA3AC
330
BCD28CE5C6CA4EA
100
AcDbEntity
  8
TEXT
100
AcDbPolyline
 90
        2
 70
     0
 43
0.0001332181640625
 10
3.804058607385143
 20
0.8217542705844669
 10
3.86400678121327
 20
0.8817024444125925
  0
LWPOLYLINE
  5
BCD28CE5C6CA3B0
330
BCD28CE5C6CA4EA
100
AcDbEntity
  8
TEXT
100
AcDbPolyline
 90
        3
 70
     0
 43
0.0006660908203125
 10
3.890650414025768
 20
1.061546965896969
 10
3.777414974572645
 20
1.061546965896969
 10
3.777414974572645
 20
0.9483115264438415
  0
LWPOLYLINE
  5
BCD28CE5C6CA3B5
330
BCD28CE5C6CA4EA
100
AcDbEntity
  8
TEXT
100
AcDbPolyline
 90
        3
 70
     0
 43
0.0006660908203125
 10
3.890650414025768
 20
1.034903333084468
 10
3.804058607385143
 20
1.034903333084468
 10
3.804058607385143
 20
0.9483115264438415
  0
LWPOLYLINE
  5
BCD28CE5C6CA3BA
330
BCD28CE5C6CA4EA
100
AcDbEntity
  8
TEXT
100
AcDbPolyline
 90
        2
 70
     0
 43
0.0001332181640625
 10
3.804058607385143
 20
1.034903333084468
 10
3.864006781213269
 20
0.9749551592563426
  0
LWPOLYLINE
  5
BCD28CE5C6CA3BE
330
BCD28CE5C6CA4EA
100
AcDbEntity
  8
TEXT
100
AcDbPolyline
 90
        2
 70
     0
 43
0.0001332181640625
 10
3.804058607385143
 20
0.9483115264438415
 10
3.864006781213269
 20
0.9383201641391528
  0
LWPOLYLINE
  5
BCD28CE5C6CA3C2
330
BCD28CE5C6CA4EA
100
AcDbEntity
  8
TEXT
100
AcDbPolyline
 90
        2
 70
     0
 43
0.0001332181640625
 10
3.777414974572645
 20
0.9483115264438415
 10
3.85068496480702
 20
0.9383201641391528
  0
LWPOLYLINE
  5
BCD28CE5C6CA3C6
330
BCD28CE5C6CA4EA
100
AcDbEntity
  8
TEXT
100
AcDbPolyline
 90
        2
 70
     0
 43
0.0006660908203125
 10
3.804058607385143
 20
0.9083460772250935
 10
3.777414974572645
 20
0.9083460772250935
  0
LWPOLYLINE
  5
BCD28CE5C6CA3CA
330
BCD28CE5C6CA4EA
100
AcDbEntity
  8
TEXT
100
AcDbPolyline
 90
        2
 70
     0
 43
0.0006660908203125
 10
3.804058607385143
 20
0.9483115264438415
 10
3.777414974572645
 20
0.9483115264438415
  0
LINE
  5
BCD28CE5C6CA3CE
330
BCD28CE5C6CA4EA
100
AcDbEntity
  8
TEXT
100
AcDbLine
 10
5.292605403699143
 20
0.9972702712402002
 30
0.0
 11
5.185399130311854
 21
0.9972702712402002
 31
0.0
  0
LINE
  5
BCD28CE5C6CA3CF
330
BCD28CE5C6CA4EA
100
AcDbEntity
  8
TEXT
100
AcDbLine
 10
5.321636302043621
 20
1.061546965896965
 30
0.0
 11
5.186804392826562
 21
1.061546965896965
 31
0.0
  0
ARC
  5
BCD28CE5C6CA3D0
330
BCD28CE5C6CA4EA
100
AcDbEntity
  8
TEXT
100
AcDbCircle
 10
5.246118489219879
 20
0.8923097166339493
 30
0.0
 40
0.0676855811441166
100
AcDbArc
 50
90.0
 51
153.7768192527749
  0
LWPOLYLINE
  5
BCD28CE5C6CA3D1
330
BCD28CE5C6CA4EA
100
AcDbEntity
  8
TEXT
100
AcDbPolyline
 90
        2
 70
     0
 43
0.0
 10
5.184366634857044
 20
0.8385648778588928
 42
0.2901071551932823
 10
5.227442567724679
 20
0.7950739329084547
 42
5.328517124445801
  0
ARC
  5
BCD28CE5C6CA3D5
330
BCD28CE5C6CA4EA
100
AcDbEntity
  8
TEXT
100
AcDbCircle
 10
4.540987111548393
 20
0.8548663242465044
 30
0.0
 40
0.0601160179737537
100
AcDbArc
 50
180.0000000000003
 51
264.0521544866073
  0
LINE
  5
BCD28CE5C6CA3D6
330
BCD28CE5C6CA4EA
100
AcDbEntity
  8
TEXT
100
AcDbLine
 10
4.544502467173941
 20
1.095934883491103
 30
0.0
 11
4.484459862329934
 21
1.095934883491103
 31
0.0
  0
ARC
  5
BCD28CE5C6CA3D7
330
BCD28CE5C6CA4EA
100
AcDbEntity
  8
TEXT
100
AcDbCircle
 10
4.308728109431423
 20
0.9794595064504639
 30
0.0
 40
0.0820874594465043
100
AcDbArc
 50
90.0
 51
270.0
  0
LWPOLYLINE
  5
BCD28CE5C6CA3D8
330
BCD28CE5C6CA4EA
100
AcDbEntity
  8
TEXT
100
AcDbPolyline
 90
        2
 70
     0
 43
0.0001332181640625
 10
3.900641776330458
 20
0.9882769756625895
 10
3.890650414025768
 20
1.061546965896969
  0
LWPOLYLINE
  5
BCD28CE5C6CA3DC
330
BCD28CE5C6CA4EA
100
AcDbEntity
  8
TEXT
100
AcDbPolyline
 90
        2
 70
     0
 43
0.0001332181640625
 10
3.890650414025768
 20
1.034903333084468
 10
3.900641776330458
 20
0.9749551592563426
  0
LWPOLYLINE
  5
BCD28CE5C6CA3E0
330
BCD28CE5C6CA4EA
100
AcDbEntity
  8
TEXT
100
AcDbPolyline
 90
        3
 70
     0
 43
0.0006660908203125
 10
4.043851302697645
 20
0.9483115264438415
 10
4.043851302697645
 20
1.061546965896969
 10
3.930615863244519
 20
1.061546965896969
  0
LWPOLYLINE
  5
BCD28CE5C6CA3E5
330
BCD28CE5C6CA4EA
100
AcDbEntity
  8
TEXT
100
AcDbPolyline
 90
        3
 70
     0
 43
0.0006660908203125
 10
4.017207669885144
 20
0.9483115264438415
 10
4.017207669885144
 20
1.034903333084468
 10
3.930615863244519
 20
1.034903333084468
  0
LWPOLYLINE
  5
BCD28CE5C6CA3EA
330
BCD28CE5C6CA4EA
100
AcDbEntity
  8
TEXT
100
AcDbPolyline
 90
        2
 70
     0
 43
0.0001332181640625
 10
4.017207669885144
 20
1.034903333084468
 10
3.95725949605702
 20
0.9749551592563426
  0
LWPOLYLINE
  5
BCD28CE5C6CA3EE
330
BCD28CE5C6CA4EA
100
AcDbEntity
  8
TEXT
100
AcDbPolyline
 90
        2
 70
     0
 43
0.0001332181640625
 10
3.930615863244519
 20
1.034903333084468
 10
3.920624500939831
 20
0.9749551592563426
  0
LWPOLYLINE
  5
BCD28CE5C6CA3F2
330
BCD28CE5C6CA4EA
100
AcDbEntity
  8
TEXT
100
AcDbPolyline
 90
        2
 70
     0
 43
0.0001332181640625
 10
3.930615863244519
 20
1.061546965896969
 10
3.920624500939831
 20
0.9882769756625895
  0
LWPOLYLINE
  5
BCD28CE5C6CA3F6
330
BCD28CE5C6CA4EA
100
AcDbEntity
  8
TEXT
100
AcDbPolyline
 90
        2
 70
     0
 43
0.0001332181640625
 10
3.970581312463269
 20
0.9383201641391528
 10
4.043851302697645
 20
0.9483115264438415
  0
LWPOLYLINE
  5
BCD28CE5C6CA3FA
330
BCD28CE5C6CA4EA
100
AcDbEntity
  8
TEXT
100
AcDbPolyline
 90
        2
 70
     0
 43
0.0001332181640625
 10
4.017207669885144
 20
0.9483115264438415
 10
3.95725949605702
 20
0.9383201641391528
  0
LWPOLYLINE
  5
BCD28CE5C6CA3FE
330
BCD28CE5C6CA4EA
100
AcDbEntity
  8
TEXT
100
AcDbPolyline
 90
        2
 70
     0
 43
0.0001332181640625
 10
4.043851302697645
 20
0.9083460772250935
 10
3.970581312463269
 20
0.9183374395297787
  0
LWPOLYLINE
  5
BCD28CE5C6CA402
330
BCD28CE5C6CA4EA
100
AcDbEntity
  8
TEXT
100
AcDbPolyline
 90
        2
 70
     0
 43
0.0001332181640625
 10
4.017207669885144
 20
0.9083460772250935
 10
3.95725949605702
 20
0.9183374395297787
  0
LWPOLYLINE
  5
BCD28CE5C6CA406
330
BCD28CE5C6CA4EA
100
AcDbEntity
  8
TEXT
100
AcDbPolyline
 90
        2
 70
     0
 43
0.0001332181640625
 10
4.017207669885144
 20
0.8217542705844669
 10
3.95725949605702
 20
0.8817024444125925
  0
LWPOLYLINE
  5
BCD28CE5C6CA40A
330
BCD28CE5C6CA4EA
100
AcDbEntity
  8
TEXT
100
AcDbPolyline
 90
        3
 70
     0
 43
0.0006660908203125
 10
3.930615863244519
 20
0.8217542705844669
 10
4.017207669885144
 20
0.8217542705844669
 10
4.017207669885144
 20
0.9083460772250935
  0
LWPOLYLINE
  5
BCD28CE5C6CA40F
330
BCD28CE5C6CA4EA
100
AcDbEntity
  8
TEXT
100
AcDbPolyline
 90
        3
 70
     0
 43
0.0006660908203125
 10
3.930615863244519
 20
0.795110637771966
 10
4.043851302697645
 20
0.795110637771966
 10
4.043851302697645
 20
0.9083460772250935
  0
LWPOLYLINE
  5
BCD28CE5C6CA414
330
BCD28CE5C6CA4EA
100
AcDbEntity
  8
TEXT
100
AcDbPolyline
 90
        5
 70
     0
 43
0.0001332181640625
 10
3.900641776330458
 20
0.868380628006342
 10
3.900641776330458
 20
0.8817024444125925
 10
3.86400678121327
 20
0.8817024444125925
 10
3.86400678121327
 20
0.9183374395297787
 10
3.85068496480702
 20
0.9183374395297787
  0
LWPOLYLINE
  5
BCD28CE5C6CA41B
330
BCD28CE5C6CA4EA
100
AcDbEntity
  8
TEXT
100
AcDbPolyline
 90
        2
 70
     0
 43
0.0006660908203125
 10
3.890650414025768
 20
0.8217542705844669
 10
3.890650414025768
 20
0.795110637771966
  0
LWPOLYLINE
  5
BCD28CE5C6CA41F
330
BCD28CE5C6CA4EA
100
AcDbEntity
  8
TEXT
100
AcDbPolyline
 90
        2
 70
     0
 43
0.0001332181640625
 10
3.890650414025768
 20
0.8217542705844669
 10
3.900641776330458
 20
0.8817024444125925
  0
LWPOLYLINE
  5
BCD28CE5C6CA423
330
BCD28CE5C6CA4EA
100
AcDbEntity
  8
TEXT
100
AcDbPolyline
 90
        2
 70
     0
 43
0.0001332181640625
 10
3.890650414025768
 20
0.795110637771966
 10
3.900641776330458
 20
0.868380628006342
  0
LWPOLYLINE
  5
BCD28CE5C6CA427
330
BCD28CE5C6CA4EA
100
AcDbEntity
  8
TEXT
100
AcDbPolyline
 90
        5
 70
     0
 43
0.0001332181640625
 10
3.85068496480702
 20
0.9383201641391528
 10
3.864006781213269
 20
0.9383201641391528
 10
3.864006781213269
 20
0.9749551592563426
 10
3.900641776330458
 20
0.9749551592563426
 10
3.900641776330458
 20
0.9882769756625895
  0
LWPOLYLINE
  5
BCD28CE5C6CA42E
330
BCD28CE5C6CA4EA
100
AcDbEntity
  8
TEXT
100
AcDbPolyline
 90
        5
 70
     0
 43
0.0001332181640625
 10
3.920624500939831
 20
0.9882769756625895
 10
3.920624500939831
 20
0.9749551592563426
 10
3.95725949605702
 20
0.9749551592563426
 10
3.95725949605702
 20
0.9383201641391528
 10
3.970581312463269
 20
0.9383201641391528
  0
LWPOLYLINE
  5
BCD28CE5C6CA435
330
BCD28CE5C6CA4EA
100
AcDbEntity
  8
TEXT
100
AcDbPolyline
 90
        2
 70
     0
 43
0.0001332181640625
 10
3.930615863244519
 20
0.8217542705844669
 10
3.920624500939831
 20
0.8817024444125925
  0
LWPOLYLINE
  5
BCD28CE5C6CA439
330
BCD28CE5C6CA4EA
100
AcDbEntity
  8
TEXT
100
AcDbPolyline
 90
        2
 70
     0
 43
0.0001332181640625
 10
3.920624500939831
 20
0.868380628006342
 10
3.930615863244519
 20
0.795110637771966
  0
LWPOLYLINE
  5
BCD28CE5C6CA43D
330
BCD28CE5C6CA4EA
100
AcDbEntity
  8
TEXT
100
AcDbPolyline
 90
        2
 70
     0
 43
0.0006660908203125
 10
3.930615863244519
 20
0.8217542705844669
 10
3.930615863244519
 20
0.795110637771966
  0
LWPOLYLINE
  5
BCD28CE5C6CA441
330
BCD28CE5C6CA4EA
100
AcDbEntity
  8
TEXT
100
AcDbPolyline
 90
        5
 70
     0
 43
0.0001332181640625
 10
3.970581312463269
 20
0.9183374395297787
 10
3.95725949605702
 20
0.9183374395297787
 10
3.95725949605702
 20
0.8817024444125925
 10
3.920624500939831
 20
0.8817024444125925
 10
3.920624500939831
 20
0.868380628006342
  0
LWPOLYLINE
  5
BCD28CE5C6CA448
330
BCD28CE5C6CA4EA
100
AcDbEntity
  8
TEXT
100
AcDbPolyline
 90
        2
 70
     0
 43
0.0006660908203125
 10
4.017207669885144
 20
0.9483115264438415
 10
4.043851302697645
 20
0.9483115264438415
  0
LWPOLYLINE
  5
BCD28CE5C6CA44C
330
BCD28CE5C6CA4EA
100
AcDbEntity
  8
TEXT
100
AcDbPolyline
 90
        2
 70
     0
 43
0.0006660908203125
 10
4.017207669885144
 20
0.9083460772250935
 10
4.043851302697645
 20
0.9083460772250935
  0
LINE
  5
BCD28CE5C6CA450
330
BCD28CE5C6CA4EA
100
AcDbEntity
  8
TEXT
100
AcDbLine
 10
4.31396543954567
 20
0.9972702712402002
 30
0.0
 11
4.480871093574641
 21
0.9972702712402002
 31
0.0
  0
LINE
  5
BCD28CE5C6CA451
330
BCD28CE5C6CA4EA
100
AcDbEntity
  8
TEXT
100
AcDbLine
 10
4.379565575789971
 20
0.9614655496295723
 30
0.0
 11
4.31396543954567
 21
0.9614655496295723
 31
0.0
  0
LINE
  5
BCD28CE5C6CA452
330
BCD28CE5C6CA4EA
100
AcDbEntity
  8
TEXT
100
AcDbLine
 10
4.226640649984918
 20
0.7950739329084547
 30
0.0
 11
4.379565575789971
 21
0.7950739329084547
 31
0.0
  0
LINE
  5
BCD28CE5C6CA453
330
BCD28CE5C6CA4EA
100
AcDbEntity
  8
TEXT
100
AcDbLine
 10
4.384505949696251
 20
0.863430939241894
 30
0.0
 11
4.226640649984917
 21
0.863430939241894
 31
0.0
  0
LINE
  5
BCD28CE5C6CA454
330
BCD28CE5C6CA4EA
100
AcDbEntity
  8
TEXT
100
AcDbLine
 10
4.308728109431422
 20
0.8973720470039586
 30
0.0
 11
4.384505949696251
 21
0.8973720470039586
 31
0.0
  0
ARC
  5
BCD28CE5C6CA455
330
BCD28CE5C6CA4EA
100
AcDbEntity
  8
TEXT
100
AcDbCircle
 10
4.313965439545671
 20
0.979367910434888
 30
0.0
 40
0.017902360805315
100
AcDbArc
 50
90.0
 51
270.0
  0
LINE
  5
BCD28CE5C6CA456
330
BCD28CE5C6CA4EA
100
AcDbEntity
  8
TEXT
100
AcDbLine
 10
4.226640649984917
 20
0.863430939241894
 30
0.0
 11
4.226640649984918
 21
0.7950739329084547
 31
0.0
  0
LINE
  5
BCD28CE5C6CA457
330
BCD28CE5C6CA4EA
100
AcDbEntity
  8
TEXT
100
AcDbLine
 10
4.480871093574641
 20
0.9972702712402002
 30
0.0
 11
4.480871093574641
 21
0.8548663242465044
 31
0.0
  0
ARC
  5
BCD28CE5C6CA458
330
BCD28CE5C6CA4EA
100
AcDbEntity
  8
TEXT
100
AcDbCircle
 10
4.379565575789972
 20
0.8782697412690117
 30
0.0
 40
0.0831958083605586
100
AcDbArc
 50
270.0
 51
90.0
  0
ARC
  5
BCD28CE5C6CA459
330
BCD28CE5C6CA4EA
100
AcDbEntity
  8
TEXT
100
AcDbCircle
 10
4.384505949696252
 20
0.880401493122928
 30
0.0
 40
0.0169705538810321
100
AcDbArc
 50
270.0
 51
90.0
  0
LWPOLYLINE
  5
BCD28CE5C6CA45A
330
BCD28CE5C6CA4EA
100
AcDbEntity
  8
TEXT
100
AcDbPolyline
 90
        2
 70
     0
 43
0.0006660908203125
 10
3.890650414025768
 20
1.034903333084468
 10
3.890650414025768
 20
1.061546965896969
  0
LWPOLYLINE
  5
BCD28CE5C6CA45E
330
BCD28CE5C6CA4EA
100
AcDbEntity
  8
TEXT
100
AcDbPolyline
 90
        2
 70
     0
 43
0.0006660908203125
 10
3.930615863244519
 20
1.034903333084468
 10
3.930615863244519
 20
1.061546965896969
  0
LINE
  5
BCD28CE5C6CA462
330
BCD28CE5C6CA4EA
100
AcDbEntity
  8
TEXT
100
AcDbLine
 10
4.484459862329934
 20
1.061546965896965
 30
0.0
 11
4.308728109431422
 21
1.061546965896965
 31
0.0
  0
LINE
  5
BCD28CE5C6CA463
330
BCD28CE5C6CA4EA
100
AcDbEntity
  8
TEXT
100
AcDbLine
 10
4.484459862329934
 20
1.095934883491103
 30
0.0
 11
4.484459862329934
 21
1.061546965896965
 31
0.0
  0
LINE
  5
BCD28CE5C6CA464
330
BCD28CE5C6CA4EA
100
AcDbEntity
  8
TEXT
100
AcDbLine
 10
4.674931754349787
 20
0.960674969783845
 30
0.0
 11
4.616301433317849
 21
1.061546965896965
 31
0.0
  0
LINE
  5
BCD28CE5C6CA465
330
BCD28CE5C6CA4EA
100
AcDbEntity
  8
TEXT
100
AcDbLine
 10
4.733680317155652
 20
1.061546965896965
 30
0.0
 11
4.674931754349787
 21
0.960674969783845
 31
0.0
  0
LINE
  5
BCD28CE5C6CA466
330
BCD28CE5C6CA4EA
100
AcDbEntity
  8
TEXT
100
AcDbLine
 10
4.830610942515393
 20
0.8774617710114538
 30
0.0
 11
4.830610942515393
 21
1.129558443635776
 31
0.0
  0
LINE
  5
BCD28CE5C6CA467
330
BCD28CE5C6CA4EA
100
AcDbEntity
  8
TEXT
100
AcDbLine
 10
4.862922796653053
 20
1.061546965896965
 30
0.0
 11
4.862922796653053
 21
0.8606827591645574
 31
0.0
  0
LINE
  5
BCD28CE5C6CA468
330
BCD28CE5C6CA4EA
100
AcDbEntity
  8
TEXT
100
AcDbLine
 10
4.862922796653053
 20
0.8606827591645574
 30
0.0
 11
4.845929159768452
 21
0.8606827591645574
 31
0.0
  0
LINE
  5
BCD28CE5C6CA469
330
BCD28CE5C6CA4EA
100
AcDbEntity
  8
TEXT
100
AcDbLine
 10
4.831750516011588
 20
0.7950739329084547
 30
0.0
 11
4.929753849711023
 21
0.7950739329084547
 31
0.0
  0
LINE
  5
BCD28CE5C6CA46A
330
BCD28CE5C6CA4EA
100
AcDbEntity
  8
TEXT
100
AcDbLine
 10
4.665331517352832
 20
0.8150324390134676
 30
0.0
 11
4.762631223446277
 21
0.9793826499487357
 31
0.0
  0
ARC
  5
BCD28CE5C6CA46B
330
BCD28CE5C6CA4EA
100
AcDbEntity
  8
TEXT
100
AcDbCircle
 10
4.631287957440618
 20
0.8346216551821504
 30
0.0
 40
0.0392772371940762
100
AcDbArc
 50
270.1604552698595
 51
330.0831797321295
  0
LINE
  5
BCD28CE5C6CA46C
330
BCD28CE5C6CA4EA
100
AcDbEntity
  8
TEXT
100
AcDbLine
 10
4.534757701054747
 20
0.7950739329084547
 30
0.0
 11
4.631397952129741
 21
0.795344572006737
 31
0.0
  0
LWPOLYLINE
  5
BCD28CE5C6CA46D
330
BCD28CE5C6CA4EA
100
AcDbEntity
  8
TEXT
100
AcDbPolyline
 90
        6
 70
     1
 43
0.0
 10
4.577281504629897
 20
0.9972702712402002
 10
4.546964910409688
 20
0.9972702712402002
 10
4.546964910409688
 20
0.8741592731853058
 42
0.407328721240804
 10
4.558508561571165
 20
0.8623403585089198
 10
4.619130260615896
 20
0.8623403585089198
 10
4.636595601023214
 20
0.8951525875523989
  0
LINE
  5
BCD28CE5C6CA475
330
BCD28CE5C6CA4EA
100
AcDbEntity
  8
TEXT
100
AcDbLine
 10
4.762631223446277
 20
0.9793826499487357
 30
0.0
 11
4.762631223446277
 21
0.8466252751233794
 31
0.0
  0
ARC
  5
BCD28CE5C6CA476
330
BCD28CE5C6CA4EA
100
AcDbEntity
  8
TEXT
100
AcDbCircle
 10
4.84592915976845
 20
0.8760645654079828
 30
0.0
 40
0.0153818062434269
100
AcDbArc
 50
174.7883570302258
 51
270.0
  0
LWPOLYLINE
  5
BCD28CE5C6CA477
330
BCD28CE5C6CA4EA
100
AcDbEntity
  8
TEXT
100
AcDbPolyline
 90
        2
 70
     0
 43
0.0
 10
4.762631223446275
 20
0.8466252751233829
 42
0.3318488747599744
 10
4.831750516011588
 20
0.7950739329084547
 42
-6.868794160588311
  0
LINE
  5
BCD28CE5C6CA47B
330
BCD28CE5C6CA4EA
100
AcDbEntity
  8
TEXT
100
AcDbLine
 10
4.987142918700284
 20
0.7950739329084547
 30
0.0
 11
5.054200965482124
 21
0.7950739329084547
 31
0.0
  0
LINE
  5
BCD28CE5C6CA47C
330
BCD28CE5C6CA4EA
100
AcDbEntity
  8
TEXT
100
AcDbLine
 10
4.987142918700284
 20
0.9897164820740902
 30
0.0
 11
4.987142918700284
 21
0.7950739329084547
 31
0.0
  0
LINE
  5
BCD28CE5C6CA47D
330
BCD28CE5C6CA4EA
100
AcDbEntity
  8
TEXT
100
AcDbLine
 10
4.929753849711023
 20
0.9972702712402002
 30
0.0
 11
4.97958912953417
 21
0.9972702712402002
 31
0.0
  0
LINE
  5
BCD28CE5C6CA47E
330
BCD28CE5C6CA4EA
100
AcDbEntity
  8
TEXT
100
AcDbLine
 10
4.929753849711023
 20
0.7950739329084547
 30
0.0
 11
4.929753849711023
 21
0.9972702712402002
 31
0.0
  0
LWPOLYLINE
  5
BCD28CE5C6CA47F
330
BCD28CE5C6CA4EA
100
AcDbEntity
  8
TEXT
100
AcDbPolyline
 90
        2
 70
     0
 43
0.0
 10
4.979589129534168
 20
0.9972702712402002
 42
-0.4142135623731017
 10
4.987142918700282
 20
0.9897164820740902
 42
-0.9999999999999998
  0
LINE
  5
BCD28CE5C6CA483
330
BCD28CE5C6CA4EA
100
AcDbEntity
  8
TEXT
100
AcDbLine
 10
5.185399130311854
 20
0.9972702712402002
 30
0.0
 11
5.185399130311854
 21
0.9222178651659936
 31
0.0
  0
LINE
  5
BCD28CE5C6CA484
330
BCD28CE5C6CA4EA
100
AcDbEntity
  8
TEXT
100
AcDbLine
 10
5.054200965482124
 20
0.9972702712402002
 30
0.0
 11
5.108334562403074
 21
0.9972702712402002
 31
0.0
  0
LINE
  5
BCD28CE5C6CA485
330
BCD28CE5C6CA4EA
100
AcDbEntity
  8
TEXT
100
AcDbLine
 10
5.054200965482124
 20
0.7950739329084547
 30
0.0
 11
5.054200965482124
 21
0.9972702712402002
 31
0.0
  0
LWPOLYLINE
  5
BCD28CE5C6CA486
330
BCD28CE5C6CA4EA
100
AcDbEntity
  8
TEXT
100
AcDbPolyline
 90
        2
 70
     0
 43
0.0
 10
5.108334562403072
 20
0.9972702712402002
 42
-0.4142135623731017
 10
5.115888351569186
 20
0.9897164820740902
 42
-0.9999999999999998
  0
LWPOLYLINE
  5
BCD28CE5C6CA48A
330
BCD28CE5C6CA4EA
100
AcDbEntity
  8
TEXT
100
AcDbPolyline
 90
        4
 70
     0
 43
0.0
 10
5.115888351569186
 20
0.9897164820740902
 10
5.115888351569186
 20
0.7950739329084547
 10
5.184366634857044
 20
0.7950739329084547
 10
5.184366634857044
 20
0.8385648778588928
 42
-1.714843617202739
  0
LINE
  5
BCD28CE5C6CA490
330
BCD28CE5C6CA4EA
100
AcDbEntity
  8
TEXT
100
AcDbLine
 10
4.544502467173941
 20
1.061546965896965
 30
0.0
 11
4.544502467173941
 21
1.095934883491103
 31
0.0
  0
LINE
  5
BCD28CE5C6CA491
330
BCD28CE5C6CA4EA
100
AcDbEntity
  8
TEXT
100
AcDbLine
 10
4.616301433317849
 20
1.061546965896965
 30
0.0
 11
4.544502467173941
 21
1.061546965896965
 31
0.0
  0
LINE
  5
BCD28CE5C6CA492
330
BCD28CE5C6CA4EA
100
AcDbEntity
  8
TEXT
100
AcDbLine
 10
4.763802229949028
 20
1.061546965896965
 30
0.0
 11
4.733680317155652
 21
1.061546965896965
 31
0.0
  0
LINE
  5
BCD28CE5C6CA493
330
BCD28CE5C6CA4EA
100
AcDbEntity
  8
TEXT
100
AcDbLine
 10
4.763802229949028
 20
1.129558443635776
 30
0.0
 11
4.763802229949028
 21
1.061546965896965
 31
0.0
  0
LINE
  5
BCD28CE5C6CA494
330
BCD28CE5C6CA4EA
100
AcDbEntity
  8
TEXT
100
AcDbLine
 10
4.830610942515393
 20
1.129558443635776
 30
0.0
 11
4.763802229949028
 21
1.129558443635776
 31
0.0
  0
LWPOLYLINE
  5
BCD28CE5C6CA495
330
BCD28CE5C6CA4EA
100
AcDbEntity
  8
TEXT
100
AcDbPolyline
 90
        3
 70
     0
 43
0.0
 10
5.151022702113396
 20
1.061546965896969
 10
5.032722543297351
 20
1.061546965896969
 10
5.032722543297351
 20
1.034379469136073
 42
-1.960274751411753
  0
LINE
  5
BCD28CE5C6CA49A
330
BCD28CE5C6CA4EA
100
AcDbEntity
  8
TEXT
100
AcDbLine
 10
4.99694085258419
 20
1.061546965896965
 30
0.0
 11
4.862922796653053
 21
1.061546965896965
 31
0.0
  0
LWPOLYLINE
  5
BCD28CE5C6CA49B
330
BCD28CE5C6CA4EA
100
AcDbEntity
  8
TEXT
100
AcDbPolyline
 90
        2
 70
     0
 43
0.0
 10
4.99694085258419
 20
1.061546965896969
 42
-0.3328679258950098
 10
5.032722543297351
 20
1.034379469136073
 42
6.772930709997214
  0
LINE
  5
BCD28CE5C6CA49F
330
BCD28CE5C6CA4EA
100
AcDbEntity
  8
TEXT
100
AcDbLine
 10
5.186804392826562
 20
1.061546965896965
 30
0.0
 11
5.186804392826562
 21
1.033224420127321
 31
0.0
  0
LWPOLYLINE
  5
BCD28CE5C6CA4A0
330
BCD28CE5C6CA4EA
100
AcDbEntity
  8
TEXT
100
AcDbPolyline
 90
        2
 70
     0
 43
0.0
 10
5.151022702113396
 20
1.061546965896969
 42
-0.3277054968067132
 10
5.186804392826561
 20
1.033224420127325
 42
6.667889725900311
  0
LINE
  5
BCD28CE5C6CA4A4
330
BCD28CE5C6CA4EA
100
AcDbEntity
  8
TEXT
100
AcDbLine
 10
5.400596240918662
 20
0.9563349873435383
 30
0.0
 11
5.356845469736761
 21
1.038585263339683
 31
0.0
  0
LINE
  5
BCD28CE5C6CA4A5
330
BCD28CE5C6CA4EA
100
AcDbEntity
  8
TEXT
100
AcDbLine
 10
5.400596240918662
 20
1.061546965896965
 30
0.0
 11
5.400596240918662
 21
0.9563349873435383
 31
0.0
  0
LINE
  5
BCD28CE5C6CA4A6
330
BCD28CE5C6CA4EA
100
AcDbEntity
  8
TEXT
100
AcDbLine
 10
5.628279979857031
 20
0.9856816394854275
 30
0.0
 11
5.628279979857031
 21
1.127011171664566
 31
0.0
  0
LINE
  5
BCD28CE5C6CA4A7
330
BCD28CE5C6CA4EA
100
AcDbEntity
  8
TEXT
100
AcDbLine
 10
5.675378138413016
 20
1.061546965896965
 30
0.0
 11
5.628279979857031
 21
0.9856816394854275
 31
0.0
  0
LINE
  5
BCD28CE5C6CA4A8
330
BCD28CE5C6CA4EA
100
AcDbEntity
  8
TEXT
100
AcDbLine
 10
5.685812855176939
 20
0.951653722955992
 30
0.0
 11
5.750369971142644
 21
1.061546965896965
 31
0.0
  0
LINE
  5
BCD28CE5C6CA4A9
330
BCD28CE5C6CA4EA
100
AcDbEntity
  8
TEXT
100
AcDbLine
 10
5.564444988634258
 20
0.7950739329084547
 30
0.0
 11
5.628823172952879
 21
0.7950739329084547
 31
0.0
  0
LWPOLYLINE
  5
BCD28CE5C6CA4AA
330
BCD28CE5C6CA4EA
100
AcDbEntity
  8
TEXT
100
AcDbPolyline
 90
        2
 70
     0
 43
0.0
 10
5.4045359182237
 20
0.8385648778588928
 42
-0.2901071551932486
 10
5.361459985356056
 20
0.7950739329084547
 42
-5.328517124445184
  0
ARC
  5
BCD28CE5C6CA4AE
330
BCD28CE5C6CA4EA
100
AcDbEntity
  8
TEXT
100
AcDbCircle
 10
5.292605403699141
 20
0.9689108962402029
 30
0.0
 40
0.028359375
100
AcDbArc
 50
25.78218179591245
 51
90.0
  0
LINE
  5
BCD28CE5C6CA4AF
330
BCD28CE5C6CA4EA
100
AcDbEntity
  8
TEXT
100
AcDbLine
 10
5.328406479003264
 20
0.9599952977780679
 30
0.0
 11
5.3181417185897
 21
0.9812458373507622
 31
0.0
  0
LINE
  5
BCD28CE5C6CA4B0
330
BCD28CE5C6CA4EA
100
AcDbEntity
  8
TEXT
100
AcDbLine
 10
5.246118489219881
 20
0.9599952977780679
 30
0.0
 11
5.328406479003264
 21
0.9599952977780679
 31
0.0
  0
LWPOLYLINE
  5
BCD28CE5C6CA4B1
330
BCD28CE5C6CA4EA
100
AcDbEntity
  8
TEXT
100
AcDbPolyline
 90
        4
 70
     1
 43
0.0
 10
5.341337520286163
 20
0.8980379108924799
 10
5.252677201626305
 20
0.8980379108924799
 42
0.9999999999999998
 10
5.252677201626305
 20
0.8556393703886191
 10
5.341337520286163
 20
0.8556393703886191
 42
1.0
  0
LWPOLYLINE
  5
BCD28CE5C6CA4B7
330
BCD28CE5C6CA4EA
100
AcDbEntity
  8
TEXT
100
AcDbPolyline
 90
        2
 70
     0
 43
0.0
 10
5.227442567724679
 20
0.7950739329084547
 10
5.361459985356056
 20
0.7950739329084547
 42
0.9999999999999998
  0
LINE
  5
BCD28CE5C6CA4BB
330
BCD28CE5C6CA4EA
100
AcDbEntity
  8
TEXT
100
AcDbLine
 10
5.487797007341695
 20
0.9972702712402002
 30
0.0
 11
5.564444988634253
 21
0.9972702712402002
 31
0.0
  0
LINE
  5
BCD28CE5C6CA4BC
330
BCD28CE5C6CA4EA
100
AcDbEntity
  8
TEXT
100
AcDbLine
 10
5.564444988634253
 20
0.9972702712402002
 30
0.0
 11
5.564444988634258
 21
0.7950739329084547
 31
0.0
  0
ARC
  5
BCD28CE5C6CA4BD
330
BCD28CE5C6CA4EA
100
AcDbEntity
  8
TEXT
100
AcDbCircle
 10
5.487797007341693
 20
0.9723643959575374
 30
0.0
 40
0.0249058752826653
100
AcDbArc
 50
89.99971217465335
 51
179.9999999999985
  0
LINE
  5
BCD28CE5C6CA4BE
330
BCD28CE5C6CA4EA
100
AcDbEntity
  8
TEXT
100
AcDbLine
 10
5.462891132059036
 20
0.7950739329084547
 30
0.0
 11
5.462891132059031
 21
0.972364438339923
 31
0.0
  0
LWPOLYLINE
  5
BCD28CE5C6CA4BF
330
BCD28CE5C6CA4EA
100
AcDbEntity
  8
TEXT
100
AcDbPolyline
 90
        2
 70
     0
 43
0.0
 10
5.4045359182237
 20
0.7950739329084547
 10
5.462891132059034
 20
0.7950739329084547
  0
LWPOLYLINE
  5
BCD28CE5C6CA4C3
330
BCD28CE5C6CA4EA
100
AcDbEntity
  8
TEXT
100
AcDbPolyline
 90
        2
 70
     0
 43
0.0
 10
5.4045359182237
 20
0.8385648778588928
 10
5.4045359182237
 20
0.7950739329084547
  0
LINE
  5
BCD28CE5C6CA4C7
330
BCD28CE5C6CA4EA
100
AcDbEntity
  8
TEXT
100
AcDbLine
 10
5.781305078540549
 20
0.7950739329084547
 30
0.0
 11
5.685812855176939
 21
0.951653722955992
 31
0.0
  0
LINE
  5
BCD28CE5C6CA4C8
330
BCD28CE5C6CA4EA
100
AcDbEntity
  8
TEXT
100
AcDbLine
 10
5.704726706164343
 20
0.7950739329084547
 30
0.0
 11
5.781305078540549
 21
0.7950739329084547
 31
0.0
  0
LINE
  5
BCD28CE5C6CA4C9
330
BCD28CE5C6CA4EA
100
AcDbEntity
  8
TEXT
100
AcDbLine
 10
5.628823172952879
 20
0.9266535013846349
 30
0.0
 11
5.704726706164343
 21
0.7950739329084547
 31
0.0
  0
LINE
  5
BCD28CE5C6CA4CA
330
BCD28CE5C6CA4EA
100
AcDbEntity
  8
TEXT
100
AcDbLine
 10
5.628823172952879
 20
0.7950739329084547
 30
0.0
 11
5.628823172952879
 21
0.9266535013846349
 31
0.0
  0
LINE
  5
BCD28CE5C6CA4CB
330
BCD28CE5C6CA4EA
100
AcDbEntity
  8
TEXT
100
AcDbLine
 10
5.628279979857031
 20
1.127011171664566
 30
0.0
 11
5.559965101307758
 21
1.127011171664566
 31
0.0
  0
ARC
  5
BCD28CE5C6CA4CC
330
BCD28CE5C6CA4EA
100
AcDbEntity
  8
TEXT
100
AcDbCircle
 10
5.319609362266552
 20
1.019963398776063
 30
0.0
 40
0.0416329381542859
100
AcDbArc
 50
26.56974201007528
 51
87.20939649401342
  0
LINE
  5
BCD28CE5C6CA4CD
330
BCD28CE5C6CA4EA
100
AcDbEntity
  8
TEXT
100
AcDbLine
 10
5.464493147218163
 20
1.061546965896965
 30
0.0
 11
5.400596240918662
 21
1.061546965896965
 31
0.0
  0
LINE
  5
BCD28CE5C6CA4CE
330
BCD28CE5C6CA4EA
100
AcDbEntity
  8
TEXT
100
AcDbLine
 10
5.464493147218163
 20
1.03399931603609
 30
0.0
 11
5.464493147218163
 21
1.061546965896965
 31
0.0
  0
ARC
  5
BCD28CE5C6CA4CF
330
BCD28CE5C6CA4EA
100
AcDbEntity
  8
TEXT
100
AcDbCircle
 10
5.495685964281271
 20
1.0303012386147
 30
0.0
 40
0.0314112657011332
100
AcDbArc
 50
95.88484768694724
 51
173.2388340632136
  0
LINE
  5
BCD28CE5C6CA4D0
330
BCD28CE5C6CA4EA
100
AcDbEntity
  8
TEXT
100
AcDbLine
 10
5.559965101307753
 20
1.061546965896965
 30
0.0
 11
5.492465383658236
 21
1.061546965896965
 31
0.0
  0
LINE
  5
BCD28CE5C6CA4D1
330
BCD28CE5C6CA4EA
100
AcDbEntity
  8
TEXT
100
AcDbLine
 10
5.559965101307758
 20
1.127011171664566
 30
0.0
 11
5.559965101307753
 21
1.061546965896965
 31
0.0
  0
LINE
  5
BCD28CE5C6CA4D2
330
BCD28CE5C6CA4EA
100
AcDbEntity
  8
TEXT
100
AcDbLine
 10
5.750369971142644
 20
1.061546965896965
 30
0.0
 11
5.675378138413018
 21
1.061546965896965
 31
0.0
  0
INSERT
  5
BCD28CE5C6CA505
330
BCD28CE5C6CA4EA
100
AcDbEntity
  8
ASHADE
 62
     1
100
AcDbBlockReference
  2
AVE_RENDER
 10
0.0
 20
0.0
 30
0.0
1001
AVE_RENDER
1002
{
1070
     6
1000
Pref
1070
    30
1070
    20
1070
     1
1070
     0
1000

1070
    10
1070
     1
1070
    30
1040
1.0
1070
     1
1040
0.3
1040
0.7
1040
0.0
1040
10.0
1010
-1.0
1020
-1.0
1030
-1.0
1040
0.3
1070
    49
1070
     0
1070
     0
1010
1.0
1020
1.0
1030
1.0
1040
45.0
1070
     1
1070
     0
1000
WCS
1040
0.0
1002
}
  0
INSERT
  5
BCD28CE5C6CA506
330
BCD28CE5C6CA4EA
100
AcDbEntity
  8
ASHADE
 62
     3
100
AcDbBlockReference
  2
AVE_RENDER
 10
0.0
 20
0.0
 30
0.0
1001
AVE_RENDER
1002
{
1070
     0
1000
Full Opt
1070
     0
1070
     1
1070
     1
1070
     1
1070
     0
1070
     0
1070
     0
1070
     1
1070
     1
1040
0.0001
1040
0.0001
1002
}
  0
INSERT
  5
BCD28CE5C6CA507
330
BCD28CE5C6CA4EA
100
AcDbEntity
  8
ASHADE
 62
     4
100
AcDbBlockReference
  2
AVE_RENDER
 10
0.0
 20
0.0
 30
0.0
1001
AVE_RENDER
1002
{
1070
     0
1000
Quick Opt
1070
     0
1070
     1
1070
     1
1070
     1
1070
     0
1070
     0
1070
     1
1002
}
  0
INSERT
  5
BCD28CE5C6CA508
330
BCD28CE5C6CA4EA
100
AcDbEntity
  8
ASHADE
 62
     5
100
AcDbBlockReference
  2
AVE_RENDER
 10
0.0
 20
0.0
 30
0.0
1001
AVE_RENDER
1002
{
1070
     1
1000
Scanl Opt
1070
     2
1070
     0
1070
     2
1040
2.0
1040
4.0
1070
     0
1070
     1
1070
     0
1040
0.03
1002
}
  0
INSERT
  5
BCD28CE5C6CA509
330
BCD28CE5C6CA4EA
100
AcDbEntity
  8
ASHADE
 62
     6
100
AcDbBlockReference
  2
AVE_RENDER
 10
0.0
 20
0.0
 30
0.0
1001
AVE_RENDER
1002
{
1070
     2
1000
Raytr Opt
1070
     2
1070
     0
1070
     2
1040
2.0
1040
4.0
1070
     0
1070
     1
1070
     1
1040
0.03
1070
     3
1040
0.03
1002
}
  0
INSERT
  5
BCD28CE5C6CA50A
330
BCD28CE5C6CA4EA
100
AcDbEntity
  8
ASHADE
 62
     7
100
AcDbBlockReference
  2
AVE_RENDER
 10
0.0
 20
0.0
 30
0.0
1001
AVE_RENDER
1002
{
1070
     0
1000
RFile Opt
1070
     5
1070
   640
1070
   480
1070
 10000
1070
     3
1070
    32
1070
    24
1070
     0
1070
     0
1070
     0
1070
     1
1070
     0
1070
     0
1070
     0
1002
}
  0
INSERT
  5
BCD28CE5C6CA50B
330
BCD28CE5C6CA4EA
100
AcDbEntity
  8
ASHADE
 62
     8
100
AcDbBlockReference
  2
AVE_RENDER
 10
0.0
 20
0.0
 30
0.0
1001
AVE_RENDER
1002
{
1070
     0
1000
Fog Opt
1070
     0
1070
     0
1040
0.0
1040
1.0
1040
0.0
1040
1.0
1010
0.5
1020
0.5
1030
0.5
1002
}
  0
INSERT
  5
BCD28CE5C6CA50C
330
BCD28CE5C6CA4EA
100
AcDbEntity
  8
ASHADE
 62
     9
100
AcDbBlockReference
  2
AVE_RENDER
 10
0.0
 20
0.0
 30
0.0
1001
AVE_RENDER
1002
{
1070
     0
1000
BG Opt
1070
     0
1070
     1
1010
0.0
1020
0.0
1030
0.0
1010
1.0
1020
0.0
1030
0.0
1010
0.0
1020
1.0
1030
0.0
1010
0.0
1020
0.0
1030
1.0
1040
0.5
1040
0.33
1040
0.0
1000

1070
     1
1000

1070
     1
1070
     1
1040
1.0
1040
1.0
1040
0.0
1040
0.0
1070
     0
1002
}
  0
INSERT
  5
BCD28CE5C6CA513
330
BCD28CE5C6CA4EA
100
AcDbEntity
  8
ASHADE
 62
     1
100
AcDbBlockReference
  2
AVE_GLOBAL
 10
0.0
 20
0.0
 30
0.0
1001
AVE_MATERIAL
1002
{
1000
*GLOBAL*
1000
1
1000
Global finish.
1002
{
1002
}
1002
{
1070
    63
1002
{
1002
{
1010
-1.0
1020
-1.0
1030
-1.0
1002
}
1040
0.1000000014901161
1000

1040
0.0
1002
{
1002
}
1040
0.0
1002
{
1002
}
1040
0.0
1002
}
1002
{
1002
{
1010
-1.0
1020
-1.0
1030
-1.0
1002
}
1040
0.6999999880790711
1000

1040
0.0
1002
{
1002
}
1040
0.0
1002
{
1002
}
1040
0.0
1002
}
1002
{
1002
{
1010
-1.0
1020
-1.0
1030
-1.0
1002
}
1040
0.2000000029802322
1000

1040
0.0
1002
{
1002
}
1040
0.0
1002
{
1002
}
1040
0.0
1002
}
1002
{
1070
     0
1002
{
1070
     1
1002
{
1040
1.0
1040
1.0
1000

1040
0.0
1002
{
1002
}
1040
0.0
1002
{
1002
}
1040
0.0
1002
}
1002
}
1040
1.0
1040
0.0
1040
0.0
1002
}
1002
{
1040
1.0
1040
1.0
1000

1040
0.0
1002
{
1002
}
1040
0.0
1002
{
1002
}
1040
0.0
1002
}
1002
{
1040
0.5
1040
1.0
1000

1040
0.0
1002
{
1002
}
1040
0.0
1002
{
1002
}
1040
0.0
1002
}
1002
{
1070
     0
1040
0.0
1002
{
1002
}
1040
1.0
1002
{
1002
}
1040
0.0
1002
}
1002
{
1040
0.0
1002
{
1002
{
1010
0.0
1020
0.0
1030
0.0
1002
}
1040
1.0
1000

1040
0.0
1002
{
1002
}
1040
0.0
1002
{
1002
}
1040
0.0
1002
}
1002
}
1002
{
1002
{
1070
     1
1002
{
1040
0.0
1040
1.0
1000

1040
0.0
1002
{
1002
}
1040
0.0
1002
{
1002
}
1040
0.0
1002
}
1002
}
1040
0.0
1002
{
1002
}
1010
1.0
1020
0.0
1030
0.0
1010
0.0
1020
1.0
1030
0.0
1010
0.0
1020
0.0
1030
1.0
1070
     0
1002
}
1002
{
1002
{
1040
1.0
1040
1.0
1002
{
1070
     1
1002
{
1040
1.0
1040
1.0
1000

1040
0.0
1002
{
1002
}
1040
0.0
1002
{
1002
}
1040
0.0
1002
}
1002
}
1002
}
1070
     0
1040
0.0
1002
{
1002
}
1002
}
1002
{
1002
}
1002
}
1002
{
1071
        3
1070
     3
1070
     0
1002
{
1070
     2
1070
     0
1070
     0
1040
0.0
1002
}
1070
     0
1070
     2
1002
{
1002
}
1002
}
1002
{
1040
8030.0
1040
190.3000030517578
1040
0.3050000071525574
1040
228.0
1040
545.0
1040
14.0
1040
17.39999961853027
1040
0.4560000002384186
1002
}
1002
}
  0
ENDSEC
  0
SECTION
  2
OBJECTS
  0
DICTIONARY
  5
BCD28CE5C6CA4DE
330
0
100
AcDbDictionary
  3
ACAD_GROUP
350
BCD28CE5C6CA4DF
  3
ACAD_LAYOUT
350
BCD28CE5C6CA51F
  3
ACAD_MLINESTYLE
350
BCD28CE5C6CA4E0
  3
ACAD_PLOTSETTINGS
350
BCD28CE5C6CA520
  3
ACAD_PLOTSTYLENAME
350
BCD28CE5C6CA51D
  3
ACDBHEADERROUNDTRIPXREC
350
BCD28CE5C6CA52A
  3
ACDBVARIABLEDICTIONARY
350
BCD28CE5C6CA527
  0
DICTIONARY
  5
BCD28CE5C6CA54C
330
BCD28CE5C6CA4EA
100
AcDbDictionary
280
     1
  3
ACAD_LAYOUTSELFREF
360
BCD28CE5C6CA54D
  0
DICTIONARY
  5
BCD28CE5C6CA54A
330
BCD28CE5C6CA4E7
100
AcDbDictionary
280
     1
  3
ACAD_LAYOUTSELFREF
360
BCD28CE5C6CA54B
  0
DICTIONARY
  5
BCD28CE5C6CA4DF
102
{ACAD_REACTORS
330
BCD28CE5C6CA4DE
102
}
330
BCD28CE5C6CA4DE
100
AcDbDictionary
  0
DICTIONARY
  5
BCD28CE5C6CA51F
102
{ACAD_REACTORS
330
BCD28CE5C6CA4DE
102
}
330
BCD28CE5C6CA4DE
100
AcDbDictionary
  0
DICTIONARY
  5
BCD28CE5C6CA4E0
102
{ACAD_REACTORS
330
BCD28CE5C6CA4DE
102
}
330
BCD28CE5C6CA4DE
100
AcDbDictionary
  3
STANDARD
350
BCD28CE5C6CA4ED
  0
DICTIONARY
  5
BCD28CE5C6CA520
102
{ACAD_REACTORS
330
BCD28CE5C6CA4DE
102
}
330
BCD28CE5C6CA4DE
100
AcDbDictionary
  0
ACDBDICTIONARYWDFLT
  5
BCD28CE5C6CA51D
102
{ACAD_REACTORS
330
BCD28CE5C6CA4DE
102
}
330
BCD28CE5C6CA4DE
100
AcDbDictionary
281
     1
  3
Normal
350
BCD28CE5C6CA51E
100
AcDbDictionaryWithDefault
340
BCD28CE5C6CA51E
  0
DICTIONARY
  5
BCD28CE5C6CA52A
102
{ACAD_REACTORS
330
BCD28CE5C6CA4DE
102
}
330
BCD28CE5C6CA4DE
100
AcDbDictionary
  3
CEPSNTYPE
350
BCD28CE5C6CA534
  3
FINGERPRINTGUID
350
BCD28CE5C6CA535
  3
HYPERLINKBASE
350
BCD28CE5C6CA52D
  3
INSUNITS
350
BCD28CE5C6CA533
  3
LAYOUTDICT
350
BCD28CE5C6CA52F
  3
LWETCUNION
350
BCD28CE5C6CA532
  3
PLOTSETDICT
350
BCD28CE5C6CA530
  3
PLOTSTYLNAMDICT
350
BCD28CE5C6CA531
  3
PSVPSCALE
350
BCD28CE5C6CA537
  3
PUCSBASE
350
BCD28CE5C6CA53A
  3
PUCSORGBACK
350
BCD28CE5C6CA540
  3
PUCSORGBOTTOM
350
BCD28CE5C6CA53C
  3
PUCSORGFRONT
350
BCD28CE5C6CA53F
  3
PUCSORGLEFT
350
BCD28CE5C6CA53D
  3
PUCSORGRIGHT
350
BCD28CE5C6CA53E
  3
PUCSORGTOP
350
BCD28CE5C6CA53B
  3
PUCSORTHOREF
350
BCD28CE5C6CA538
  3
PUCSORTHOVIEW
350
BCD28CE5C6CA539
  3
STYLESHEET
350
BCD28CE5C6CA52E
  3
TSTACKALIGN
350
BCD28CE5C6CA52B
  3
TSTACKSIZE
350
BCD28CE5C6CA52C
  3
UCSBASE
350
BCD28CE5C6CA543
  3
UCSORGBACK
350
BCD28CE5C6CA549
  3
UCSORGBOTTOM
350
BCD28CE5C6CA545
  3
UCSORGFRONT
350
BCD28CE5C6CA548
  3
UCSORGLEFT
350
BCD28CE5C6CA546
  3
UCSORGRIGHT
350
BCD28CE5C6CA547
  3
UCSORGTOP
350
BCD28CE5C6CA544
  3
UCSORTHOREF
350
BCD28CE5C6CA541
  3
UCSORTHOVIEW
350
BCD28CE5C6CA542
  3
VERSIONGUID
350
BCD28CE5C6CA536
  0
DICTIONARY
  5
BCD28CE5C6CA527
102
{ACAD_REACTORS
330
BCD28CE5C6CA4DE
102
}
330
BCD28CE5C6CA4DE
100
AcDbDictionary
  3
DIMASSOC
350
BCD28CE5C6CA528
  0
XRECORD
  5
BCD28CE5C6CA54D
102
{ACAD_REACTORS
330
BCD28CE5C6CA54C
102
}
330
BCD28CE5C6CA54C
100
AcDbXrecord
340
BCD28CE5C6CA4EA
  0
XRECORD
  5
BCD28CE5C6CA54B
102
{ACAD_REACTORS
330
BCD28CE5C6CA54A
102
}
330
BCD28CE5C6CA54A
100
AcDbXrecord
340
BCD28CE5C6CA4E7
  0
MLINESTYLE
  5
BCD28CE5C6CA4ED
102
{ACAD_REACTORS
330
BCD28CE5C6CA4E0
102
}
330
BCD28CE5C6CA4E0
100
AcDbMlineStyle
  2
STANDARD
 70
     0
  3

 62
     0
 51
90.0
 52
90.0
 71
     2
 49
0.5
 62
   256
  6
BYLAYER
 49
-0.5
 62
   256
  6
BYLAYER
  0
ACDBPLACEHOLDER
  5
BCD28CE5C6CA51E
102
{ACAD_REACTORS
330
BCD28CE5C6CA51D
102
}
330
BCD28CE5C6CA51D
100
AcDbPlaceHolder
280
     0
  0
XRECORD
  5
BCD28CE5C6CA534
102
{ACAD_REACTORS
330
BCD28CE5C6CA52A
102
}
330
BCD28CE5C6CA52A
100
AcDbXrecord
 90
        0
  0
XRECORD
  5
BCD28CE5C6CA535
102
{ACAD_REACTORS
330
BCD28CE5C6CA52A
102
}
330
BCD28CE5C6CA52A
100
AcDbXrecord
  1
{EB0D5F70-8DB5-11D6-88E6-0090279574E7}
  0
XRECORD
  5
BCD28CE5C6CA52D
102
{ACAD_REACTORS
330
BCD28CE5C6CA52A
102
}
330
BCD28CE5C6CA52A
100
AcDbXrecord
  1

  0
XRECORD
  5
BCD28CE5C6CA533
102
{ACAD_REACTORS
330
BCD28CE5C6CA52A
102
}
330
BCD28CE5C6CA52A
100
AcDbXrecord
 90
        0
  0
XRECORD
  5
BCD28CE5C6CA52F
102
{ACAD_REACTORS
330
BCD28CE5C6CA52A
102
}
330
BCD28CE5C6CA52A
100
AcDbXrecord
340
BCD28CE5C6CA51F
  0
XRECORD
  5
BCD28CE5C6CA532
102
{ACAD_REACTORS
330
BCD28CE5C6CA52A
102
}
330
BCD28CE5C6CA52A
100
AcDbXrecord
 90
    14877
  0
XRECORD
  5
BCD28CE5C6CA530
102
{ACAD_REACTORS
330
BCD28CE5C6CA52A
102
}
330
BCD28CE5C6CA52A
100
AcDbXrecord
340
BCD28CE5C6CA520
  0
XRECORD
  5
BCD28CE5C6CA531
102
{ACAD_REACTORS
330
BCD28CE5C6CA52A
102
}
330
BCD28CE5C6CA52A
100
AcDbXrecord
340
BCD28CE5C6CA51D
  0
XRECORD
  5
BCD28CE5C6CA537
102
{ACAD_REACTORS
330
BCD28CE5C6CA52A
102
}
330
BCD28CE5C6CA52A
100
AcDbXrecord
 40
0.0
  0
XRECORD
  5
BCD28CE5C6CA53A
102
{ACAD_REACTORS
330
BCD28CE5C6CA52A
102
}
330
BCD28CE5C6CA52A
100
AcDbXrecord
340
0
  0
XRECORD
  5
BCD28CE5C6CA540
102
{ACAD_REACTORS
330
BCD28CE5C6CA52A
102
}
330
BCD28CE5C6CA52A
100
AcDbXrecord
 10
0.0
 20
0.0
 30
0.0
  0
XRECORD
  5
BCD28CE5C6CA53C
102
{ACAD_REACTORS
330
BCD28CE5C6CA52A
102
}
330
BCD28CE5C6CA52A
100
AcDbXrecord
 10
0.0
 20
0.0
 30
0.0
  0
XRECORD
  5
BCD28CE5C6CA53F
102
{ACAD_REACTORS
330
BCD28CE5C6CA52A
102
}
330
BCD28CE5C6CA52A
100
AcDbXrecord
 10
0.0
 20
0.0
 30
0.0
  0
XRECORD
  5
BCD28CE5C6CA53D
102
{ACAD_REACTORS
330
BCD28CE5C6CA52A
102
}
330
BCD28CE5C6CA52A
100
AcDbXrecord
 10
0.0
 20
0.0
 30
0.0
  0
XRECORD
  5
BCD28CE5C6CA53E
102
{ACAD_REACTORS
330
BCD28CE5C6CA52A
102
}
330
BCD28CE5C6CA52A
100
AcDbXrecord
 10
0.0
 20
0.0
 30
0.0
  0
XRECORD
  5
BCD28CE5C6CA53B
102
{ACAD_REACTORS
330
BCD28CE5C6CA52A
102
}
330
BCD28CE5C6CA52A
100
AcDbXrecord
 10
0.0
 20
0.0
 30
0.0
  0
XRECORD
  5
BCD28CE5C6CA538
102
{ACAD_REACTORS
330
BCD28CE5C6CA52A
102
}
330
BCD28CE5C6CA52A
100
AcDbXrecord
340
0
  0
XRECORD
  5
BCD28CE5C6CA539
102
{ACAD_REACTORS
330
BCD28CE5C6CA52A
102
}
330
BCD28CE5C6CA52A
100
AcDbXrecord
 70
     0
  0
XRECORD
  5
BCD28CE5C6CA52E
102
{ACAD_REACTORS
330
BCD28CE5C6CA52A
102
}
330
BCD28CE5C6CA52A
100
AcDbXrecord
  1

  0
XRECORD
  5
BCD28CE5C6CA52B
102
{ACAD_REACTORS
330
BCD28CE5C6CA52A
102
}
330
BCD28CE5C6CA52A
100
AcDbXrecord
 90
        1
  0
XRECORD
  5
BCD28CE5C6CA52C
102
{ACAD_REACTORS
330
BCD28CE5C6CA52A
102
}
330
BCD28CE5C6CA52A
100
AcDbXrecord
 90
       70
  0
XRECORD
  5
BCD28CE5C6CA543
102
{ACAD_REACTORS
330
BCD28CE5C6CA52A
102
}
330
BCD28CE5C6CA52A
100
AcDbXrecord
340
0
  0
XRECORD
  5
BCD28CE5C6CA549
102
{ACAD_REACTORS
330
BCD28CE5C6CA52A
102
}
330
BCD28CE5C6CA52A
100
AcDbXrecord
 10
0.0
 20
0.0
 30
0.0
  0
XRECORD
  5
BCD28CE5C6CA545
102
{ACAD_REACTORS
330
BCD28CE5C6CA52A
102
}
330
BCD28CE5C6CA52A
100
AcDbXrecord
 10
0.0
 20
0.0
 30
0.0
  0
XRECORD
  5
BCD28CE5C6CA548
102
{ACAD_REACTORS
330
BCD28CE5C6CA52A
102
}
330
BCD28CE5C6CA52A
100
AcDbXrecord
 10
0.0
 20
0.0
 30
0.0
  0
XRECORD
  5
BCD28CE5C6CA546
102
{ACAD_REACTORS
330
BCD28CE5C6CA52A
102
}
330
BCD28CE5C6CA52A
100
AcDbXrecord
 10
0.0
 20
0.0
 30
0.0
  0
XRECORD
  5
BCD28CE5C6CA547
102
{ACAD_REACTORS
330
BCD28CE5C6CA52A
102
}
330
BCD28CE5C6CA52A
100
AcDbXrecord
 10
0.0
 20
0.0
 30
0.0
  0
XRECORD
  5
BCD28CE5C6CA544
102
{ACAD_REACTORS
330
BCD28CE5C6CA52A
102
}
330
BCD28CE5C6CA52A
100
AcDbXrecord
 10
0.0
 20
0.0
 30
0.0
  0
XRECORD
  5
BCD28CE5C6CA541
102
{ACAD_REACTORS
330
BCD28CE5C6CA52A
102
}
330
BCD28CE5C6CA52A
100
AcDbXrecord
340
0
  0
XRECORD
  5
BCD28CE5C6CA542
102
{ACAD_REACTORS
330
BCD28CE5C6CA52A
102
}
330
BCD28CE5C6CA52A
100
AcDbXrecord
 70
     0
  0
XRECORD
  5
BCD28CE5C6CA536
102
{ACAD_REACTORS
330
BCD28CE5C6CA52A
102
}
330
BCD28CE5C6CA52A
100
AcDbXrecord
  1
{EB0D5F72-8DB5-11D6-88E6-0090279574E7}
  0
DICTIONARYVAR
  5
BCD28CE5C6CA528
102
{ACAD_REACTORS
330
BCD28CE5C6CA527
102
}
330
BCD28CE5C6CA527
100
DictionaryVariables
280
     0
  1
1
  0
ENDSEC
  0
EOF
