  0
SECTION
  2
HEADER
  9
$ACADVER
  1
AC1014
  9
$ACADMAINTVER
 70
     9
  9
$DWGCODEPAGE
  3
ANSI_1252
  9
$INSBASE
 10
0.0
 20
0.0
 30
0.0
  9
$EXTMIN
 10
-0.9142919351103174
 20
-0.4451181070031944
 30
0.0
  9
$EXTMAX
 10
2.570927386636811
 20
0.9537705792419142
 30
0.0
  9
$LIMMIN
 10
0.0
 20
0.0
  9
$LIMMAX
 10
8.5
 20
11.0
  9
$ORTHOMODE
 70
     0
  9
$REGENMODE
 70
     1
  9
$FILLMODE
 70
     1
  9
$QTEXTMODE
 70
     0
  9
$MIRRTEXT
 70
     0
  9
$DRAGMODE
 70
     2
  9
$LTSCALE
 40
0.8
  9
$OSMODE
 70
    39
  9
$ATTMODE
 70
     1
  9
$TEXTSIZE
 40
0.125
  9
$TRACEWID
 40
0.05
  9
$TEXTSTYLE
  7
ROMANS
  9
$CLAYER
  8
DIMENSIONS
  9
$CELTYPE
  6
BYLAYER
  9
$CECOLOR
 62
   256
  9
$CELTSCALE
 40
1.0
  9
$DELOBJ
 70
     1
  9
$DISPSILH
 70
     1
  9
$DIMSCALE
 40
1.0
  9
$DIMASZ
 40
0.125
  9
$DIMEXO
 40
0.125
  9
$DIMDLI
 40
0.375
  9
$DIMRND
 40
0.0
  9
$DIMDLE
 40
0.0
  9
$DIMEXE
 40
0.125
  9
$DIMTP
 40
0.01
  9
$DIMTM
 40
0.01
  9
$DIMTXT
 40
0.125
  9
$DIMCEN
 40
-0.125
  9
$DIMTSZ
 40
0.0
  9
$DIMTOL
 70
     0
  9
$DIMLIM
 70
     0
  9
$DIMTIH
 70
     1
  9
$DIMTOH
 70
     1
  9
$DIMSE1
 70
     0
  9
$DIMSE2
 70
     1
  9
$DIMTAD
 70
     0
  9
$DIMZIN
 70
     4
  9
$DIMBLK
  1

  9
$DIMASO
 70
     1
  9
$DIMSHO
 70
     1
  9
$DIMPOST
  1

  9
$DIMAPOST
  1

  9
$DIMALT
 70
     0
  9
$DIMALTD
 70
     2
  9
$DIMALTF
 40
25.4
  9
$DIMLFAC
 40
0.5
  9
$DIMTOFL
 70
     0
  9
$DIMTVP
 40
0.0
  9
$DIMTIX
 70
     1
  9
$DIMSOXD
 70
     0
  9
$DIMSAH
 70
     0
  9
$DIMBLK1
  1

  9
$DIMBLK2
  1

  9
$DIMSTYLE
  2
STANDARD
  9
$DIMCLRD
 70
     0
  9
$DIMCLRE
 70
     0
  9
$DIMCLRT
 70
     0
  9
$DIMTFAC
 40
1.0
  9
$DIMGAP
 40
0.09
  9
$DIMJUST
 70
     0
  9
$DIMSD1
 70
     0
  9
$DIMSD2
 70
     0
  9
$DIMTOLJ
 70
     1
  9
$DIMTZIN
 70
     0
  9
$DIMALTZ
 70
     0
  9
$DIMALTTZ
 70
     0
  9
$DIMFIT
 70
     3
  9
$DIMUPT
 70
     0
  9
$DIMUNIT
 70
     2
  9
$DIMDEC
 70
     3
  9
$DIMTDEC
 70
     4
  9
$DIMALTU
 70
     2
  9
$DIMALTTD
 70
     2
  9
$DIMTXSTY
  7
ROMANS
  9
$DIMAUNIT
 70
     0
  9
$LUNITS
 70
     2
  9
$LUPREC
 70
     3
  9
$SKETCHINC
 40
0.1
  9
$FILLETRAD
 40
0.03125
  9
$AUNITS
 70
     0
  9
$AUPREC
 70
     0
  9
$MENU
  1
AUTOMSTR
  9
$ELEVATION
 40
0.0
  9
$PELEVATION
 40
0.0
  9
$THICKNESS
 40
0.0
  9
$LIMCHECK
 70
     0
  9
$BLIPMODE
 70
     0
  9
$CHAMFERA
 40
0.0
  9
$CHAMFERB
 40
0.0
  9
$CHAMFERC
 40
0.0
  9
$CHAMFERD
 40
0.0
  9
$SKPOLY
 70
     0
  9
$TDCREATE
 40
2448099.259723148
  9
$TDUPDATE
 40
2452458.304954444
  9
$TDINDWG
 40
0.0928853241
  9
$TDUSRTIMER
 40
0.0928853241
  9
$USRTIMER
 70
     1
  9
$ANGBASE
 50
0.0
  9
$ANGDIR
 70
     0
  9
$PDMODE
 70
     0
  9
$PDSIZE
 40
0.0
  9
$PLINEWID
 40
0.0
  9
$COORDS
 70
     2
  9
$SPLFRAME
 70
     0
  9
$SPLINETYPE
 70
     6
  9
$SPLINESEGS
 70
     8
  9
$ATTDIA
 70
     0
  9
$ATTREQ
 70
     1
  9
$HANDLING
 70
 22529
  9
$HANDSEED
  5
51F
  9
$SURFTAB1
 70
     6
  9
$SURFTAB2
 70
     6
  9
$SURFTYPE
 70
     6
  9
$SURFU
 70
     6
  9
$SURFV
 70
     6
  9
$UCSNAME
  2

  9
$UCSORG
 10
0.0
 20
0.0
 30
0.0
  9
$UCSXDIR
 10
1.0
 20
0.0
 30
0.0
  9
$UCSYDIR
 10
0.0
 20
1.0
 30
0.0
  9
$PUCSNAME
  2

  9
$PUCSORG
 10
0.0
 20
0.0
 30
0.0
  9
$PUCSXDIR
 10
1.0
 20
0.0
 30
0.0
  9
$PUCSYDIR
 10
0.0
 20
1.0
 30
0.0
  9
$USERI1
 70
     0
  9
$USERI2
 70
     0
  9
$USERI3
 70
     0
  9
$USERI4
 70
     0
  9
$USERI5
 70
     0
  9
$USERR1
 40
0.0
  9
$USERR2
 40
0.0
  9
$USERR3
 40
0.0
  9
$USERR4
 40
0.0
  9
$USERR5
 40
0.0
  9
$WORLDVIEW
 70
     1
  9
$SHADEDGE
 70
     3
  9
$SHADEDIF
 70
    70
  9
$TILEMODE
 70
     1
  9
$MAXACTVP
 70
    16
  9
$PINSBASE
 10
0.0
 20
0.0
 30
0.0
  9
$PLIMCHECK
 70
     0
  9
$PEXTMIN
 10
1.000000000000000E+20
 20
1.000000000000000E+20
 30
1.000000000000000E+20
  9
$PEXTMAX
 10
-1.000000000000000E+20
 20
-1.000000000000000E+20
 30
-1.000000000000000E+20
  9
$PLIMMIN
 10
0.0
 20
0.0
  9
$PLIMMAX
 10
12.0
 20
9.0
  9
$UNITMODE
 70
     0
  9
$VISRETAIN
 70
     0
  9
$PLINEGEN
 70
     1
  9
$PSLTSCALE
 70
     0
  9
$TREEDEPTH
 70
  3020
  9
$PICKSTYLE
 70
     1
  9
$CMLSTYLE
  2
STANDARD
  9
$CMLJUST
 70
     0
  9
$CMLSCALE
 40
1.0
  9
$PROXYGRAPHICS
 70
     1
  9
$MEASUREMENT
 70
     0
  0
ENDSEC
  0
SECTION
  2
CLASSES
  0
CLASS
  1
LWPOLYLINE
  2
AcDbPolyline
  3
AutoCAD 2000
 90
        0
280
     0
281
     1
  0
CLASS
  1
ACDBDICTIONARYWDFLT
  2
AcDbDictionaryWithDefault
  3
AutoCAD 2000
 90
        0
280
     0
281
     0
  0
CLASS
  1
ACDBPLACEHOLDER
  2
AcDbPlaceHolder
  3
AutoCAD 2000
 90
        0
280
     0
281
     0
  0
CLASS
  1
LAYOUT
  2
AcDbLayout
  3
AutoCAD 2000
 90
        0
280
     0
281
     0
  0
CLASS
  1
DICTIONARYVAR
  2
AcDbDictionaryVar
  3
AutoCAD 2000
 90
        0
280
     0
281
     0
  0
CLASS
  1
LONG_TRANSACTION
  2
AcDbLongTransaction
  3
AutoCAD 2000
 90
        0
280
     0
281
     0
  0
CLASS
  1
LWPOLYLINE
  2
AcDbPolyline
  3
AutoCAD 2000
 90
        0
280
     0
281
     1
  0
CLASS
  1
HATCH
  2
AcDbHatch
  3
AutoCAD 2000
 90
        0
280
     0
281
     1
  0
CLASS
  1
XRECORD
  2
AcDbXrecord
  3
AutoCAD 2000
 90
        0
280
     0
281
     0
  0
ENDSEC
  0
SECTION
  2
TABLES
  0
TABLE
  2
VPORT
  5
8
330
0
100
AcDbSymbolTable
 70
     2
  0
VPORT
  5
4FA
330
8
100
AcDbSymbolTableRecord
100
AcDbViewportTableRecord
  2
*ACTIVE
 70
     0
 10
0.0
 20
0.0
 11
1.0
 21
1.0
 12
3.750777427862719
 22
0.2541242325417521
 13
0.0
 23
0.0
 14
0.25
 24
0.25
 15
0.0
 25
0.0
 16
0.0
 26
0.0
 36
1.0
 17
0.0
 27
0.0
 37
0.0
 40
2.163783105556757
 41
4.320930232558139
 42
50.0
 43
0.0
 44
0.0
 50
0.0
 51
0.0
 71
     0
 72
  2000
 73
     1
 74
     1
 75
     0
 76
     0
 77
     0
 78
     0
  0
ENDTAB
  0
TABLE
  2
LTYPE
  5
5
330
0
100
AcDbSymbolTable
 70
     1
  0
LTYPE
  5
12
330
5
100
AcDbSymbolTableRecord
100
AcDbLinetypeTableRecord
  2
BYBLOCK
 70
     0
  3

 72
    65
 73
     0
 40
0.0
  0
LTYPE
  5
13
330
5
100
AcDbSymbolTableRecord
100
AcDbLinetypeTableRecord
  2
BYLAYER
 70
     0
  3

 72
    65
 73
     0
 40
0.0
  0
LTYPE
  5
14
330
5
100
AcDbSymbolTableRecord
100
AcDbLinetypeTableRecord
  2
CONTINUOUS
 70
     0
  3
Solid line
 72
    65
 73
     0
 40
0.0
  0
ENDTAB
  0
TABLE
  2
LAYER
  5
2
330
0
100
AcDbSymbolTable
 70
     3
  0
LAYER
  5
F
330
2
100
AcDbSymbolTableRecord
100
AcDbLayerTableRecord
  2
0
 70
     0
 62
     7
  6
CONTINUOUS
  0
LAYER
  5
2E
330
2
100
AcDbSymbolTableRecord
100
AcDbLayerTableRecord
  2
DIMENSIONS
 70
     0
 62
     4
  6
CONTINUOUS
  0
LAYER
  5
2F
330
2
100
AcDbSymbolTableRecord
100
AcDbLayerTableRecord
  2
TEXT
 70
     0
 62
     3
  6
CONTINUOUS
  0
ENDTAB
  0
TABLE
  2
STYLE
  5
3
330
0
100
AcDbSymbolTable
 70
     3
  0
STYLE
  5
10
330
3
100
AcDbSymbolTableRecord
100
AcDbTextStyleTableRecord
  2
STANDARD
 70
     0
 40
0.0
 41
1.0
 50
0.0
 71
     0
 42
0.25
  3
txt
  4

  0
STYLE
  5
3E6
330
3
100
AcDbSymbolTableRecord
100
AcDbTextStyleTableRecord
  2
ITALICC
 70
     0
 40
0.0
 41
1.0
 50
0.0
 71
     0
 42
0.125
  3
italicc
  4

  0
STYLE
  5
4F6
330
3
100
AcDbSymbolTableRecord
100
AcDbTextStyleTableRecord
  2
ROMANS
 70
     0
 40
0.0
 41
1.0
 50
0.0
 71
     0
 42
0.125
  3
romans.shx
  4

  0
ENDTAB
  0
TABLE
  2
VIEW
  5
6
330
0
100
AcDbSymbolTable
 70
     0
  0
ENDTAB
  0
TABLE
  2
UCS
  5
7
330
0
100
AcDbSymbolTable
 70
     0
  0
ENDTAB
  0
TABLE
  2
APPID
  5
9
330
0
100
AcDbSymbolTable
 70
     1
  0
APPID
  5
11
330
9
100
AcDbSymbolTableRecord
100
AcDbRegAppTableRecord
  2
ACAD
 70
     0
  0
ENDTAB
  0
TABLE
  2
DIMSTYLE
  5
A
330
0
100
AcDbSymbolTable
 70
     1
  0
DIMSTYLE
105
3DA
330
A
100
AcDbSymbolTableRecord
100
AcDbDimStyleTableRecord
  2
STANDARD
 70
     0
  3

  4

  5

  6

  7

 40
1.0
 41
0.18
 42
0.0625
 43
0.38
 44
0.18
 45
0.0
 46
0.0
 47
0.0
 48
0.0
140
0.18
141
0.09
142
0.0
143
25.4
144
1.0
145
0.0
146
1.0
147
0.09
 71
     0
 72
     0
 73
     1
 74
     1
 75
     0
 76
     0
 77
     0
 78
     0
170
     0
171
     2
172
     0
173
     0
174
     0
175
     0
176
     0
177
     0
178
     0
270
     2
271
     4
272
     4
273
     2
274
     2
340
10
275
     0
280
     0
281
     0
282
     0
283
     1
284
     0
285
     0
286
     0
287
     3
288
     0
  0
ENDTAB
  0
TABLE
  2
BLOCK_RECORD
  5
1
330
0
100
AcDbSymbolTable
 70
     0
  0
BLOCK_RECORD
  5
18
102
{ACAD_XDICTIONARY
360
51D
102
}
330
1
100
AcDbSymbolTableRecord
100
AcDbBlockTableRecord
  2
*MODEL_SPACE
  0
BLOCK_RECORD
  5
15
102
{ACAD_XDICTIONARY
360
51B
102
}
330
1
100
AcDbSymbolTableRecord
100
AcDbBlockTableRecord
  2
*PAPER_SPACE
  0
ENDTAB
  0
ENDSEC
  0
SECTION
  2
BLOCKS
  0
BLOCK
  5
38
330
18
100
AcDbEntity
  8
0
100
AcDbBlockBegin
  2
*MODEL_SPACE
 70
     0
 10
0.0
 20
0.0
 30
0.0
  3
*MODEL_SPACE
  1

  0
ENDBLK
  5
39
330
18
100
AcDbEntity
  8
0
100
AcDbBlockEnd
  0
BLOCK
  5
36
330
15
100
AcDbEntity
 67
     1
  8
0
100
AcDbBlockBegin
  2
*PAPER_SPACE
 70
     0
 10
0.0
 20
0.0
 30
0.0
  3
*PAPER_SPACE
  1

  0
ENDBLK
  5
37
330
15
100
AcDbEntity
 67
     1
  8
0
100
AcDbBlockEnd
  0
ENDSEC
  0
SECTION
  2
ENTITIES
  0
LWPOLYLINE
  5
1F2
330
18
100
AcDbEntity
  8
0
100
AcDbPolyline
 90
       13
 70
     1
 43
0.0
 10
0.8808733941018116
 20
0.5162705792419143
 10
0.2973733941018119
 20
0.516270579241914
 10
0.359873394101812
 20
0.5787705792419143
 10
0.2973733941018121
 20
0.5787705792419143
 10
0.2973733941018121
 20
0.9537705792419142
 10
0.234873394101812
 20
0.9537705792419142
 10
0.234873394101812
 20
0.4537705792419143
 10
1.546873394101811
 20
0.4537705792419143
 10
1.546873394101811
 20
0.5787705792419143
 10
1.421873394101811
 20
0.5787705792419143
 10
1.484373394101812
 20
0.5162705792419143
 10
0.9008733941018117
 20
0.5162705792419143
 10
0.8908733941018118
 20
0.5062705792419142
  0
TEXT
  5
46C
330
18
100
AcDbEntity
  8
TEXT
100
AcDbText
 10
0.0757134536406353
 20
0.0129004970793871
 30
0.0
 40
0.125
  1
PART #110289
  7
ITALICC
 72
     1
 11
0.8286896441168254
 21
0.0129004970793871
 31
0.0
100
AcDbText
  0
LINE
  5
46D
330
18
100
AcDbEntity
  8
TEXT
100
AcDbLine
 10
0.7964231430688882
 20
-0.2314531889404465
 30
0.0
 11
0.8730711243614459
 21
-0.2314531889404465
 31
0.0
  0
LINE
  5
46E
330
18
100
AcDbEntity
  8
TEXT
100
AcDbLine
 10
0.8685912370349457
 20
-0.1671764942836811
 30
0.0
 11
0.8010915193854293
 21
-0.1671764942836811
 31
0.0
  0
LWPOLYLINE
  5
46F
330
18
100
AcDbEntity
  8
TEXT
100
AcDbPolyline
 90
        5
 70
     0
 43
0.0001332181640625
 10
-0.8406888994657869
 20
-0.2904032960414939
 10
-0.8273670830595381
 20
-0.2904032960414939
 10
-0.8273670830595381
 20
-0.2537683009243041
 10
-0.7907320879423483
 20
-0.2537683009243041
 10
-0.7907320879423483
 20
-0.2404464845180572
  0
LWPOLYLINE
  5
470
330
18
100
AcDbEntity
  8
TEXT
100
AcDbPolyline
 90
        3
 70
     0
 43
0.0006660908203125
 10
-0.8007234502470389
 20
-0.1938201270961786
 10
-0.8873152568876637
 20
-0.1938201270961786
 10
-0.8873152568876637
 20
-0.2804119337368052
  0
LWPOLYLINE
  5
471
330
18
100
AcDbEntity
  8
TEXT
100
AcDbPolyline
 90
        3
 70
     0
 43
0.0006660908203125
 10
-0.8007234502470389
 20
-0.1671764942836775
 10
-0.9139588897001612
 20
-0.1671764942836775
 10
-0.9139588897001612
 20
-0.2804119337368052
  0
LWPOLYLINE
  5
472
330
18
100
AcDbEntity
  8
TEXT
100
AcDbPolyline
 90
        5
 70
     0
 43
0.0001332181640625
 10
-0.7907320879423483
 20
-0.3603428321743047
 10
-0.7907320879423483
 20
-0.3470210157680542
 10
-0.8273670830595364
 20
-0.3470210157680542
 10
-0.8273670830595364
 20
-0.3103860206508679
 10
-0.8406888994657869
 20
-0.3103860206508679
  0
LWPOLYLINE
  5
473
330
18
100
AcDbEntity
  8
TEXT
100
AcDbPolyline
 90
        3
 70
     0
 43
0.0006660908203125
 10
-0.8873152568876637
 20
-0.3203773829555532
 10
-0.8873152568876637
 20
-0.4069691895961798
 10
-0.8007234502470389
 20
-0.4069691895961798
  0
LWPOLYLINE
  5
474
330
18
100
AcDbEntity
  8
TEXT
100
AcDbPolyline
 90
        3
 70
     0
 43
0.0006660908203125
 10
-0.9139588897001612
 20
-0.3203773829555532
 10
-0.9139588897001612
 20
-0.4336128224086809
 10
-0.8007234502470389
 20
-0.4336128224086809
  0
LWPOLYLINE
  5
475
330
18
100
AcDbEntity
  8
TEXT
100
AcDbPolyline
 90
        2
 70
     0
 43
0.0001332181640625
 10
-0.8873152568876637
 20
-0.3203773829555532
 10
-0.8273670830595364
 20
-0.3103860206508679
  0
LWPOLYLINE
  5
476
330
18
100
AcDbEntity
  8
TEXT
100
AcDbPolyline
 90
        2
 70
     0
 43
0.0001332181640625
 10
-0.8406888994657869
 20
-0.3103860206508679
 10
-0.9139588897001612
 20
-0.3203773829555532
  0
LWPOLYLINE
  5
477
330
18
100
AcDbEntity
  8
TEXT
100
AcDbPolyline
 90
        2
 70
     0
 43
0.0006660908203125
 10
-0.8873152568876637
 20
-0.3203773829555532
 10
-0.9139588897001612
 20
-0.3203773829555532
  0
LWPOLYLINE
  5
478
330
18
100
AcDbEntity
  8
TEXT
100
AcDbPolyline
 90
        2
 70
     0
 43
0.0001332181640625
 10
-0.8873152568876637
 20
-0.4069691895961798
 10
-0.8273670830595364
 20
-0.3470210157680542
  0
LWPOLYLINE
  5
479
330
18
100
AcDbEntity
  8
TEXT
100
AcDbPolyline
 90
        2
 70
     0
 43
0.0006660908203125
 10
-0.8873152568876637
 20
-0.2804119337368052
 10
-0.9139588897001612
 20
-0.2804119337368052
  0
LWPOLYLINE
  5
47A
330
18
100
AcDbEntity
  8
TEXT
100
AcDbPolyline
 90
        2
 70
     0
 43
0.0001332181640625
 10
-0.9139588897001612
 20
-0.2804119337368052
 10
-0.8406888994657869
 20
-0.2904032960414939
  0
LWPOLYLINE
  5
47B
330
18
100
AcDbEntity
  8
TEXT
100
AcDbPolyline
 90
        2
 70
     0
 43
0.0001332181640625
 10
-0.8873152568876637
 20
-0.2804119337368052
 10
-0.8273670830595381
 20
-0.2904032960414939
  0
LWPOLYLINE
  5
47C
330
18
100
AcDbEntity
  8
TEXT
100
AcDbPolyline
 90
        2
 70
     0
 43
0.0001332181640625
 10
-0.8873152568876637
 20
-0.1938201270961786
 10
-0.8273670830595381
 20
-0.2537683009243041
  0
LWPOLYLINE
  5
47D
330
18
100
AcDbEntity
  8
TEXT
100
AcDbPolyline
 90
        5
 70
     0
 43
0.0001332181640625
 10
-0.7207925518095375
 20
-0.3103860206508679
 10
-0.7341143682157863
 20
-0.3103860206508679
 10
-0.7341143682157863
 20
-0.3470210157680542
 10
-0.7707493633329761
 20
-0.3470210157680542
 10
-0.7707493633329761
 20
-0.3603428321743047
  0
LWPOLYLINE
  5
47E
330
18
100
AcDbEntity
  8
TEXT
100
AcDbPolyline
 90
        2
 70
     0
 43
0.0001332181640625
 10
-0.6741661943876625
 20
-0.3203773829555532
 10
-0.7341143682157863
 20
-0.3103860206508679
  0
LWPOLYLINE
  5
47F
330
18
100
AcDbEntity
  8
TEXT
100
AcDbPolyline
 90
        2
 70
     0
 43
0.0001332181640625
 10
-0.6475225615751615
 20
-0.3203773829555532
 10
-0.7207925518095375
 20
-0.3103860206508679
  0
LWPOLYLINE
  5
480
330
18
100
AcDbEntity
  8
TEXT
100
AcDbPolyline
 90
        3
 70
     0
 43
0.0006660908203125
 10
-0.7607580010282873
 20
-0.4336128224086809
 10
-0.6475225615751615
 20
-0.4336128224086809
 10
-0.6475225615751615
 20
-0.3203773829555532
  0
LWPOLYLINE
  5
481
330
18
100
AcDbEntity
  8
TEXT
100
AcDbPolyline
 90
        3
 70
     0
 43
0.0006660908203125
 10
-0.7607580010282873
 20
-0.4069691895961798
 10
-0.6741661943876625
 20
-0.4069691895961798
 10
-0.6741661943876625
 20
-0.3203773829555532
  0
LWPOLYLINE
  5
482
330
18
100
AcDbEntity
  8
TEXT
100
AcDbPolyline
 90
        2
 70
     0
 43
0.0001332181640625
 10
-0.6741661943876625
 20
-0.4069691895961798
 10
-0.7341143682157863
 20
-0.3470210157680542
  0
LWPOLYLINE
  5
483
330
18
100
AcDbEntity
  8
TEXT
100
AcDbPolyline
 90
        2
 70
     0
 43
0.0006660908203125
 10
-0.7607580010282873
 20
-0.4069691895961798
 10
-0.7607580010282873
 20
-0.4336128224086809
  0
LWPOLYLINE
  5
484
330
18
100
AcDbEntity
  8
TEXT
100
AcDbPolyline
 90
        2
 70
     0
 43
0.0001332181640625
 10
-0.7707493633329761
 20
-0.3603428321743047
 10
-0.7607580010282873
 20
-0.4336128224086809
  0
LWPOLYLINE
  5
485
330
18
100
AcDbEntity
  8
TEXT
100
AcDbPolyline
 90
        2
 70
     0
 43
0.0001332181640625
 10
-0.7607580010282873
 20
-0.4069691895961798
 10
-0.7707493633329761
 20
-0.3470210157680542
  0
LWPOLYLINE
  5
486
330
18
100
AcDbEntity
  8
TEXT
100
AcDbPolyline
 90
        2
 70
     0
 43
0.0001332181640625
 10
-0.8007234502470389
 20
-0.4336128224086809
 10
-0.7907320879423483
 20
-0.3603428321743047
  0
LWPOLYLINE
  5
487
330
18
100
AcDbEntity
  8
TEXT
100
AcDbPolyline
 90
        2
 70
     0
 43
0.0001332181640625
 10
-0.8007234502470389
 20
-0.4069691895961798
 10
-0.7907320879423483
 20
-0.3470210157680542
  0
LWPOLYLINE
  5
488
330
18
100
AcDbEntity
  8
TEXT
100
AcDbPolyline
 90
        2
 70
     0
 43
0.0006660908203125
 10
-0.8007234502470389
 20
-0.4069691895961798
 10
-0.8007234502470389
 20
-0.4336128224086809
  0
LWPOLYLINE
  5
489
330
18
100
AcDbEntity
  8
TEXT
100
AcDbPolyline
 90
        2
 70
     0
 43
0.0006660908203125
 10
-0.6741661943876625
 20
-0.3203773829555532
 10
-0.6475225615751615
 20
-0.3203773829555532
  0
LWPOLYLINE
  5
48A
330
18
100
AcDbEntity
  8
TEXT
100
AcDbPolyline
 90
        2
 70
     0
 43
0.0001332181640625
 10
-0.6741661943876625
 20
-0.1938201270961786
 10
-0.7341143682157863
 20
-0.2537683009243041
  0
LWPOLYLINE
  5
48B
330
18
100
AcDbEntity
  8
TEXT
100
AcDbPolyline
 90
        2
 70
     0
 43
0.0001332181640625
 10
-0.6741661943876625
 20
-0.2804119337368052
 10
-0.7341143682157863
 20
-0.2904032960414939
  0
LWPOLYLINE
  5
48C
330
18
100
AcDbEntity
  8
TEXT
100
AcDbPolyline
 90
        2
 70
     0
 43
0.0001332181640625
 10
-0.7207925518095375
 20
-0.2904032960414939
 10
-0.6475225615751615
 20
-0.2804119337368052
  0
LWPOLYLINE
  5
48D
330
18
100
AcDbEntity
  8
TEXT
100
AcDbPolyline
 90
        3
 70
     0
 43
0.0006660908203125
 10
-0.6741661943876625
 20
-0.2804119337368052
 10
-0.6741661943876625
 20
-0.1938201270961786
 10
-0.7607580010282873
 20
-0.1938201270961786
  0
LWPOLYLINE
  5
48E
330
18
100
AcDbEntity
  8
TEXT
100
AcDbPolyline
 90
        3
 70
     0
 43
0.0006660908203125
 10
-0.6475225615751615
 20
-0.2804119337368052
 10
-0.6475225615751615
 20
-0.1671764942836775
 10
-0.7607580010282873
 20
-0.1671764942836775
  0
LWPOLYLINE
  5
48F
330
18
100
AcDbEntity
  8
TEXT
100
AcDbPolyline
 90
        2
 70
     0
 43
0.0001332181640625
 10
-0.7607580010282873
 20
-0.1671764942836775
 10
-0.7707493633329761
 20
-0.2404464845180572
  0
LWPOLYLINE
  5
490
330
18
100
AcDbEntity
  8
TEXT
100
AcDbPolyline
 90
        2
 70
     0
 43
0.0001332181640625
 10
-0.7607580010282873
 20
-0.1938201270961786
 10
-0.7707493633329761
 20
-0.2537683009243041
  0
LWPOLYLINE
  5
491
330
18
100
AcDbEntity
  8
TEXT
100
AcDbPolyline
 90
        2
 70
     0
 43
0.0006660908203125
 10
-0.7607580010282873
 20
-0.1938201270961786
 10
-0.7607580010282873
 20
-0.1671764942836775
  0
LWPOLYLINE
  5
492
330
18
100
AcDbEntity
  8
TEXT
100
AcDbPolyline
 90
        5
 70
     0
 43
0.0001332181640625
 10
-0.7707493633329761
 20
-0.2404464845180572
 10
-0.7707493633329761
 20
-0.2537683009243041
 10
-0.7341143682157863
 20
-0.2537683009243041
 10
-0.7341143682157863
 20
-0.2904032960414939
 10
-0.7207925518095375
 20
-0.2904032960414939
  0
LWPOLYLINE
  5
493
330
18
100
AcDbEntity
  8
TEXT
100
AcDbPolyline
 90
        2
 70
     0
 43
0.0001332181640625
 10
-0.8007234502470389
 20
-0.1938201270961786
 10
-0.7907320879423483
 20
-0.2537683009243041
  0
LWPOLYLINE
  5
494
330
18
100
AcDbEntity
  8
TEXT
100
AcDbPolyline
 90
        2
 70
     0
 43
0.0001332181640625
 10
-0.7907320879423483
 20
-0.2404464845180572
 10
-0.8007234502470389
 20
-0.1671764942836775
  0
LWPOLYLINE
  5
495
330
18
100
AcDbEntity
  8
TEXT
100
AcDbPolyline
 90
        2
 70
     0
 43
0.0006660908203125
 10
-0.8007234502470389
 20
-0.1938201270961786
 10
-0.8007234502470389
 20
-0.1671764942836775
  0
LWPOLYLINE
  5
496
330
18
100
AcDbEntity
  8
TEXT
100
AcDbPolyline
 90
        2
 70
     0
 43
0.0006660908203125
 10
-0.6741661943876625
 20
-0.2804119337368052
 10
-0.6475225615751615
 20
-0.2804119337368052
  0
LWPOLYLINE
  5
497
330
18
100
AcDbEntity
  8
TEXT
100
AcDbPolyline
 90
        2
 70
     0
 43
0.0
 10
0.0712573591734689
 20
-0.3820981850572638
 42
0.3318488747599744
 10
0.1403766517387819
 20
-0.4336495272721921
 42
-6.868794160588311
  0
LINE
  5
498
330
18
100
AcDbEntity
  8
TEXT
100
AcDbLine
 10
0.1392370782425862
 20
-0.0991650165448706
 30
0.0
 11
0.0724283656762213
 21
-0.0991650165448706
 31
0.0
  0
LINE
  5
499
330
18
100
AcDbEntity
  8
TEXT
100
AcDbLine
 10
-0.2069140019428728
 20
-0.1671764942836811
 30
0.0
 11
-0.3826457548413842
 21
-0.1671764942836811
 31
0.0
  0
ARC
  5
49A
330
18
100
AcDbEntity
  8
TEXT
100
AcDbCircle
 10
-0.3118082884828346
 20
-0.350453718911635
 30
0.0
 40
0.0831958083605586
100
AcDbArc
 50
270.0
 51
90.0
  0
LINE
  5
49B
330
18
100
AcDbEntity
  8
TEXT
100
AcDbLine
 10
-0.3774084247271361
 20
-0.2314531889404465
 30
0.0
 11
-0.2105027706981657
 21
-0.2314531889404465
 31
0.0
  0
LINE
  5
49C
330
18
100
AcDbEntity
  8
TEXT
100
AcDbLine
 10
-0.3068679145765554
 20
-0.3652925209387527
 30
0.0
 11
-0.4647332142878895
 21
-0.3652925209387527
 31
0.0
  0
LINE
  5
49D
330
18
100
AcDbEntity
  8
TEXT
100
AcDbLine
 10
-0.4647332142878878
 20
-0.4336495272721921
 30
0.0
 11
-0.311808288482835
 21
-0.4336495272721921
 31
0.0
  0
ARC
  5
49E
330
18
100
AcDbEntity
  8
TEXT
100
AcDbCircle
 10
-0.3826457548413837
 20
-0.2492639537301828
 30
0.0
 40
0.0820874594465043
100
AcDbArc
 50
90.0
 51
270.0
  0
LINE
  5
49F
330
18
100
AcDbEntity
  8
TEXT
100
AcDbLine
 10
-0.4647332142878895
 20
-0.3652925209387527
 30
0.0
 11
-0.4647332142878878
 21
-0.4336495272721921
 31
0.0
  0
LINE
  5
4A0
330
18
100
AcDbEntity
  8
TEXT
100
AcDbLine
 10
-0.3826457548413842
 20
-0.3313514131766881
 30
0.0
 11
-0.3068679145765554
 21
-0.3313514131766881
 31
0.0
  0
ARC
  5
4A1
330
18
100
AcDbEntity
  8
TEXT
100
AcDbCircle
 10
-0.3068679145765549
 20
-0.3483219670577187
 30
0.0
 40
0.0169705538810321
100
AcDbArc
 50
270.0
 51
90.0
  0
LINE
  5
4A2
330
18
100
AcDbEntity
  8
TEXT
100
AcDbLine
 10
-0.311808288482835
 20
-0.2672579105510744
 30
0.0
 11
-0.3774084247271361
 21
-0.2672579105510744
 31
0.0
  0
ARC
  5
4A3
330
18
100
AcDbEntity
  8
TEXT
100
AcDbCircle
 10
-0.3774084247271356
 20
-0.2493555497457587
 30
0.0
 40
0.017902360805315
100
AcDbArc
 50
90.0
 51
270.0
  0
LINE
  5
4A4
330
18
100
AcDbEntity
  8
TEXT
100
AcDbLine
 10
-0.0164421099230205
 20
-0.2680484903968017
 30
0.0
 11
-0.0750724309549584
 21
-0.1671764942836811
 31
0.0
  0
LINE
  5
4A5
330
18
100
AcDbEntity
  8
TEXT
100
AcDbLine
 10
-0.15661616321806
 20
-0.4336495272721921
 30
0.0
 11
-0.0599759121430656
 21
-0.4333788881739098
 31
0.0
  0
LWPOLYLINE
  5
4A6
330
18
100
AcDbEntity
  8
TEXT
100
AcDbPolyline
 90
        6
 70
     1
 43
0.0
 10
-0.11409235964291
 20
-0.2314531889404465
 10
-0.1444089538631181
 20
-0.2314531889404465
 10
-0.1444089538631181
 20
-0.3545641869953409
 42
0.407328721240804
 10
-0.1328653027016418
 20
-0.3663831016717269
 10
-0.072243603656911
 20
-0.3663831016717269
 10
-0.054778263249593
 20
-0.3335708726282478
  0
LINE
  5
4A7
330
18
100
AcDbEntity
  8
TEXT
100
AcDbLine
 10
-0.2105027706981657
 20
-0.2314531889404465
 30
0.0
 11
-0.2105027706981657
 21
-0.3738571359341423
 31
0.0
  0
ARC
  5
4A8
330
18
100
AcDbEntity
  8
TEXT
100
AcDbCircle
 10
-0.1503867527244131
 20
-0.3738571359341423
 30
0.0
 40
0.0601160179737537
100
AcDbArc
 50
180.0000000000003
 51
264.0521544866073
  0
LINE
  5
4A9
330
18
100
AcDbEntity
  8
TEXT
100
AcDbLine
 10
-0.1468713970988658
 20
-0.1327885766895429
 30
0.0
 11
-0.2069140019428728
 21
-0.1327885766895429
 31
0.0
  0
LINE
  5
4AA
330
18
100
AcDbEntity
  8
TEXT
100
AcDbLine
 10
-0.2069140019428728
 20
-0.1327885766895429
 30
0.0
 11
-0.2069140019428728
 21
-0.1671764942836811
 31
0.0
  0
LINE
  5
4AB
330
18
100
AcDbEntity
  8
TEXT
100
AcDbLine
 10
-0.1468713970988658
 20
-0.1671764942836811
 30
0.0
 11
-0.1468713970988658
 21
-0.1327885766895429
 31
0.0
  0
LINE
  5
4AC
330
18
100
AcDbEntity
  8
TEXT
100
AcDbLine
 10
-0.0750724309549584
 20
-0.1671764942836811
 30
0.0
 11
-0.1468713970988658
 21
-0.1671764942836811
 31
0.0
  0
LINE
  5
4AD
330
18
100
AcDbEntity
  8
TEXT
100
AcDbLine
 10
-0.0260423469199749
 20
-0.4136910211671792
 30
0.0
 11
0.0712573591734698
 21
-0.249340810231911
 31
0.0
  0
LINE
  5
4AE
330
18
100
AcDbEntity
  8
TEXT
100
AcDbLine
 10
0.0712573591734698
 20
-0.249340810231911
 30
0.0
 11
0.0712573591734698
 21
-0.3820981850572673
 31
0.0
  0
ARC
  5
4AF
330
18
100
AcDbEntity
  8
TEXT
100
AcDbCircle
 10
-0.0600859068321884
 20
-0.3941018049984963
 30
0.0
 40
0.0392772371940762
100
AcDbArc
 50
270.1604552698595
 51
330.0831797321295
  0
LINE
  5
4B0
330
18
100
AcDbEntity
  8
TEXT
100
AcDbLine
 10
0.042306452882845
 20
-0.1671764942836811
 30
0.0
 11
-0.0164421099230205
 21
-0.2680484903968017
 31
0.0
  0
LINE
  5
4B1
330
18
100
AcDbEntity
  8
TEXT
100
AcDbLine
 10
0.0724283656762213
 20
-0.0991650165448706
 30
0.0
 11
0.0724283656762213
 21
-0.1671764942836811
 31
0.0
  0
LINE
  5
4B2
330
18
100
AcDbEntity
  8
TEXT
100
AcDbLine
 10
0.0724283656762213
 20
-0.1671764942836811
 30
0.0
 11
0.042306452882845
 21
-0.1671764942836811
 31
0.0
  0
LWPOLYLINE
  5
4B3
330
18
100
AcDbEntity
  8
TEXT
100
AcDbPolyline
 90
        4
 70
     0
 43
0.0
 10
0.4245144872963796
 20
-0.2390069781065565
 10
0.4245144872963796
 20
-0.4336495272721921
 10
0.4929927705842374
 20
-0.4336495272721921
 10
0.4929927705842374
 20
-0.3901585823217539
 42
-1.714843617202739
  0
LWPOLYLINE
  5
4B4
330
18
100
AcDbEntity
  8
TEXT
100
AcDbPolyline
 90
        2
 70
     0
 43
0.0
 10
0.4596488378405894
 20
-0.1671764942836775
 42
-0.3277054968067132
 10
0.4954305285537544
 20
-0.1954990400533214
 42
6.667889725900311
  0
LWPOLYLINE
  5
4B5
330
18
100
AcDbEntity
  8
TEXT
100
AcDbPolyline
 90
        2
 70
     0
 43
0.0
 10
0.2882152652613623
 20
-0.2314531889404465
 42
-0.4142135623731017
 10
0.2957690544274758
 20
-0.2390069781065565
 42
-0.9999999999999998
  0
LINE
  5
4B6
330
18
100
AcDbEntity
  8
TEXT
100
AcDbLine
 10
0.3055669883113827
 20
-0.1671764942836811
 30
0.0
 11
0.1715489323802464
 21
-0.1671764942836811
 31
0.0
  0
LINE
  5
4B7
330
18
100
AcDbEntity
  8
TEXT
100
AcDbLine
 10
0.2383799854382156
 20
-0.4336495272721921
 30
0.0
 11
0.2383799854382156
 21
-0.2314531889404465
 31
0.0
  0
LINE
  5
4B8
330
18
100
AcDbEntity
  8
TEXT
100
AcDbLine
 10
0.1715489323802464
 20
-0.1671764942836811
 30
0.0
 11
0.1715489323802464
 21
-0.3680407010160893
 31
0.0
  0
LINE
  5
4B9
330
18
100
AcDbEntity
  8
TEXT
100
AcDbLine
 10
0.1392370782425862
 20
-0.3512616891691929
 30
0.0
 11
0.1392370782425862
 21
-0.0991650165448706
 31
0.0
  0
LINE
  5
4BA
330
18
100
AcDbEntity
  8
TEXT
100
AcDbLine
 10
0.140376651738781
 20
-0.4336495272721921
 30
0.0
 11
0.2383799854382156
 21
-0.4336495272721921
 31
0.0
  0
LINE
  5
4BB
330
18
100
AcDbEntity
  8
TEXT
100
AcDbLine
 10
0.1715489323802464
 20
-0.3680407010160893
 30
0.0
 11
0.1545552954956451
 21
-0.3680407010160893
 31
0.0
  0
ARC
  5
4BC
330
18
100
AcDbEntity
  8
TEXT
100
AcDbCircle
 10
0.1545552954956442
 20
-0.3526588947726639
 30
0.0
 40
0.0153818062434269
100
AcDbArc
 50
174.7883570302258
 51
270.0
  0
LINE
  5
4BD
330
18
100
AcDbEntity
  8
TEXT
100
AcDbLine
 10
0.2383799854382156
 20
-0.2314531889404465
 30
0.0
 11
0.2882152652613632
 21
-0.2314531889404465
 31
0.0
  0
LINE
  5
4BE
330
18
100
AcDbEntity
  8
TEXT
100
AcDbLine
 10
0.2957690544274767
 20
-0.2390069781065565
 30
0.0
 11
0.2957690544274767
 21
-0.4336495272721921
 31
0.0
  0
LINE
  5
4BF
330
18
100
AcDbEntity
  8
TEXT
100
AcDbLine
 10
0.3628271012093167
 20
-0.4336495272721921
 30
0.0
 11
0.3628271012093167
 21
-0.2314531889404465
 31
0.0
  0
LINE
  5
4C0
330
18
100
AcDbEntity
  8
TEXT
100
AcDbLine
 10
0.2957690544274767
 20
-0.4336495272721921
 30
0.0
 11
0.3628271012093167
 21
-0.4336495272721921
 31
0.0
  0
LWPOLYLINE
  5
4C1
330
18
100
AcDbEntity
  8
TEXT
100
AcDbPolyline
 90
        3
 70
     0
 43
0.0
 10
0.4596488378405894
 20
-0.1671764942836775
 10
0.341348679024545
 20
-0.1671764942836775
 10
0.341348679024545
 20
-0.1943439910445734
 42
-1.960274751411753
  0
LINE
  5
4C2
330
18
100
AcDbEntity
  8
TEXT
100
AcDbLine
 10
0.3628271012093167
 20
-0.2314531889404465
 30
0.0
 11
0.416960698130267
 21
-0.2314531889404465
 31
0.0
  0
LWPOLYLINE
  5
4C3
330
18
100
AcDbEntity
  8
TEXT
100
AcDbPolyline
 90
        2
 70
     0
 43
0.0
 10
0.3055669883113836
 20
-0.1671764942836775
 42
-0.3328679258950098
 10
0.341348679024545
 20
-0.1943439910445734
 42
6.772930709997214
  0
LWPOLYLINE
  5
4C4
330
18
100
AcDbEntity
  8
TEXT
100
AcDbPolyline
 90
        2
 70
     0
 43
0.0
 10
0.4169606981302661
 20
-0.2314531889404465
 42
-0.4142135623731017
 10
0.4245144872963796
 20
-0.2390069781065565
 42
-0.9999999999999998
  0
ARC
  5
4C5
330
18
100
AcDbEntity
  8
TEXT
100
AcDbCircle
 10
0.6282354979937459
 20
-0.2087600614045835
 30
0.0
 40
0.0416329381542859
100
AcDbArc
 50
26.56974201007528
 51
87.20939649401342
  0
LWPOLYLINE
  5
4C6
330
18
100
AcDbEntity
  8
TEXT
100
AcDbPolyline
 90
        2
 70
     0
 43
0.0
 10
0.536068703451873
 20
-0.4336495272721921
 10
0.6700861210832496
 20
-0.4336495272721921
 42
0.9999999999999998
  0
LWPOLYLINE
  5
4C7
330
18
100
AcDbEntity
  8
TEXT
100
AcDbPolyline
 90
        4
 70
     1
 43
0.0
 10
0.6499636560133571
 20
-0.3306855492881668
 10
0.5613033373534986
 20
-0.3306855492881668
 42
0.9999999999999998
 10
0.5613033373534986
 20
-0.3730840897920276
 10
0.6499636560133571
 20
-0.3730840897920276
 42
1.0
  0
LWPOLYLINE
  5
4C8
330
18
100
AcDbEntity
  8
TEXT
100
AcDbPolyline
 90
        2
 70
     0
 43
0.0
 10
0.4929927705842374
 20
-0.3901585823217539
 42
0.2901071551932823
 10
0.536068703451873
 20
-0.4336495272721921
 42
5.328517124445801
  0
LINE
  5
4C9
330
18
100
AcDbEntity
  8
TEXT
100
AcDbLine
 10
0.6302624377708144
 20
-0.1671764942836811
 30
0.0
 11
0.4954305285537553
 21
-0.1671764942836811
 31
0.0
  0
LINE
  5
4CA
330
18
100
AcDbEntity
  8
TEXT
100
AcDbLine
 10
0.554744624947074
 20
-0.2687281624025788
 30
0.0
 11
0.6370326147304573
 21
-0.2687281624025788
 31
0.0
  0
LINE
  5
4CB
330
18
100
AcDbEntity
  8
TEXT
100
AcDbLine
 10
0.6012315394263359
 20
-0.2314531889404465
 30
0.0
 11
0.4940252660390465
 21
-0.2314531889404465
 31
0.0
  0
LINE
  5
4CC
330
18
100
AcDbEntity
  8
TEXT
100
AcDbLine
 10
0.4954305285537553
 20
-0.1671764942836811
 30
0.0
 11
0.4954305285537553
 21
-0.195499040053325
 31
0.0
  0
ARC
  5
4CD
330
18
100
AcDbEntity
  8
TEXT
100
AcDbCircle
 10
0.5547446249470731
 20
-0.3364137435466974
 30
0.0
 40
0.0676855811441166
100
AcDbArc
 50
90.0
 51
153.7768192527749
  0
LINE
  5
4CE
330
18
100
AcDbEntity
  8
TEXT
100
AcDbLine
 10
0.4940252660390465
 20
-0.2314531889404465
 30
0.0
 11
0.4940252660390465
 21
-0.3065055950146531
 31
0.0
  0
LINE
  5
4CF
330
18
100
AcDbEntity
  8
TEXT
100
AcDbLine
 10
0.6370326147304573
 20
-0.2687281624025788
 30
0.0
 11
0.6267678543168929
 21
-0.2474776228298845
 31
0.0
  0
ARC
  5
4D0
330
18
100
AcDbEntity
  8
TEXT
100
AcDbCircle
 10
0.601231539426335
 20
-0.2598125639404438
 30
0.0
 40
0.028359375
100
AcDbArc
 50
25.78218179591245
 51
90.0
  0
LINE
  5
4D1
330
18
100
AcDbEntity
  8
TEXT
100
AcDbLine
 10
0.771517267786229
 20
-0.4336495272721921
 30
0.0
 11
0.7715172677862237
 21
-0.2563590218407237
 31
0.0
  0
LWPOLYLINE
  5
4D2
330
18
100
AcDbEntity
  8
TEXT
100
AcDbPolyline
 90
        2
 70
     0
 43
0.0
 10
0.7131620539508941
 20
-0.4336495272721921
 10
0.7715172677862281
 20
-0.4336495272721921
  0
LWPOLYLINE
  5
4D3
330
18
100
AcDbEntity
  8
TEXT
100
AcDbPolyline
 90
        2
 70
     0
 43
0.0
 10
0.7131620539508941
 20
-0.3901585823217539
 42
-0.2901071551932486
 10
0.6700861210832496
 20
-0.4336495272721921
 42
-5.328517124445184
  0
LWPOLYLINE
  5
4D4
330
18
100
AcDbEntity
  8
TEXT
100
AcDbPolyline
 90
        2
 70
     0
 43
0.0
 10
0.7131620539508941
 20
-0.3901585823217539
 10
0.7131620539508941
 20
-0.4336495272721921
  0
LINE
  5
4D5
330
18
100
AcDbEntity
  8
TEXT
100
AcDbLine
 10
0.7731192829453564
 20
-0.1671764942836811
 30
0.0
 11
0.7092223766458555
 21
-0.1671764942836811
 31
0.0
  0
LINE
  5
4D6
330
18
100
AcDbEntity
  8
TEXT
100
AcDbLine
 10
0.7092223766458555
 20
-0.1671764942836811
 30
0.0
 11
0.7092223766458555
 21
-0.2723884728371084
 31
0.0
  0
LINE
  5
4D7
330
18
100
AcDbEntity
  8
TEXT
100
AcDbLine
 10
0.7092223766458555
 20
-0.2723884728371084
 30
0.0
 11
0.6654716054639538
 21
-0.1901381968409632
 31
0.0
  0
ARC
  5
4D8
330
18
100
AcDbEntity
  8
TEXT
100
AcDbCircle
 10
0.7964231430688873
 20
-0.2563590642231093
 30
0.0
 40
0.0249058752826653
100
AcDbArc
 50
89.99971217465335
 51
179.9999999999985
  0
ARC
  5
4D9
330
18
100
AcDbEntity
  8
TEXT
100
AcDbCircle
 10
0.8043121000084649
 20
-0.1984222215659459
 30
0.0
 40
0.0314112657011332
100
AcDbArc
 50
95.88484768694724
 51
173.2388340632136
  0
LINE
  5
4DA
330
18
100
AcDbEntity
  8
TEXT
100
AcDbLine
 10
0.7731192829453564
 20
-0.1947241441445557
 30
0.0
 11
0.7731192829453564
 21
-0.1671764942836811
 31
0.0
  0
TEXT
  5
4DB
330
18
100
AcDbEntity
  8
TEXT
100
AcDbText
 10
1.241994802367146
 20
-0.3407637186266958
 30
0.0
 40
0.0522247191011236
  1
Minneapolis, MN 55432-0008
 41
1.11444212721585
 72
     5
 11
2.57092738663681
 21
-0.3407637186266958
 31
0.0
100
AcDbText
  0
TEXT
  5
4DC
330
18
100
AcDbEntity
  8
TEXT
100
AcDbText
 10
1.241994802367146
 20
-0.2475052916604037
 30
0.0
 40
0.0522247191011236
  1
6536 Main St. N.E. * P.O. Box 32008
 41
0.8388932496075369
 72
     5
 11
2.57092738663681
 21
-0.2475052916604037
 31
0.0
100
AcDbText
  0
TEXT
  5
4DD
330
18
100
AcDbEntity
  8
TEXT
100
AcDbText
 10
1.241994802367146
 20
-0.1542468646941115
 30
0.0
 40
0.0522247191011236
  1
Stylmark  Incorporated
 41
1.221428571428571
 72
     5
 11
2.57092738663681
 21
-0.1542468646941115
 31
0.0
100
AcDbText
  0
TEXT
  5
4DE
330
18
100
AcDbEntity
  8
TEXT
100
AcDbText
 10
1.241994802367146
 20
-0.4340221455929881
 30
0.0
 40
0.0522247191011236
  1
Phone  1-800-328-2495
 41
1.272321428571429
 72
     5
 11
2.57092738663681
 21
-0.4340221455929881
 31
0.0
100
AcDbText
  0
LINE
  5
4DF
330
18
100
AcDbEntity
  8
TEXT
100
AcDbLine
 10
0.9944389909041317
 20
-0.2770697372246547
 30
0.0
 11
1.058996106869837
 21
-0.1671764942836811
 31
0.0
  0
LINE
  5
4E0
330
18
100
AcDbEntity
  8
TEXT
100
AcDbLine
 10
1.058996106869837
 20
-0.1671764942836811
 30
0.0
 11
0.9840042741402106
 21
-0.1671764942836811
 31
0.0
  0
LINE
  5
4E1
330
18
100
AcDbEntity
  8
TEXT
100
AcDbLine
 10
1.013352841891536
 20
-0.4336495272721921
 30
0.0
 11
1.089931214267742
 21
-0.4336495272721921
 31
0.0
  0
LINE
  5
4E2
330
18
100
AcDbEntity
  8
TEXT
100
AcDbLine
 10
1.089931214267742
 20
-0.4336495272721921
 30
0.0
 11
0.9944389909041317
 21
-0.2770697372246547
 31
0.0
  0
LINE
  5
4E3
330
18
100
AcDbEntity
  8
TEXT
100
AcDbLine
 10
0.9374493086800717
 20
-0.4336495272721921
 30
0.0
 11
0.9374493086800717
 21
-0.3020699587960118
 31
0.0
  0
LINE
  5
4E4
330
18
100
AcDbEntity
  8
TEXT
100
AcDbLine
 10
0.9374493086800717
 20
-0.3020699587960118
 30
0.0
 11
1.013352841891536
 21
-0.4336495272721921
 31
0.0
  0
LINE
  5
4E5
330
18
100
AcDbEntity
  8
TEXT
100
AcDbLine
 10
0.8730711243614459
 20
-0.2314531889404465
 30
0.0
 11
0.8730711243614512
 21
-0.4336495272721921
 31
0.0
  0
LINE
  5
4E6
330
18
100
AcDbEntity
  8
TEXT
100
AcDbLine
 10
0.8730711243614512
 20
-0.4336495272721921
 30
0.0
 11
0.9374493086800717
 21
-0.4336495272721921
 31
0.0
  0
LINE
  5
4E7
330
18
100
AcDbEntity
  8
TEXT
100
AcDbLine
 10
0.9369061155842244
 20
-0.1017122885160804
 30
0.0
 11
0.8685912370349511
 21
-0.1017122885160804
 31
0.0
  0
LINE
  5
4E8
330
18
100
AcDbEntity
  8
TEXT
100
AcDbLine
 10
0.8685912370349511
 20
-0.1017122885160804
 30
0.0
 11
0.8685912370349457
 21
-0.1671764942836811
 31
0.0
  0
LINE
  5
4E9
330
18
100
AcDbEntity
  8
TEXT
100
AcDbLine
 10
0.9840042741402088
 20
-0.1671764942836811
 30
0.0
 11
0.9369061155842244
 21
-0.2430418206952192
 31
0.0
  0
LINE
  5
4EA
330
18
100
AcDbEntity
  8
TEXT
100
AcDbLine
 10
0.9369061155842244
 20
-0.2430418206952192
 30
0.0
 11
0.9369061155842244
 21
-0.1017122885160804
 31
0.0
  0
ENDSEC
  0
SECTION
  2
OBJECTS
  0
DICTIONARY
  5
C
330
0
100
AcDbDictionary
  3
ACAD_GROUP
350
D
  3
ACAD_LAYOUT
350
4EF
  3
ACAD_MLINESTYLE
350
E
  3
ACAD_PLOTSETTINGS
350
4F0
  3
ACAD_PLOTSTYLENAME
350
4ED
  3
ACDBHEADERROUNDTRIPXREC
350
4FB
  3
ACDBVARIABLEDICTIONARY
350
4F8
  0
DICTIONARY
  5
51D
330
18
100
AcDbDictionary
280
     1
  3
ACAD_LAYOUTSELFREF
360
51E
  0
DICTIONARY
  5
51B
330
15
100
AcDbDictionary
280
     1
  3
ACAD_LAYOUTSELFREF
360
51C
  0
DICTIONARY
  5
D
102
{ACAD_REACTORS
330
C
102
}
330
C
100
AcDbDictionary
  0
DICTIONARY
  5
4EF
102
{ACAD_REACTORS
330
C
102
}
330
C
100
AcDbDictionary
  0
DICTIONARY
  5
E
102
{ACAD_REACTORS
330
C
102
}
330
C
100
AcDbDictionary
  3
STANDARD
350
1B
  0
DICTIONARY
  5
4F0
102
{ACAD_REACTORS
330
C
102
}
330
C
100
AcDbDictionary
  0
ACDBDICTIONARYWDFLT
  5
4ED
102
{ACAD_REACTORS
330
C
102
}
330
C
100
AcDbDictionary
281
     1
  3
Normal
350
4EE
100
AcDbDictionaryWithDefault
340
4EE
  0
DICTIONARY
  5
4FB
102
{ACAD_REACTORS
330
C
102
}
330
C
100
AcDbDictionary
  3
CEPSNTYPE
350
505
  3
FINGERPRINTGUID
350
506
  3
HYPERLINKBASE
350
4FE
  3
INSUNITS
350
504
  3
LAYOUTDICT
350
500
  3
LWETCUNION
350
503
  3
PLOTSETDICT
350
501
  3
PLOTSTYLNAMDICT
350
502
  3
PSVPSCALE
350
508
  3
PUCSBASE
350
50B
  3
PUCSORGBACK
350
511
  3
PUCSORGBOTTOM
350
50D
  3
PUCSORGFRONT
350
510
  3
PUCSORGLEFT
350
50E
  3
PUCSORGRIGHT
350
50F
  3
PUCSORGTOP
350
50C
  3
PUCSORTHOREF
350
509
  3
PUCSORTHOVIEW
350
50A
  3
STYLESHEET
350
4FF
  3
TSTACKALIGN
350
4FC
  3
TSTACKSIZE
350
4FD
  3
UCSBASE
350
514
  3
UCSORGBACK
350
51A
  3
UCSORGBOTTOM
350
516
  3
UCSORGFRONT
350
519
  3
UCSORGLEFT
350
517
  3
UCSORGRIGHT
350
518
  3
UCSORGTOP
350
515
  3
UCSORTHOREF
350
512
  3
UCSORTHOVIEW
350
513
  3
VERSIONGUID
350
507
  0
DICTIONARY
  5
4F8
102
{ACAD_REACTORS
330
C
102
}
330
C
100
AcDbDictionary
  3
DIMASSOC
350
4F9
  0
XRECORD
  5
51E
102
{ACAD_REACTORS
330
51D
102
}
330
51D
100
AcDbXrecord
340
18
  0
XRECORD
  5
51C
102
{ACAD_REACTORS
330
51B
102
}
330
51B
100
AcDbXrecord
340
15
  0
MLINESTYLE
  5
1B
102
{ACAD_REACTORS
330
E
102
}
330
E
100
AcDbMlineStyle
  2
STANDARD
 70
     0
  3

 62
     0
 51
90.0
 52
90.0
 71
     2
 49
0.5
 62
   256
  6
BYLAYER
 49
-0.5
 62
   256
  6
BYLAYER
  0
ACDBPLACEHOLDER
  5
4EE
102
{ACAD_REACTORS
330
4ED
102
}
330
4ED
100
AcDbPlaceHolder
280
     0
  0
XRECORD
  5
505
102
{ACAD_REACTORS
330
4FB
102
}
330
4FB
100
AcDbXrecord
 90
        0
  0
XRECORD
  5
506
102
{ACAD_REACTORS
330
4FB
102
}
330
4FB
100
AcDbXrecord
  1
{E6C12870-8DB5-11D6-88E6-0090279574E7}
  0
XRECORD
  5
4FE
102
{ACAD_REACTORS
330
4FB
102
}
330
4FB
100
AcDbXrecord
  1

  0
XRECORD
  5
504
102
{ACAD_REACTORS
330
4FB
102
}
330
4FB
100
AcDbXrecord
 90
        0
  0
XRECORD
  5
500
102
{ACAD_REACTORS
330
4FB
102
}
330
4FB
100
AcDbXrecord
340
4EF
  0
XRECORD
  5
503
102
{ACAD_REACTORS
330
4FB
102
}
330
4FB
100
AcDbXrecord
 90
    14877
  0
XRECORD
  5
501
102
{ACAD_REACTORS
330
4FB
102
}
330
4FB
100
AcDbXrecord
340
4F0
  0
XRECORD
  5
502
102
{ACAD_REACTORS
330
4FB
102
}
330
4FB
100
AcDbXrecord
340
4ED
  0
XRECORD
  5
508
102
{ACAD_REACTORS
330
4FB
102
}
330
4FB
100
AcDbXrecord
 40
0.0
  0
XRECORD
  5
50B
102
{ACAD_REACTORS
330
4FB
102
}
330
4FB
100
AcDbXrecord
340
0
  0
XRECORD
  5
511
102
{ACAD_REACTORS
330
4FB
102
}
330
4FB
100
AcDbXrecord
 10
0.0
 20
0.0
 30
0.0
  0
XRECORD
  5
50D
102
{ACAD_REACTORS
330
4FB
102
}
330
4FB
100
AcDbXrecord
 10
0.0
 20
0.0
 30
0.0
  0
XRECORD
  5
510
102
{ACAD_REACTORS
330
4FB
102
}
330
4FB
100
AcDbXrecord
 10
0.0
 20
0.0
 30
0.0
  0
XRECORD
  5
50E
102
{ACAD_REACTORS
330
4FB
102
}
330
4FB
100
AcDbXrecord
 10
0.0
 20
0.0
 30
0.0
  0
XRECORD
  5
50F
102
{ACAD_REACTORS
330
4FB
102
}
330
4FB
100
AcDbXrecord
 10
0.0
 20
0.0
 30
0.0
  0
XRECORD
  5
50C
102
{ACAD_REACTORS
330
4FB
102
}
330
4FB
100
AcDbXrecord
 10
0.0
 20
0.0
 30
0.0
  0
XRECORD
  5
509
102
{ACAD_REACTORS
330
4FB
102
}
330
4FB
100
AcDbXrecord
340
0
  0
XRECORD
  5
50A
102
{ACAD_REACTORS
330
4FB
102
}
330
4FB
100
AcDbXrecord
 70
     0
  0
XRECORD
  5
4FF
102
{ACAD_REACTORS
330
4FB
102
}
330
4FB
100
AcDbXrecord
  1

  0
XRECORD
  5
4FC
102
{ACAD_REACTORS
330
4FB
102
}
330
4FB
100
AcDbXrecord
 90
        1
  0
XRECORD
  5
4FD
102
{ACAD_REACTORS
330
4FB
102
}
330
4FB
100
AcDbXrecord
 90
       70
  0
XRECORD
  5
514
102
{ACAD_REACTORS
330
4FB
102
}
330
4FB
100
AcDbXrecord
340
0
  0
XRECORD
  5
51A
102
{ACAD_REACTORS
330
4FB
102
}
330
4FB
100
AcDbXrecord
 10
0.0
 20
0.0
 30
0.0
  0
XRECORD
  5
516
102
{ACAD_REACTORS
330
4FB
102
}
330
4FB
100
AcDbXrecord
 10
0.0
 20
0.0
 30
0.0
  0
XRECORD
  5
519
102
{ACAD_REACTORS
330
4FB
102
}
330
4FB
100
AcDbXrecord
 10
0.0
 20
0.0
 30
0.0
  0
XRECORD
  5
517
102
{ACAD_REACTORS
330
4FB
102
}
330
4FB
100
AcDbXrecord
 10
0.0
 20
0.0
 30
0.0
  0
XRECORD
  5
518
102
{ACAD_REACTORS
330
4FB
102
}
330
4FB
100
AcDbXrecord
 10
0.0
 20
0.0
 30
0.0
  0
XRECORD
  5
515
102
{ACAD_REACTORS
330
4FB
102
}
330
4FB
100
AcDbXrecord
 10
0.0
 20
0.0
 30
0.0
  0
XRECORD
  5
512
102
{ACAD_REACTORS
330
4FB
102
}
330
4FB
100
AcDbXrecord
340
0
  0
XRECORD
  5
513
102
{ACAD_REACTORS
330
4FB
102
}
330
4FB
100
AcDbXrecord
 70
     0
  0
XRECORD
  5
507
102
{ACAD_REACTORS
330
4FB
102
}
330
4FB
100
AcDbXrecord
  1
{E6C12872-8DB5-11D6-88E6-0090279574E7}
  0
DICTIONARYVAR
  5
4F9
102
{ACAD_REACTORS
330
4F8
102
}
330
4F8
100
DictionaryVariables
280
     0
  1
1
  0
ENDSEC
  0
EOF
