  0
SECTION
  2
HEADER
  9
$ACADVER
  1
AC1014
  9
$ACADMAINTVER
 70
     9
  9
$DWGCODEPAGE
  3
ANSI_1252
  9
$INSBASE
 10
0.0
 20
0.0
 30
0.0
  9
$EXTMIN
 10
-1.135744310514223
 20
-0.5233439322019996
 30
0.0
  9
$EXTMAX
 10
2.349475011232906
 20
0.797075535674209
 30
0.0
  9
$LIMMIN
 10
0.0
 20
0.0
  9
$LIMMAX
 10
8.5
 20
11.0
  9
$ORTHOMODE
 70
     1
  9
$REGENMODE
 70
     1
  9
$FILLMODE
 70
     1
  9
$QTEXTMODE
 70
     0
  9
$MIRRTEXT
 70
     0
  9
$DRAGMODE
 70
     2
  9
$LTSCALE
 40
0.5
  9
$OSMODE
 70
    39
  9
$ATTMODE
 70
     1
  9
$TEXTSIZE
 40
0.125
  9
$TRACEWID
 40
0.05
  9
$TEXTSTYLE
  7
ROMANS
  9
$CLAYER
  8
DIMENSIONS
  9
$CELTYPE
  6
BYLAYER
  9
$CECOLOR
 62
   256
  9
$CELTSCALE
 40
1.0
  9
$DELOBJ
 70
     1
  9
$DISPSILH
 70
     1
  9
$DIMSCALE
 40
1.0
  9
$DIMASZ
 40
0.125
  9
$DIMEXO
 40
0.125
  9
$DIMDLI
 40
0.375
  9
$DIMRND
 40
0.0
  9
$DIMDLE
 40
0.0
  9
$DIMEXE
 40
0.125
  9
$DIMTP
 40
0.01
  9
$DIMTM
 40
0.01
  9
$DIMTXT
 40
0.125
  9
$DIMCEN
 40
-0.125
  9
$DIMTSZ
 40
0.0
  9
$DIMTOL
 70
     0
  9
$DIMLIM
 70
     0
  9
$DIMTIH
 70
     1
  9
$DIMTOH
 70
     1
  9
$DIMSE1
 70
     0
  9
$DIMSE2
 70
     1
  9
$DIMTAD
 70
     0
  9
$DIMZIN
 70
     4
  9
$DIMBLK
  1

  9
$DIMASO
 70
     1
  9
$DIMSHO
 70
     1
  9
$DIMPOST
  1

  9
$DIMAPOST
  1

  9
$DIMALT
 70
     0
  9
$DIMALTD
 70
     2
  9
$DIMALTF
 40
25.4
  9
$DIMLFAC
 40
0.5
  9
$DIMTOFL
 70
     0
  9
$DIMTVP
 40
0.0
  9
$DIMTIX
 70
     0
  9
$DIMSOXD
 70
     0
  9
$DIMSAH
 70
     0
  9
$DIMBLK1
  1

  9
$DIMBLK2
  1

  9
$DIMSTYLE
  2
STANDARD
  9
$DIMCLRD
 70
     0
  9
$DIMCLRE
 70
     0
  9
$DIMCLRT
 70
     0
  9
$DIMTFAC
 40
1.0
  9
$DIMGAP
 40
0.09
  9
$DIMJUST
 70
     0
  9
$DIMSD1
 70
     0
  9
$DIMSD2
 70
     0
  9
$DIMTOLJ
 70
     1
  9
$DIMTZIN
 70
     0
  9
$DIMALTZ
 70
     0
  9
$DIMALTTZ
 70
     0
  9
$DIMFIT
 70
     3
  9
$DIMUPT
 70
     0
  9
$DIMUNIT
 70
     2
  9
$DIMDEC
 70
     3
  9
$DIMTDEC
 70
     4
  9
$DIMALTU
 70
     2
  9
$DIMALTTD
 70
     2
  9
$DIMTXSTY
  7
ROMANS
  9
$DIMAUNIT
 70
     0
  9
$LUNITS
 70
     2
  9
$LUPREC
 70
     3
  9
$SKETCHINC
 40
0.1
  9
$FILLETRAD
 40
0.031
  9
$AUNITS
 70
     0
  9
$AUPREC
 70
     0
  9
$MENU
  1
AUTOMSTR
  9
$ELEVATION
 40
0.0
  9
$PELEVATION
 40
0.0
  9
$THICKNESS
 40
0.0
  9
$LIMCHECK
 70
     0
  9
$BLIPMODE
 70
     0
  9
$CHAMFERA
 40
0.0
  9
$CHAMFERB
 40
0.0
  9
$CHAMFERC
 40
0.0
  9
$CHAMFERD
 40
0.0
  9
$SKPOLY
 70
     0
  9
$TDCREATE
 40
2448098.730312616
  9
$TDUPDATE
 40
2452458.304868333
  9
$TDINDWG
 40
0.0979708449
  9
$TDUSRTIMER
 40
0.0979708449
  9
$USRTIMER
 70
     1
  9
$ANGBASE
 50
0.0
  9
$ANGDIR
 70
     0
  9
$PDMODE
 70
     0
  9
$PDSIZE
 40
0.0
  9
$PLINEWID
 40
0.0
  9
$COORDS
 70
     2
  9
$SPLFRAME
 70
     0
  9
$SPLINETYPE
 70
     6
  9
$SPLINESEGS
 70
     8
  9
$ATTDIA
 70
     0
  9
$ATTREQ
 70
     1
  9
$HANDLING
 70
 22529
  9
$HANDSEED
  5
53F
  9
$SURFTAB1
 70
     6
  9
$SURFTAB2
 70
     6
  9
$SURFTYPE
 70
     6
  9
$SURFU
 70
     6
  9
$SURFV
 70
     6
  9
$UCSNAME
  2

  9
$UCSORG
 10
0.0
 20
0.0
 30
0.0
  9
$UCSXDIR
 10
1.0
 20
0.0
 30
0.0
  9
$UCSYDIR
 10
0.0
 20
1.0
 30
0.0
  9
$PUCSNAME
  2

  9
$PUCSORG
 10
0.0
 20
0.0
 30
0.0
  9
$PUCSXDIR
 10
1.0
 20
0.0
 30
0.0
  9
$PUCSYDIR
 10
0.0
 20
1.0
 30
0.0
  9
$USERI1
 70
     0
  9
$USERI2
 70
     0
  9
$USERI3
 70
     0
  9
$USERI4
 70
     0
  9
$USERI5
 70
     0
  9
$USERR1
 40
0.0
  9
$USERR2
 40
0.0
  9
$USERR3
 40
0.0
  9
$USERR4
 40
0.0
  9
$USERR5
 40
0.0
  9
$WORLDVIEW
 70
     1
  9
$SHADEDGE
 70
     3
  9
$SHADEDIF
 70
    70
  9
$TILEMODE
 70
     1
  9
$MAXACTVP
 70
    16
  9
$PINSBASE
 10
0.0
 20
0.0
 30
0.0
  9
$PLIMCHECK
 70
     0
  9
$PEXTMIN
 10
1.000000000000000E+20
 20
1.000000000000000E+20
 30
1.000000000000000E+20
  9
$PEXTMAX
 10
-1.000000000000000E+20
 20
-1.000000000000000E+20
 30
-1.000000000000000E+20
  9
$PLIMMIN
 10
0.0
 20
0.0
  9
$PLIMMAX
 10
12.0
 20
9.0
  9
$UNITMODE
 70
     0
  9
$VISRETAIN
 70
     0
  9
$PLINEGEN
 70
     1
  9
$PSLTSCALE
 70
     0
  9
$TREEDEPTH
 70
  3020
  9
$PICKSTYLE
 70
     1
  9
$CMLSTYLE
  2
STANDARD
  9
$CMLJUST
 70
     0
  9
$CMLSCALE
 40
1.0
  9
$PROXYGRAPHICS
 70
     1
  9
$MEASUREMENT
 70
     0
  0
ENDSEC
  0
SECTION
  2
CLASSES
  0
CLASS
  1
LWPOLYLINE
  2
AcDbPolyline
  3
AutoCAD 2000
 90
        0
280
     0
281
     1
  0
CLASS
  1
ACDBDICTIONARYWDFLT
  2
AcDbDictionaryWithDefault
  3
AutoCAD 2000
 90
        0
280
     0
281
     0
  0
CLASS
  1
ACDBPLACEHOLDER
  2
AcDbPlaceHolder
  3
AutoCAD 2000
 90
        0
280
     0
281
     0
  0
CLASS
  1
LAYOUT
  2
AcDbLayout
  3
AutoCAD 2000
 90
        0
280
     0
281
     0
  0
CLASS
  1
DICTIONARYVAR
  2
AcDbDictionaryVar
  3
AutoCAD 2000
 90
        0
280
     0
281
     0
  0
CLASS
  1
LONG_TRANSACTION
  2
AcDbLongTransaction
  3
AutoCAD 2000
 90
        0
280
     0
281
     0
  0
CLASS
  1
LWPOLYLINE
  2
AcDbPolyline
  3
AutoCAD 2000
 90
        0
280
     0
281
     1
  0
CLASS
  1
HATCH
  2
AcDbHatch
  3
AutoCAD 2000
 90
        0
280
     0
281
     1
  0
CLASS
  1
XRECORD
  2
AcDbXrecord
  3
AutoCAD 2000
 90
        0
280
     0
281
     0
  0
ENDSEC
  0
SECTION
  2
TABLES
  0
TABLE
  2
VPORT
  5
8
330
0
100
AcDbSymbolTable
 70
     2
  0
VPORT
  5
51A
330
8
100
AcDbSymbolTableRecord
100
AcDbViewportTableRecord
  2
*ACTIVE
 70
     0
 10
0.0
 20
0.0
 11
1.0
 21
1.0
 12
3.529107017382294
 22
0.1366007396958633
 13
0.0
 23
0.0
 14
0.25
 24
0.25
 15
0.0
 25
0.0
 16
0.0
 26
0.0
 36
1.0
 17
0.0
 27
0.0
 37
0.0
 40
2.163783105556754
 41
4.320930232558139
 42
50.0
 43
0.0
 44
0.0
 50
0.0
 51
0.0
 71
     0
 72
  2000
 73
     1
 74
     1
 75
     0
 76
     0
 77
     0
 78
     0
  0
ENDTAB
  0
TABLE
  2
LTYPE
  5
5
330
0
100
AcDbSymbolTable
 70
     1
  0
LTYPE
  5
12
330
5
100
AcDbSymbolTableRecord
100
AcDbLinetypeTableRecord
  2
BYBLOCK
 70
     0
  3

 72
    65
 73
     0
 40
0.0
  0
LTYPE
  5
13
330
5
100
AcDbSymbolTableRecord
100
AcDbLinetypeTableRecord
  2
BYLAYER
 70
     0
  3

 72
    65
 73
     0
 40
0.0
  0
LTYPE
  5
14
330
5
100
AcDbSymbolTableRecord
100
AcDbLinetypeTableRecord
  2
CONTINUOUS
 70
     0
  3
Solid line
 72
    65
 73
     0
 40
0.0
  0
ENDTAB
  0
TABLE
  2
LAYER
  5
2
330
0
100
AcDbSymbolTable
 70
     3
  0
LAYER
  5
F
330
2
100
AcDbSymbolTableRecord
100
AcDbLayerTableRecord
  2
0
 70
     0
 62
     7
  6
CONTINUOUS
  0
LAYER
  5
31
330
2
100
AcDbSymbolTableRecord
100
AcDbLayerTableRecord
  2
DIMENSIONS
 70
     0
 62
     4
  6
CONTINUOUS
  0
LAYER
  5
32
330
2
100
AcDbSymbolTableRecord
100
AcDbLayerTableRecord
  2
TEXT
 70
     0
 62
     3
  6
CONTINUOUS
  0
ENDTAB
  0
TABLE
  2
STYLE
  5
3
330
0
100
AcDbSymbolTable
 70
     3
  0
STYLE
  5
10
330
3
100
AcDbSymbolTableRecord
100
AcDbTextStyleTableRecord
  2
STANDARD
 70
     0
 40
0.0
 41
1.0
 50
0.0
 71
     0
 42
0.125
  3
txt
  4

  0
STYLE
  5
406
330
3
100
AcDbSymbolTableRecord
100
AcDbTextStyleTableRecord
  2
ITALICC
 70
     0
 40
0.0
 41
1.0
 50
0.0
 71
     0
 42
0.125
  3
italicc
  4

  0
STYLE
  5
516
330
3
100
AcDbSymbolTableRecord
100
AcDbTextStyleTableRecord
  2
ROMANS
 70
     0
 40
0.0
 41
1.0
 50
0.0
 71
     0
 42
0.125
  3
romans.shx
  4

  0
ENDTAB
  0
TABLE
  2
VIEW
  5
6
330
0
100
AcDbSymbolTable
 70
     0
  0
ENDTAB
  0
TABLE
  2
UCS
  5
7
330
0
100
AcDbSymbolTable
 70
     0
  0
ENDTAB
  0
TABLE
  2
APPID
  5
9
330
0
100
AcDbSymbolTable
 70
     1
  0
APPID
  5
11
330
9
100
AcDbSymbolTableRecord
100
AcDbRegAppTableRecord
  2
ACAD
 70
     0
  0
ENDTAB
  0
TABLE
  2
DIMSTYLE
  5
A
330
0
100
AcDbSymbolTable
 70
     1
  0
DIMSTYLE
105
3FA
330
A
100
AcDbSymbolTableRecord
100
AcDbDimStyleTableRecord
  2
STANDARD
 70
     0
  3

  4

  5

  6

  7

 40
1.0
 41
0.18
 42
0.0625
 43
0.38
 44
0.18
 45
0.0
 46
0.0
 47
0.0
 48
0.0
140
0.18
141
0.09
142
0.0
143
25.4
144
1.0
145
0.0
146
1.0
147
0.09
 71
     0
 72
     0
 73
     1
 74
     1
 75
     0
 76
     0
 77
     0
 78
     0
170
     0
171
     2
172
     0
173
     0
174
     0
175
     0
176
     0
177
     0
178
     0
270
     2
271
     4
272
     4
273
     2
274
     2
340
10
275
     0
280
     0
281
     0
282
     0
283
     1
284
     0
285
     0
286
     0
287
     3
288
     0
  0
ENDTAB
  0
TABLE
  2
BLOCK_RECORD
  5
1
330
0
100
AcDbSymbolTable
 70
     0
  0
BLOCK_RECORD
  5
18
102
{ACAD_XDICTIONARY
360
53D
102
}
330
1
100
AcDbSymbolTableRecord
100
AcDbBlockTableRecord
  2
*MODEL_SPACE
  0
BLOCK_RECORD
  5
15
102
{ACAD_XDICTIONARY
360
53B
102
}
330
1
100
AcDbSymbolTableRecord
100
AcDbBlockTableRecord
  2
*PAPER_SPACE
  0
ENDTAB
  0
ENDSEC
  0
SECTION
  2
BLOCKS
  0
BLOCK
  5
3B
330
18
100
AcDbEntity
  8
0
100
AcDbBlockBegin
  2
*MODEL_SPACE
 70
     0
 10
0.0
 20
0.0
 30
0.0
  3
*MODEL_SPACE
  1

  0
ENDBLK
  5
3C
330
18
100
AcDbEntity
  8
0
100
AcDbBlockEnd
  0
BLOCK
  5
39
330
15
100
AcDbEntity
 67
     1
  8
0
100
AcDbBlockBegin
  2
*PAPER_SPACE
 70
     0
 10
0.0
 20
0.0
 30
0.0
  3
*PAPER_SPACE
  1

  0
ENDBLK
  5
3A
330
15
100
AcDbEntity
 67
     1
  8
0
100
AcDbBlockEnd
  0
ENDSEC
  0
SECTION
  2
ENTITIES
  0
LWPOLYLINE
  5
204
330
18
100
AcDbEntity
  8
0
100
AcDbPolyline
 90
       20
 70
     1
 43
0.0
 10
0.0656483928756598
 20
0.7660755356742089
 10
0.0653983928756598
 20
0.7660755356742089
 42
1.0
 10
0.0033983928756594
 20
0.7660755356742089
 10
0.0031483928756598
 20
0.7660755356742089
 10
0.0031483928756598
 20
0.2970755356742087
 10
0.0656483928756598
 20
0.2970755356742087
 10
0.0656483928756598
 20
0.4220755356742087
 10
0.1281483928756598
 20
0.4220755356742087
 10
0.0656483928756598
 20
0.4845755356742087
 10
0.1281483928756598
 20
0.4845755356742087
 10
0.6491483928756599
 20
0.4845755356742087
 10
0.6591483928756599
 20
0.4945755356742088
 10
0.6691483928756599
 20
0.4845755356742087
 10
1.190148392875659
 20
0.4845755356742087
 10
1.252648392875659
 20
0.4845755356742087
 10
1.190148392875659
 20
0.4220755356742087
 10
1.315148392875659
 20
0.4220755356742087
 10
1.315148392875659
 20
0.5160755356742088
 42
0.4142135623730951
 10
1.284148392875659
 20
0.5470755356742087
 10
0.0656483928756598
 20
0.5470755356742087
  0
TEXT
  5
48C
330
18
100
AcDbEntity
  8
TEXT
100
AcDbText
 10
-0.145738921763271
 20
-0.0653253281194179
 30
0.0
 40
0.125
  1
PART #110288
  7
ITALICC
 72
     1
 11
0.6072372687129191
 21
-0.0653253281194179
 31
0.0
100
AcDbText
  0
LINE
  5
48D
330
18
100
AcDbEntity
  8
TEXT
100
AcDbLine
 10
0.5749707676649818
 20
-0.3096790141392516
 30
0.0
 11
0.6516187489575396
 21
-0.3096790141392516
 31
0.0
  0
LINE
  5
48E
330
18
100
AcDbEntity
  8
TEXT
100
AcDbLine
 10
0.6471388616310394
 20
-0.2454023194824861
 30
0.0
 11
0.579639143981523
 21
-0.2454023194824861
 31
0.0
  0
LWPOLYLINE
  5
48F
330
18
100
AcDbEntity
  8
TEXT
100
AcDbPolyline
 90
        5
 70
     0
 43
0.0001332181640625
 10
-1.062141274869693
 20
-0.368629121240299
 10
-1.048819458463444
 20
-0.368629121240299
 10
-1.048819458463444
 20
-0.3319941261231092
 10
-1.012184463346254
 20
-0.3319941261231092
 10
-1.012184463346254
 20
-0.3186723097168622
  0
LWPOLYLINE
  5
490
330
18
100
AcDbEntity
  8
TEXT
100
AcDbPolyline
 90
        3
 70
     0
 43
0.0006660908203125
 10
-1.022175825650945
 20
-0.2720459522949836
 10
-1.10876763229157
 20
-0.2720459522949836
 10
-1.10876763229157
 20
-0.3586377589356102
  0
LWPOLYLINE
  5
491
330
18
100
AcDbEntity
  8
TEXT
100
AcDbPolyline
 90
        3
 70
     0
 43
0.0006660908203125
 10
-1.022175825650945
 20
-0.2454023194824826
 10
-1.135411265104067
 20
-0.2454023194824826
 10
-1.135411265104067
 20
-0.3586377589356102
  0
LWPOLYLINE
  5
492
330
18
100
AcDbEntity
  8
TEXT
100
AcDbPolyline
 90
        5
 70
     0
 43
0.0001332181640625
 10
-1.012184463346254
 20
-0.4385686573731098
 10
-1.012184463346254
 20
-0.4252468409668593
 10
-1.048819458463442
 20
-0.4252468409668593
 10
-1.048819458463442
 20
-0.388611845849673
 10
-1.062141274869693
 20
-0.388611845849673
  0
LWPOLYLINE
  5
493
330
18
100
AcDbEntity
  8
TEXT
100
AcDbPolyline
 90
        3
 70
     0
 43
0.0006660908203125
 10
-1.10876763229157
 20
-0.3986032081543582
 10
-1.10876763229157
 20
-0.4851950147949849
 10
-1.022175825650945
 20
-0.4851950147949849
  0
LWPOLYLINE
  5
494
330
18
100
AcDbEntity
  8
TEXT
100
AcDbPolyline
 90
        3
 70
     0
 43
0.0006660908203125
 10
-1.135411265104067
 20
-0.3986032081543582
 10
-1.135411265104067
 20
-0.5118386476074859
 10
-1.022175825650945
 20
-0.5118386476074859
  0
LWPOLYLINE
  5
495
330
18
100
AcDbEntity
  8
TEXT
100
AcDbPolyline
 90
        2
 70
     0
 43
0.0001332181640625
 10
-1.10876763229157
 20
-0.3986032081543582
 10
-1.048819458463442
 20
-0.388611845849673
  0
LWPOLYLINE
  5
496
330
18
100
AcDbEntity
  8
TEXT
100
AcDbPolyline
 90
        2
 70
     0
 43
0.0001332181640625
 10
-1.062141274869693
 20
-0.388611845849673
 10
-1.135411265104067
 20
-0.3986032081543582
  0
LWPOLYLINE
  5
497
330
18
100
AcDbEntity
  8
TEXT
100
AcDbPolyline
 90
        2
 70
     0
 43
0.0006660908203125
 10
-1.10876763229157
 20
-0.3986032081543582
 10
-1.135411265104067
 20
-0.3986032081543582
  0
LWPOLYLINE
  5
498
330
18
100
AcDbEntity
  8
TEXT
100
AcDbPolyline
 90
        2
 70
     0
 43
0.0001332181640625
 10
-1.10876763229157
 20
-0.4851950147949849
 10
-1.048819458463442
 20
-0.4252468409668593
  0
LWPOLYLINE
  5
499
330
18
100
AcDbEntity
  8
TEXT
100
AcDbPolyline
 90
        2
 70
     0
 43
0.0006660908203125
 10
-1.10876763229157
 20
-0.3586377589356102
 10
-1.135411265104067
 20
-0.3586377589356102
  0
LWPOLYLINE
  5
49A
330
18
100
AcDbEntity
  8
TEXT
100
AcDbPolyline
 90
        2
 70
     0
 43
0.0001332181640625
 10
-1.135411265104067
 20
-0.3586377589356102
 10
-1.062141274869693
 20
-0.368629121240299
  0
LWPOLYLINE
  5
49B
330
18
100
AcDbEntity
  8
TEXT
100
AcDbPolyline
 90
        2
 70
     0
 43
0.0001332181640625
 10
-1.10876763229157
 20
-0.3586377589356102
 10
-1.048819458463444
 20
-0.368629121240299
  0
LWPOLYLINE
  5
49C
330
18
100
AcDbEntity
  8
TEXT
100
AcDbPolyline
 90
        2
 70
     0
 43
0.0001332181640625
 10
-1.10876763229157
 20
-0.2720459522949836
 10
-1.048819458463444
 20
-0.3319941261231092
  0
LWPOLYLINE
  5
49D
330
18
100
AcDbEntity
  8
TEXT
100
AcDbPolyline
 90
        5
 70
     0
 43
0.0001332181640625
 10
-0.9422449272134439
 20
-0.388611845849673
 10
-0.9555667436196927
 20
-0.388611845849673
 10
-0.9555667436196927
 20
-0.4252468409668593
 10
-0.9922017387368825
 20
-0.4252468409668593
 10
-0.9922017387368825
 20
-0.4385686573731098
  0
LWPOLYLINE
  5
49E
330
18
100
AcDbEntity
  8
TEXT
100
AcDbPolyline
 90
        2
 70
     0
 43
0.0001332181640625
 10
-0.8956185697915689
 20
-0.3986032081543582
 10
-0.9555667436196927
 20
-0.388611845849673
  0
LWPOLYLINE
  5
49F
330
18
100
AcDbEntity
  8
TEXT
100
AcDbPolyline
 90
        2
 70
     0
 43
0.0001332181640625
 10
-0.8689749369790678
 20
-0.3986032081543582
 10
-0.9422449272134439
 20
-0.388611845849673
  0
LWPOLYLINE
  5
4A0
330
18
100
AcDbEntity
  8
TEXT
100
AcDbPolyline
 90
        3
 70
     0
 43
0.0006660908203125
 10
-0.9822103764321937
 20
-0.5118386476074859
 10
-0.8689749369790678
 20
-0.5118386476074859
 10
-0.8689749369790678
 20
-0.3986032081543582
  0
LWPOLYLINE
  5
4A1
330
18
100
AcDbEntity
  8
TEXT
100
AcDbPolyline
 90
        3
 70
     0
 43
0.0006660908203125
 10
-0.9822103764321937
 20
-0.4851950147949849
 10
-0.8956185697915689
 20
-0.4851950147949849
 10
-0.8956185697915689
 20
-0.3986032081543582
  0
LWPOLYLINE
  5
4A2
330
18
100
AcDbEntity
  8
TEXT
100
AcDbPolyline
 90
        2
 70
     0
 43
0.0001332181640625
 10
-0.8956185697915689
 20
-0.4851950147949849
 10
-0.9555667436196927
 20
-0.4252468409668593
  0
LWPOLYLINE
  5
4A3
330
18
100
AcDbEntity
  8
TEXT
100
AcDbPolyline
 90
        2
 70
     0
 43
0.0006660908203125
 10
-0.9822103764321937
 20
-0.4851950147949849
 10
-0.9822103764321937
 20
-0.5118386476074859
  0
LWPOLYLINE
  5
4A4
330
18
100
AcDbEntity
  8
TEXT
100
AcDbPolyline
 90
        2
 70
     0
 43
0.0001332181640625
 10
-0.9922017387368825
 20
-0.4385686573731098
 10
-0.9822103764321937
 20
-0.5118386476074859
  0
LWPOLYLINE
  5
4A5
330
18
100
AcDbEntity
  8
TEXT
100
AcDbPolyline
 90
        2
 70
     0
 43
0.0001332181640625
 10
-0.9822103764321937
 20
-0.4851950147949849
 10
-0.9922017387368825
 20
-0.4252468409668593
  0
LWPOLYLINE
  5
4A6
330
18
100
AcDbEntity
  8
TEXT
100
AcDbPolyline
 90
        2
 70
     0
 43
0.0001332181640625
 10
-1.022175825650945
 20
-0.5118386476074859
 10
-1.012184463346254
 20
-0.4385686573731098
  0
LWPOLYLINE
  5
4A7
330
18
100
AcDbEntity
  8
TEXT
100
AcDbPolyline
 90
        2
 70
     0
 43
0.0001332181640625
 10
-1.022175825650945
 20
-0.4851950147949849
 10
-1.012184463346254
 20
-0.4252468409668593
  0
LWPOLYLINE
  5
4A8
330
18
100
AcDbEntity
  8
TEXT
100
AcDbPolyline
 90
        2
 70
     0
 43
0.0006660908203125
 10
-1.022175825650945
 20
-0.4851950147949849
 10
-1.022175825650945
 20
-0.5118386476074859
  0
LWPOLYLINE
  5
4A9
330
18
100
AcDbEntity
  8
TEXT
100
AcDbPolyline
 90
        2
 70
     0
 43
0.0006660908203125
 10
-0.8956185697915689
 20
-0.3986032081543582
 10
-0.8689749369790678
 20
-0.3986032081543582
  0
LWPOLYLINE
  5
4AA
330
18
100
AcDbEntity
  8
TEXT
100
AcDbPolyline
 90
        2
 70
     0
 43
0.0001332181640625
 10
-0.8956185697915689
 20
-0.2720459522949836
 10
-0.9555667436196927
 20
-0.3319941261231092
  0
LWPOLYLINE
  5
4AB
330
18
100
AcDbEntity
  8
TEXT
100
AcDbPolyline
 90
        2
 70
     0
 43
0.0001332181640625
 10
-0.8956185697915689
 20
-0.3586377589356102
 10
-0.9555667436196927
 20
-0.368629121240299
  0
LWPOLYLINE
  5
4AC
330
18
100
AcDbEntity
  8
TEXT
100
AcDbPolyline
 90
        2
 70
     0
 43
0.0001332181640625
 10
-0.9422449272134439
 20
-0.368629121240299
 10
-0.8689749369790678
 20
-0.3586377589356102
  0
LWPOLYLINE
  5
4AD
330
18
100
AcDbEntity
  8
TEXT
100
AcDbPolyline
 90
        3
 70
     0
 43
0.0006660908203125
 10
-0.8956185697915689
 20
-0.3586377589356102
 10
-0.8956185697915689
 20
-0.2720459522949836
 10
-0.9822103764321937
 20
-0.2720459522949836
  0
LWPOLYLINE
  5
4AE
330
18
100
AcDbEntity
  8
TEXT
100
AcDbPolyline
 90
        3
 70
     0
 43
0.0006660908203125
 10
-0.8689749369790678
 20
-0.3586377589356102
 10
-0.8689749369790678
 20
-0.2454023194824826
 10
-0.9822103764321937
 20
-0.2454023194824826
  0
LWPOLYLINE
  5
4AF
330
18
100
AcDbEntity
  8
TEXT
100
AcDbPolyline
 90
        2
 70
     0
 43
0.0001332181640625
 10
-0.9822103764321937
 20
-0.2454023194824826
 10
-0.9922017387368825
 20
-0.3186723097168622
  0
LWPOLYLINE
  5
4B0
330
18
100
AcDbEntity
  8
TEXT
100
AcDbPolyline
 90
        2
 70
     0
 43
0.0001332181640625
 10
-0.9822103764321937
 20
-0.2720459522949836
 10
-0.9922017387368825
 20
-0.3319941261231092
  0
LWPOLYLINE
  5
4B1
330
18
100
AcDbEntity
  8
TEXT
100
AcDbPolyline
 90
        2
 70
     0
 43
0.0006660908203125
 10
-0.9822103764321937
 20
-0.2720459522949836
 10
-0.9822103764321937
 20
-0.2454023194824826
  0
LWPOLYLINE
  5
4B2
330
18
100
AcDbEntity
  8
TEXT
100
AcDbPolyline
 90
        5
 70
     0
 43
0.0001332181640625
 10
-0.9922017387368825
 20
-0.3186723097168622
 10
-0.9922017387368825
 20
-0.3319941261231092
 10
-0.9555667436196927
 20
-0.3319941261231092
 10
-0.9555667436196927
 20
-0.368629121240299
 10
-0.9422449272134439
 20
-0.368629121240299
  0
LWPOLYLINE
  5
4B3
330
18
100
AcDbEntity
  8
TEXT
100
AcDbPolyline
 90
        2
 70
     0
 43
0.0001332181640625
 10
-1.022175825650945
 20
-0.2720459522949836
 10
-1.012184463346254
 20
-0.3319941261231092
  0
LWPOLYLINE
  5
4B4
330
18
100
AcDbEntity
  8
TEXT
100
AcDbPolyline
 90
        2
 70
     0
 43
0.0001332181640625
 10
-1.012184463346254
 20
-0.3186723097168622
 10
-1.022175825650945
 20
-0.2454023194824826
  0
LWPOLYLINE
  5
4B5
330
18
100
AcDbEntity
  8
TEXT
100
AcDbPolyline
 90
        2
 70
     0
 43
0.0006660908203125
 10
-1.022175825650945
 20
-0.2720459522949836
 10
-1.022175825650945
 20
-0.2454023194824826
  0
LWPOLYLINE
  5
4B6
330
18
100
AcDbEntity
  8
TEXT
100
AcDbPolyline
 90
        2
 70
     0
 43
0.0006660908203125
 10
-0.8956185697915689
 20
-0.3586377589356102
 10
-0.8689749369790678
 20
-0.3586377589356102
  0
LWPOLYLINE
  5
4B7
330
18
100
AcDbEntity
  8
TEXT
100
AcDbPolyline
 90
        2
 70
     0
 43
0.0
 10
-0.1501950162304375
 20
-0.4603240102560689
 42
0.3318488747599744
 10
-0.0810757236651245
 20
-0.5118753524709972
 42
-6.868794160588311
  0
LINE
  5
4B8
330
18
100
AcDbEntity
  8
TEXT
100
AcDbLine
 10
-0.0822152971613202
 20
-0.1773908417436756
 30
0.0
 11
-0.1490240097276851
 21
-0.1773908417436756
 31
0.0
  0
LINE
  5
4B9
330
18
100
AcDbEntity
  8
TEXT
100
AcDbLine
 10
-0.4283663773467792
 20
-0.2454023194824861
 30
0.0
 11
-0.6040981302452906
 21
-0.2454023194824861
 31
0.0
  0
ARC
  5
4BA
330
18
100
AcDbEntity
  8
TEXT
100
AcDbCircle
 10
-0.533260663886741
 20
-0.4286795441104401
 30
0.0
 40
0.0831958083605586
100
AcDbArc
 50
270.0
 51
90.0
  0
LINE
  5
4BB
330
18
100
AcDbEntity
  8
TEXT
100
AcDbLine
 10
-0.5988608001310425
 20
-0.3096790141392516
 30
0.0
 11
-0.4319551461020721
 21
-0.3096790141392516
 31
0.0
  0
LINE
  5
4BC
330
18
100
AcDbEntity
  8
TEXT
100
AcDbLine
 10
-0.5283202899804618
 20
-0.4435183461375578
 30
0.0
 11
-0.6861855896917959
 21
-0.4435183461375578
 31
0.0
  0
LINE
  5
4BD
330
18
100
AcDbEntity
  8
TEXT
100
AcDbLine
 10
-0.6861855896917941
 20
-0.5118753524709972
 30
0.0
 11
-0.5332606638867415
 21
-0.5118753524709972
 31
0.0
  0
ARC
  5
4BE
330
18
100
AcDbEntity
  8
TEXT
100
AcDbCircle
 10
-0.6040981302452902
 20
-0.3274897789289879
 30
0.0
 40
0.0820874594465043
100
AcDbArc
 50
90.0
 51
270.0
  0
LINE
  5
4BF
330
18
100
AcDbEntity
  8
TEXT
100
AcDbLine
 10
-0.6861855896917959
 20
-0.4435183461375578
 30
0.0
 11
-0.6861855896917941
 21
-0.5118753524709972
 31
0.0
  0
LINE
  5
4C0
330
18
100
AcDbEntity
  8
TEXT
100
AcDbLine
 10
-0.6040981302452906
 20
-0.4095772383754932
 30
0.0
 11
-0.5283202899804618
 21
-0.4095772383754932
 31
0.0
  0
ARC
  5
4C1
330
18
100
AcDbEntity
  8
TEXT
100
AcDbCircle
 10
-0.5283202899804614
 20
-0.4265477922565238
 30
0.0
 40
0.0169705538810321
100
AcDbArc
 50
270.0
 51
90.0
  0
LINE
  5
4C2
330
18
100
AcDbEntity
  8
TEXT
100
AcDbLine
 10
-0.5332606638867415
 20
-0.3454837357498794
 30
0.0
 11
-0.5988608001310425
 21
-0.3454837357498794
 31
0.0
  0
ARC
  5
4C3
330
18
100
AcDbEntity
  8
TEXT
100
AcDbCircle
 10
-0.5988608001310421
 20
-0.3275813749445637
 30
0.0
 40
0.017902360805315
100
AcDbArc
 50
90.0
 51
270.0
  0
LINE
  5
4C4
330
18
100
AcDbEntity
  8
TEXT
100
AcDbLine
 10
-0.2378944853269269
 20
-0.3462743155956067
 30
0.0
 11
-0.2965248063588648
 21
-0.2454023194824861
 31
0.0
  0
LINE
  5
4C5
330
18
100
AcDbEntity
  8
TEXT
100
AcDbLine
 10
-0.3780685386219664
 20
-0.5118753524709972
 30
0.0
 11
-0.281428287546972
 21
-0.5116047133727149
 31
0.0
  0
LWPOLYLINE
  5
4C6
330
18
100
AcDbEntity
  8
TEXT
100
AcDbPolyline
 90
        6
 70
     1
 43
0.0
 10
-0.3355447350468164
 20
-0.3096790141392516
 10
-0.3658613292670245
 20
-0.3096790141392516
 10
-0.3658613292670245
 20
-0.432790012194146
 42
0.407328721240804
 10
-0.3543176781055481
 20
-0.444608926870532
 10
-0.2936959790608174
 20
-0.444608926870532
 10
-0.2762306386534994
 20
-0.4117966978270529
  0
LINE
  5
4C7
330
18
100
AcDbEntity
  8
TEXT
100
AcDbLine
 10
-0.4319551461020721
 20
-0.3096790141392516
 30
0.0
 11
-0.4319551461020721
 21
-0.4520829611329474
 31
0.0
  0
ARC
  5
4C8
330
18
100
AcDbEntity
  8
TEXT
100
AcDbCircle
 10
-0.3718391281283195
 20
-0.4520829611329474
 30
0.0
 40
0.0601160179737537
100
AcDbArc
 50
180.0000000000003
 51
264.0521544866073
  0
LINE
  5
4C9
330
18
100
AcDbEntity
  8
TEXT
100
AcDbLine
 10
-0.3683237725027721
 20
-0.211014401888348
 30
0.0
 11
-0.4283663773467792
 21
-0.211014401888348
 31
0.0
  0
LINE
  5
4CA
330
18
100
AcDbEntity
  8
TEXT
100
AcDbLine
 10
-0.4283663773467792
 20
-0.211014401888348
 30
0.0
 11
-0.4283663773467792
 21
-0.2454023194824861
 31
0.0
  0
LINE
  5
4CB
330
18
100
AcDbEntity
  8
TEXT
100
AcDbLine
 10
-0.3683237725027721
 20
-0.2454023194824861
 30
0.0
 11
-0.3683237725027721
 21
-0.211014401888348
 31
0.0
  0
LINE
  5
4CC
330
18
100
AcDbEntity
  8
TEXT
100
AcDbLine
 10
-0.2965248063588648
 20
-0.2454023194824861
 30
0.0
 11
-0.3683237725027721
 21
-0.2454023194824861
 31
0.0
  0
LINE
  5
4CD
330
18
100
AcDbEntity
  8
TEXT
100
AcDbLine
 10
-0.2474947223238812
 20
-0.4919168463659842
 30
0.0
 11
-0.1501950162304366
 21
-0.3275666354307161
 31
0.0
  0
LINE
  5
4CE
330
18
100
AcDbEntity
  8
TEXT
100
AcDbLine
 10
-0.1501950162304366
 20
-0.3275666354307161
 30
0.0
 11
-0.1501950162304366
 21
-0.4603240102560724
 31
0.0
  0
ARC
  5
4CF
330
18
100
AcDbEntity
  8
TEXT
100
AcDbCircle
 10
-0.2815382822360948
 20
-0.4723276301973014
 30
0.0
 40
0.0392772371940762
100
AcDbArc
 50
270.1604552698595
 51
330.0831797321295
  0
LINE
  5
4D0
330
18
100
AcDbEntity
  8
TEXT
100
AcDbLine
 10
-0.1791459225210614
 20
-0.2454023194824861
 30
0.0
 11
-0.2378944853269269
 21
-0.3462743155956067
 31
0.0
  0
LINE
  5
4D1
330
18
100
AcDbEntity
  8
TEXT
100
AcDbLine
 10
-0.1490240097276851
 20
-0.1773908417436756
 30
0.0
 11
-0.1490240097276851
 21
-0.2454023194824861
 31
0.0
  0
LINE
  5
4D2
330
18
100
AcDbEntity
  8
TEXT
100
AcDbLine
 10
-0.1490240097276851
 20
-0.2454023194824861
 30
0.0
 11
-0.1791459225210614
 21
-0.2454023194824861
 31
0.0
  0
LWPOLYLINE
  5
4D3
330
18
100
AcDbEntity
  8
TEXT
100
AcDbPolyline
 90
        4
 70
     0
 43
0.0
 10
0.2030621118924731
 20
-0.3172328033053615
 10
0.2030621118924731
 20
-0.5118753524709972
 10
0.271540395180331
 20
-0.5118753524709972
 10
0.271540395180331
 20
-0.468384407520559
 42
-1.714843617202739
  0
LWPOLYLINE
  5
4D4
330
18
100
AcDbEntity
  8
TEXT
100
AcDbPolyline
 90
        2
 70
     0
 43
0.0
 10
0.238196462436683
 20
-0.2454023194824826
 42
-0.3277054968067132
 10
0.273978153149848
 20
-0.2737248652521265
 42
6.667889725900311
  0
LWPOLYLINE
  5
4D5
330
18
100
AcDbEntity
  8
TEXT
100
AcDbPolyline
 90
        2
 70
     0
 43
0.0
 10
0.0667628898574559
 20
-0.3096790141392516
 42
-0.4142135623731017
 10
0.0743166790235694
 20
-0.3172328033053615
 42
-0.9999999999999998
  0
LINE
  5
4D6
330
18
100
AcDbEntity
  8
TEXT
100
AcDbLine
 10
0.0841146129074764
 20
-0.2454023194824861
 30
0.0
 11
-0.04990344302366
 21
-0.2454023194824861
 31
0.0
  0
LINE
  5
4D7
330
18
100
AcDbEntity
  8
TEXT
100
AcDbLine
 10
0.0169276100343092
 20
-0.5118753524709972
 30
0.0
 11
0.0169276100343092
 21
-0.3096790141392516
 31
0.0
  0
LINE
  5
4D8
330
18
100
AcDbEntity
  8
TEXT
100
AcDbLine
 10
-0.04990344302366
 20
-0.2454023194824861
 30
0.0
 11
-0.04990344302366
 21
-0.4462665262148944
 31
0.0
  0
LINE
  5
4D9
330
18
100
AcDbEntity
  8
TEXT
100
AcDbLine
 10
-0.0822152971613202
 20
-0.429487514367998
 30
0.0
 11
-0.0822152971613202
 21
-0.1773908417436756
 31
0.0
  0
LINE
  5
4DA
330
18
100
AcDbEntity
  8
TEXT
100
AcDbLine
 10
-0.0810757236651254
 20
-0.5118753524709972
 30
0.0
 11
0.0169276100343092
 21
-0.5118753524709972
 31
0.0
  0
LINE
  5
4DB
330
18
100
AcDbEntity
  8
TEXT
100
AcDbLine
 10
-0.04990344302366
 20
-0.4462665262148944
 30
0.0
 11
-0.0668970799082613
 21
-0.4462665262148944
 31
0.0
  0
ARC
  5
4DC
330
18
100
AcDbEntity
  8
TEXT
100
AcDbCircle
 10
-0.0668970799082622
 20
-0.430884719971469
 30
0.0
 40
0.0153818062434269
100
AcDbArc
 50
174.7883570302258
 51
270.0
  0
LINE
  5
4DD
330
18
100
AcDbEntity
  8
TEXT
100
AcDbLine
 10
0.0169276100343092
 20
-0.3096790141392516
 30
0.0
 11
0.0667628898574568
 21
-0.3096790141392516
 31
0.0
  0
LINE
  5
4DE
330
18
100
AcDbEntity
  8
TEXT
100
AcDbLine
 10
0.0743166790235703
 20
-0.3172328033053615
 30
0.0
 11
0.0743166790235703
 21
-0.5118753524709972
 31
0.0
  0
LINE
  5
4DF
330
18
100
AcDbEntity
  8
TEXT
100
AcDbLine
 10
0.1413747258054103
 20
-0.5118753524709972
 30
0.0
 11
0.1413747258054103
 21
-0.3096790141392516
 31
0.0
  0
LINE
  5
4E0
330
18
100
AcDbEntity
  8
TEXT
100
AcDbLine
 10
0.0743166790235703
 20
-0.5118753524709972
 30
0.0
 11
0.1413747258054103
 21
-0.5118753524709972
 31
0.0
  0
LWPOLYLINE
  5
4E1
330
18
100
AcDbEntity
  8
TEXT
100
AcDbPolyline
 90
        3
 70
     0
 43
0.0
 10
0.238196462436683
 20
-0.2454023194824826
 10
0.1198963036206386
 20
-0.2454023194824826
 10
0.1198963036206386
 20
-0.2725698162433785
 42
-1.960274751411753
  0
LINE
  5
4E2
330
18
100
AcDbEntity
  8
TEXT
100
AcDbLine
 10
0.1413747258054103
 20
-0.3096790141392516
 30
0.0
 11
0.1955083227263605
 21
-0.3096790141392516
 31
0.0
  0
LWPOLYLINE
  5
4E3
330
18
100
AcDbEntity
  8
TEXT
100
AcDbPolyline
 90
        2
 70
     0
 43
0.0
 10
0.0841146129074773
 20
-0.2454023194824826
 42
-0.3328679258950098
 10
0.1198963036206386
 20
-0.2725698162433785
 42
6.772930709997214
  0
LWPOLYLINE
  5
4E4
330
18
100
AcDbEntity
  8
TEXT
100
AcDbPolyline
 90
        2
 70
     0
 43
0.0
 10
0.1955083227263596
 20
-0.3096790141392516
 42
-0.4142135623731017
 10
0.2030621118924731
 20
-0.3172328033053615
 42
-0.9999999999999998
  0
ARC
  5
4E5
330
18
100
AcDbEntity
  8
TEXT
100
AcDbCircle
 10
0.4067831225898395
 20
-0.2869858866033885
 30
0.0
 40
0.0416329381542859
100
AcDbArc
 50
26.56974201007528
 51
87.20939649401342
  0
LWPOLYLINE
  5
4E6
330
18
100
AcDbEntity
  8
TEXT
100
AcDbPolyline
 90
        2
 70
     0
 43
0.0
 10
0.3146163280479666
 20
-0.5118753524709972
 10
0.4486337456793433
 20
-0.5118753524709972
 42
0.9999999999999998
  0
LWPOLYLINE
  5
4E7
330
18
100
AcDbEntity
  8
TEXT
100
AcDbPolyline
 90
        4
 70
     1
 43
0.0
 10
0.4285112806094507
 20
-0.4089113744869719
 10
0.3398509619495922
 20
-0.4089113744869719
 42
0.9999999999999998
 10
0.3398509619495922
 20
-0.4513099149908327
 10
0.4285112806094507
 20
-0.4513099149908327
 42
1.0
  0
LWPOLYLINE
  5
4E8
330
18
100
AcDbEntity
  8
TEXT
100
AcDbPolyline
 90
        2
 70
     0
 43
0.0
 10
0.271540395180331
 20
-0.468384407520559
 42
0.2901071551932823
 10
0.3146163280479666
 20
-0.5118753524709972
 42
5.328517124445801
  0
LINE
  5
4E9
330
18
100
AcDbEntity
  8
TEXT
100
AcDbLine
 10
0.408810062366908
 20
-0.2454023194824861
 30
0.0
 11
0.2739781531498489
 21
-0.2454023194824861
 31
0.0
  0
LINE
  5
4EA
330
18
100
AcDbEntity
  8
TEXT
100
AcDbLine
 10
0.3332922495431676
 20
-0.3469539876013838
 30
0.0
 11
0.4155802393265509
 21
-0.3469539876013838
 31
0.0
  0
LINE
  5
4EB
330
18
100
AcDbEntity
  8
TEXT
100
AcDbLine
 10
0.3797791640224295
 20
-0.3096790141392516
 30
0.0
 11
0.2725728906351401
 21
-0.3096790141392516
 31
0.0
  0
LINE
  5
4EC
330
18
100
AcDbEntity
  8
TEXT
100
AcDbLine
 10
0.2739781531498489
 20
-0.2454023194824861
 30
0.0
 11
0.2739781531498489
 21
-0.27372486525213
 31
0.0
  0
ARC
  5
4ED
330
18
100
AcDbEntity
  8
TEXT
100
AcDbCircle
 10
0.3332922495431667
 20
-0.4146395687455025
 30
0.0
 40
0.0676855811441166
100
AcDbArc
 50
90.0
 51
153.7768192527749
  0
LINE
  5
4EE
330
18
100
AcDbEntity
  8
TEXT
100
AcDbLine
 10
0.2725728906351401
 20
-0.3096790141392516
 30
0.0
 11
0.2725728906351401
 21
-0.3847314202134582
 31
0.0
  0
LINE
  5
4EF
330
18
100
AcDbEntity
  8
TEXT
100
AcDbLine
 10
0.4155802393265509
 20
-0.3469539876013838
 30
0.0
 11
0.4053154789129865
 21
-0.3257034480286896
 31
0.0
  0
ARC
  5
4F0
330
18
100
AcDbEntity
  8
TEXT
100
AcDbCircle
 10
0.3797791640224286
 20
-0.3380383891392489
 30
0.0
 40
0.028359375
100
AcDbArc
 50
25.78218179591245
 51
90.0
  0
LINE
  5
4F1
330
18
100
AcDbEntity
  8
TEXT
100
AcDbLine
 10
0.5500648923823226
 20
-0.5118753524709972
 30
0.0
 11
0.5500648923823173
 21
-0.3345848470395287
 31
0.0
  0
LWPOLYLINE
  5
4F2
330
18
100
AcDbEntity
  8
TEXT
100
AcDbPolyline
 90
        2
 70
     0
 43
0.0
 10
0.4917096785469877
 20
-0.5118753524709972
 10
0.5500648923823217
 20
-0.5118753524709972
  0
LWPOLYLINE
  5
4F3
330
18
100
AcDbEntity
  8
TEXT
100
AcDbPolyline
 90
        2
 70
     0
 43
0.0
 10
0.4917096785469877
 20
-0.468384407520559
 42
-0.2901071551932486
 10
0.4486337456793433
 20
-0.5118753524709972
 42
-5.328517124445184
  0
LWPOLYLINE
  5
4F4
330
18
100
AcDbEntity
  8
TEXT
100
AcDbPolyline
 90
        2
 70
     0
 43
0.0
 10
0.4917096785469877
 20
-0.468384407520559
 10
0.4917096785469877
 20
-0.5118753524709972
  0
LINE
  5
4F5
330
18
100
AcDbEntity
  8
TEXT
100
AcDbLine
 10
0.55166690754145
 20
-0.2454023194824861
 30
0.0
 11
0.4877700012419491
 21
-0.2454023194824861
 31
0.0
  0
LINE
  5
4F6
330
18
100
AcDbEntity
  8
TEXT
100
AcDbLine
 10
0.4877700012419491
 20
-0.2454023194824861
 30
0.0
 11
0.4877700012419491
 21
-0.3506142980359135
 31
0.0
  0
LINE
  5
4F7
330
18
100
AcDbEntity
  8
TEXT
100
AcDbLine
 10
0.4877700012419491
 20
-0.3506142980359135
 30
0.0
 11
0.4440192300600474
 21
-0.2683640220397683
 31
0.0
  0
ARC
  5
4F8
330
18
100
AcDbEntity
  8
TEXT
100
AcDbCircle
 10
0.5749707676649809
 20
-0.3345848894219143
 30
0.0
 40
0.0249058752826653
100
AcDbArc
 50
89.99971217465335
 51
179.9999999999985
  0
ARC
  5
4F9
330
18
100
AcDbEntity
  8
TEXT
100
AcDbCircle
 10
0.5828597246045586
 20
-0.276648046764751
 30
0.0
 40
0.0314112657011332
100
AcDbArc
 50
95.88484768694724
 51
173.2388340632136
  0
LINE
  5
4FA
330
18
100
AcDbEntity
  8
TEXT
100
AcDbLine
 10
0.55166690754145
 20
-0.2729499693433608
 30
0.0
 11
0.55166690754145
 21
-0.2454023194824861
 31
0.0
  0
TEXT
  5
4FB
330
18
100
AcDbEntity
  8
TEXT
100
AcDbText
 10
1.02054242696324
 20
-0.4189895438255009
 30
0.0
 40
0.0522247191011236
  1
Minneapolis, MN 55432-0008
 41
1.11444212721585
 72
     5
 11
2.349475011232904
 21
-0.4189895438255009
 31
0.0
100
AcDbText
  0
TEXT
  5
4FC
330
18
100
AcDbEntity
  8
TEXT
100
AcDbText
 10
1.02054242696324
 20
-0.3257311168592087
 30
0.0
 40
0.0522247191011236
  1
6536 Main St. N.E. * P.O. Box 32008
 41
0.8388932496075369
 72
     5
 11
2.349475011232904
 21
-0.3257311168592087
 31
0.0
100
AcDbText
  0
TEXT
  5
4FD
330
18
100
AcDbEntity
  8
TEXT
100
AcDbText
 10
1.02054242696324
 20
-0.2324726898929166
 30
0.0
 40
0.0522247191011236
  1
Stylmark  Incorporated
 41
1.221428571428571
 72
     5
 11
2.349475011232904
 21
-0.2324726898929166
 31
0.0
100
AcDbText
  0
TEXT
  5
4FE
330
18
100
AcDbEntity
  8
TEXT
100
AcDbText
 10
1.02054242696324
 20
-0.5122479707917931
 30
0.0
 40
0.0522247191011236
  1
Phone  1-800-328-2495
 41
1.272321428571429
 72
     5
 11
2.349475011232904
 21
-0.5122479707917931
 31
0.0
100
AcDbText
  0
LINE
  5
4FF
330
18
100
AcDbEntity
  8
TEXT
100
AcDbLine
 10
0.7729866155002254
 20
-0.3552955624234597
 30
0.0
 11
0.8375437314659306
 21
-0.2454023194824861
 31
0.0
  0
LINE
  5
500
330
18
100
AcDbEntity
  8
TEXT
100
AcDbLine
 10
0.8375437314659306
 20
-0.2454023194824861
 30
0.0
 11
0.7625518987363043
 21
-0.2454023194824861
 31
0.0
  0
LINE
  5
501
330
18
100
AcDbEntity
  8
TEXT
100
AcDbLine
 10
0.7919004664876299
 20
-0.5118753524709972
 30
0.0
 11
0.8684788388638358
 21
-0.5118753524709972
 31
0.0
  0
LINE
  5
502
330
18
100
AcDbEntity
  8
TEXT
100
AcDbLine
 10
0.8684788388638358
 20
-0.5118753524709972
 30
0.0
 11
0.7729866155002254
 21
-0.3552955624234597
 31
0.0
  0
LINE
  5
503
330
18
100
AcDbEntity
  8
TEXT
100
AcDbLine
 10
0.7159969332761654
 20
-0.5118753524709972
 30
0.0
 11
0.7159969332761654
 21
-0.3802957839948169
 31
0.0
  0
LINE
  5
504
330
18
100
AcDbEntity
  8
TEXT
100
AcDbLine
 10
0.7159969332761654
 20
-0.3802957839948169
 30
0.0
 11
0.7919004664876299
 21
-0.5118753524709972
 31
0.0
  0
LINE
  5
505
330
18
100
AcDbEntity
  8
TEXT
100
AcDbLine
 10
0.6516187489575396
 20
-0.3096790141392516
 30
0.0
 11
0.6516187489575449
 21
-0.5118753524709972
 31
0.0
  0
LINE
  5
506
330
18
100
AcDbEntity
  8
TEXT
100
AcDbLine
 10
0.6516187489575449
 20
-0.5118753524709972
 30
0.0
 11
0.7159969332761654
 21
-0.5118753524709972
 31
0.0
  0
LINE
  5
507
330
18
100
AcDbEntity
  8
TEXT
100
AcDbLine
 10
0.7154537401803181
 20
-0.1799381137148854
 30
0.0
 11
0.6471388616310448
 21
-0.1799381137148854
 31
0.0
  0
LINE
  5
508
330
18
100
AcDbEntity
  8
TEXT
100
AcDbLine
 10
0.6471388616310448
 20
-0.1799381137148854
 30
0.0
 11
0.6471388616310394
 21
-0.2454023194824861
 31
0.0
  0
LINE
  5
509
330
18
100
AcDbEntity
  8
TEXT
100
AcDbLine
 10
0.7625518987363025
 20
-0.2454023194824861
 30
0.0
 11
0.7154537401803181
 21
-0.3212676458940242
 31
0.0
  0
LINE
  5
50A
330
18
100
AcDbEntity
  8
TEXT
100
AcDbLine
 10
0.7154537401803181
 20
-0.3212676458940242
 30
0.0
 11
0.7154537401803181
 21
-0.1799381137148854
 31
0.0
  0
ENDSEC
  0
SECTION
  2
OBJECTS
  0
DICTIONARY
  5
C
330
0
100
AcDbDictionary
  3
ACAD_GROUP
350
D
  3
ACAD_LAYOUT
350
50F
  3
ACAD_MLINESTYLE
350
E
  3
ACAD_PLOTSETTINGS
350
510
  3
ACAD_PLOTSTYLENAME
350
50D
  3
ACDBHEADERROUNDTRIPXREC
350
51B
  3
ACDBVARIABLEDICTIONARY
350
518
  0
DICTIONARY
  5
53D
330
18
100
AcDbDictionary
280
     1
  3
ACAD_LAYOUTSELFREF
360
53E
  0
DICTIONARY
  5
53B
330
15
100
AcDbDictionary
280
     1
  3
ACAD_LAYOUTSELFREF
360
53C
  0
DICTIONARY
  5
D
102
{ACAD_REACTORS
330
C
102
}
330
C
100
AcDbDictionary
  0
DICTIONARY
  5
50F
102
{ACAD_REACTORS
330
C
102
}
330
C
100
AcDbDictionary
  0
DICTIONARY
  5
E
102
{ACAD_REACTORS
330
C
102
}
330
C
100
AcDbDictionary
  3
STANDARD
350
1B
  0
DICTIONARY
  5
510
102
{ACAD_REACTORS
330
C
102
}
330
C
100
AcDbDictionary
  0
ACDBDICTIONARYWDFLT
  5
50D
102
{ACAD_REACTORS
330
C
102
}
330
C
100
AcDbDictionary
281
     1
  3
Normal
350
50E
100
AcDbDictionaryWithDefault
340
50E
  0
DICTIONARY
  5
51B
102
{ACAD_REACTORS
330
C
102
}
330
C
100
AcDbDictionary
  3
CEPSNTYPE
350
525
  3
FINGERPRINTGUID
350
526
  3
HYPERLINKBASE
350
51E
  3
INSUNITS
350
524
  3
LAYOUTDICT
350
520
  3
LWETCUNION
350
523
  3
PLOTSETDICT
350
521
  3
PLOTSTYLNAMDICT
350
522
  3
PSVPSCALE
350
528
  3
PUCSBASE
350
52B
  3
PUCSORGBACK
350
531
  3
PUCSORGBOTTOM
350
52D
  3
PUCSORGFRONT
350
530
  3
PUCSORGLEFT
350
52E
  3
PUCSORGRIGHT
350
52F
  3
PUCSORGTOP
350
52C
  3
PUCSORTHOREF
350
529
  3
PUCSORTHOVIEW
350
52A
  3
STYLESHEET
350
51F
  3
TSTACKALIGN
350
51C
  3
TSTACKSIZE
350
51D
  3
UCSBASE
350
534
  3
UCSORGBACK
350
53A
  3
UCSORGBOTTOM
350
536
  3
UCSORGFRONT
350
539
  3
UCSORGLEFT
350
537
  3
UCSORGRIGHT
350
538
  3
UCSORGTOP
350
535
  3
UCSORTHOREF
350
532
  3
UCSORTHOVIEW
350
533
  3
VERSIONGUID
350
527
  0
DICTIONARY
  5
518
102
{ACAD_REACTORS
330
C
102
}
330
C
100
AcDbDictionary
  3
DIMASSOC
350
519
  0
XRECORD
  5
53E
102
{ACAD_REACTORS
330
53D
102
}
330
53D
100
AcDbXrecord
340
18
  0
XRECORD
  5
53C
102
{ACAD_REACTORS
330
53B
102
}
330
53B
100
AcDbXrecord
340
15
  0
MLINESTYLE
  5
1B
102
{ACAD_REACTORS
330
E
102
}
330
E
100
AcDbMlineStyle
  2
STANDARD
 70
     0
  3

 62
     0
 51
90.0
 52
90.0
 71
     2
 49
0.5
 62
   256
  6
BYLAYER
 49
-0.5
 62
   256
  6
BYLAYER
  0
ACDBPLACEHOLDER
  5
50E
102
{ACAD_REACTORS
330
50D
102
}
330
50D
100
AcDbPlaceHolder
280
     0
  0
XRECORD
  5
525
102
{ACAD_REACTORS
330
51B
102
}
330
51B
100
AcDbXrecord
 90
        0
  0
XRECORD
  5
526
102
{ACAD_REACTORS
330
51B
102
}
330
51B
100
AcDbXrecord
  1
{E251CC20-8DB5-11D6-88E6-0090279574E7}
  0
XRECORD
  5
51E
102
{ACAD_REACTORS
330
51B
102
}
330
51B
100
AcDbXrecord
  1

  0
XRECORD
  5
524
102
{ACAD_REACTORS
330
51B
102
}
330
51B
100
AcDbXrecord
 90
        0
  0
XRECORD
  5
520
102
{ACAD_REACTORS
330
51B
102
}
330
51B
100
AcDbXrecord
340
50F
  0
XRECORD
  5
523
102
{ACAD_REACTORS
330
51B
102
}
330
51B
100
AcDbXrecord
 90
    14877
  0
XRECORD
  5
521
102
{ACAD_REACTORS
330
51B
102
}
330
51B
100
AcDbXrecord
340
510
  0
XRECORD
  5
522
102
{ACAD_REACTORS
330
51B
102
}
330
51B
100
AcDbXrecord
340
50D
  0
XRECORD
  5
528
102
{ACAD_REACTORS
330
51B
102
}
330
51B
100
AcDbXrecord
 40
0.0
  0
XRECORD
  5
52B
102
{ACAD_REACTORS
330
51B
102
}
330
51B
100
AcDbXrecord
340
0
  0
XRECORD
  5
531
102
{ACAD_REACTORS
330
51B
102
}
330
51B
100
AcDbXrecord
 10
0.0
 20
0.0
 30
0.0
  0
XRECORD
  5
52D
102
{ACAD_REACTORS
330
51B
102
}
330
51B
100
AcDbXrecord
 10
0.0
 20
0.0
 30
0.0
  0
XRECORD
  5
530
102
{ACAD_REACTORS
330
51B
102
}
330
51B
100
AcDbXrecord
 10
0.0
 20
0.0
 30
0.0
  0
XRECORD
  5
52E
102
{ACAD_REACTORS
330
51B
102
}
330
51B
100
AcDbXrecord
 10
0.0
 20
0.0
 30
0.0
  0
XRECORD
  5
52F
102
{ACAD_REACTORS
330
51B
102
}
330
51B
100
AcDbXrecord
 10
0.0
 20
0.0
 30
0.0
  0
XRECORD
  5
52C
102
{ACAD_REACTORS
330
51B
102
}
330
51B
100
AcDbXrecord
 10
0.0
 20
0.0
 30
0.0
  0
XRECORD
  5
529
102
{ACAD_REACTORS
330
51B
102
}
330
51B
100
AcDbXrecord
340
0
  0
XRECORD
  5
52A
102
{ACAD_REACTORS
330
51B
102
}
330
51B
100
AcDbXrecord
 70
     0
  0
XRECORD
  5
51F
102
{ACAD_REACTORS
330
51B
102
}
330
51B
100
AcDbXrecord
  1

  0
XRECORD
  5
51C
102
{ACAD_REACTORS
330
51B
102
}
330
51B
100
AcDbXrecord
 90
        1
  0
XRECORD
  5
51D
102
{ACAD_REACTORS
330
51B
102
}
330
51B
100
AcDbXrecord
 90
       70
  0
XRECORD
  5
534
102
{ACAD_REACTORS
330
51B
102
}
330
51B
100
AcDbXrecord
340
0
  0
XRECORD
  5
53A
102
{ACAD_REACTORS
330
51B
102
}
330
51B
100
AcDbXrecord
 10
0.0
 20
0.0
 30
0.0
  0
XRECORD
  5
536
102
{ACAD_REACTORS
330
51B
102
}
330
51B
100
AcDbXrecord
 10
0.0
 20
0.0
 30
0.0
  0
XRECORD
  5
539
102
{ACAD_REACTORS
330
51B
102
}
330
51B
100
AcDbXrecord
 10
0.0
 20
0.0
 30
0.0
  0
XRECORD
  5
537
102
{ACAD_REACTORS
330
51B
102
}
330
51B
100
AcDbXrecord
 10
0.0
 20
0.0
 30
0.0
  0
XRECORD
  5
538
102
{ACAD_REACTORS
330
51B
102
}
330
51B
100
AcDbXrecord
 10
0.0
 20
0.0
 30
0.0
  0
XRECORD
  5
535
102
{ACAD_REACTORS
330
51B
102
}
330
51B
100
AcDbXrecord
 10
0.0
 20
0.0
 30
0.0
  0
XRECORD
  5
532
102
{ACAD_REACTORS
330
51B
102
}
330
51B
100
AcDbXrecord
340
0
  0
XRECORD
  5
533
102
{ACAD_REACTORS
330
51B
102
}
330
51B
100
AcDbXrecord
 70
     0
  0
XRECORD
  5
527
102
{ACAD_REACTORS
330
51B
102
}
330
51B
100
AcDbXrecord
  1
{E251CC22-8DB5-11D6-88E6-0090279574E7}
  0
DICTIONARYVAR
  5
519
102
{ACAD_REACTORS
330
518
102
}
330
518
100
DictionaryVariables
280
     0
  1
1
  0
ENDSEC
  0
EOF
