  0
SECTION
  2
HEADER
  9
$ACADVER
  1
AC1014
  9
$ACADMAINTVER
 70
     9
  9
$DWGCODEPAGE
  3
ANSI_1252
  9
$INSBASE
 10
6.322996181969188
 20
5.681475648912917
 30
0.0
  9
$EXTMIN
 10
4.830869109713848
 20
3.194639555945984
 30
0.0
  9
$EXTMAX
 10
8.679380693141474
 20
6.988094956431635
 30
0.0
  9
$LIMMIN
 10
0.0
 20
0.0
  9
$LIMMAX
 10
18.0
 20
12.0
  9
$ORTHOMODE
 70
     1
  9
$REGENMODE
 70
     1
  9
$FILLMODE
 70
     1
  9
$QTEXTMODE
 70
     0
  9
$MIRRTEXT
 70
     0
  9
$DRAGMODE
 70
     2
  9
$LTSCALE
 40
1.0
  9
$OSMODE
 70
    39
  9
$ATTMODE
 70
     1
  9
$TEXTSIZE
 40
0.125
  9
$TRACEWID
 40
0.05
  9
$TEXTSTYLE
  7
ROMANS
  9
$CLAYER
  8
0
  9
$CELTYPE
  6
BYLAYER
  9
$CECOLOR
 62
   256
  9
$CELTSCALE
 40
1.0
  9
$DELOBJ
 70
     1
  9
$DISPSILH
 70
     1
  9
$DIMSCALE
 40
1.0
  9
$DIMASZ
 40
0.125
  9
$DIMEXO
 40
0.125
  9
$DIMDLI
 40
0.375
  9
$DIMRND
 40
0.0
  9
$DIMDLE
 40
0.0
  9
$DIMEXE
 40
0.125
  9
$DIMTP
 40
0.0
  9
$DIMTM
 40
0.0
  9
$DIMTXT
 40
0.125
  9
$DIMCEN
 40
-0.125
  9
$DIMTSZ
 40
0.0
  9
$DIMTOL
 70
     0
  9
$DIMLIM
 70
     0
  9
$DIMTIH
 70
     1
  9
$DIMTOH
 70
     1
  9
$DIMSE1
 70
     0
  9
$DIMSE2
 70
     0
  9
$DIMTAD
 70
     0
  9
$DIMZIN
 70
     4
  9
$DIMBLK
  1

  9
$DIMASO
 70
     1
  9
$DIMSHO
 70
     1
  9
$DIMPOST
  1

  9
$DIMAPOST
  1

  9
$DIMALT
 70
     0
  9
$DIMALTD
 70
     2
  9
$DIMALTF
 40
25.4
  9
$DIMLFAC
 40
1.0
  9
$DIMTOFL
 70
     0
  9
$DIMTVP
 40
0.0
  9
$DIMTIX
 70
     1
  9
$DIMSOXD
 70
     0
  9
$DIMSAH
 70
     0
  9
$DIMBLK1
  1

  9
$DIMBLK2
  1

  9
$DIMSTYLE
  2
STANDARD
  9
$DIMCLRD
 70
     0
  9
$DIMCLRE
 70
     0
  9
$DIMCLRT
 70
     0
  9
$DIMTFAC
 40
1.0
  9
$DIMGAP
 40
0.09
  9
$DIMJUST
 70
     0
  9
$DIMSD1
 70
     0
  9
$DIMSD2
 70
     0
  9
$DIMTOLJ
 70
     1
  9
$DIMTZIN
 70
     4
  9
$DIMALTZ
 70
     0
  9
$DIMALTTZ
 70
     0
  9
$DIMFIT
 70
     3
  9
$DIMUPT
 70
     0
  9
$DIMUNIT
 70
     2
  9
$DIMDEC
 70
     3
  9
$DIMTDEC
 70
     3
  9
$DIMALTU
 70
     2
  9
$DIMALTTD
 70
     2
  9
$DIMTXSTY
  7
ROMANS
  9
$DIMAUNIT
 70
     0
  9
$LUNITS
 70
     2
  9
$LUPREC
 70
     3
  9
$SKETCHINC
 40
0.1
  9
$FILLETRAD
 40
0.03125
  9
$AUNITS
 70
     0
  9
$AUPREC
 70
     0
  9
$MENU
  1
ACAD
  9
$ELEVATION
 40
0.0
  9
$PELEVATION
 40
0.0
  9
$THICKNESS
 40
0.0
  9
$LIMCHECK
 70
     0
  9
$BLIPMODE
 70
     0
  9
$CHAMFERA
 40
0.0
  9
$CHAMFERB
 40
0.0
  9
$CHAMFERC
 40
0.0
  9
$CHAMFERD
 40
0.0
  9
$SKPOLY
 70
     0
  9
$TDCREATE
 40
2448994.539063773
  9
$TDUPDATE
 40
2452458.304783599
  9
$TDINDWG
 40
0.0009982060
  9
$TDUSRTIMER
 40
0.0009982060
  9
$USRTIMER
 70
     1
  9
$ANGBASE
 50
0.0
  9
$ANGDIR
 70
     0
  9
$PDMODE
 70
     0
  9
$PDSIZE
 40
0.0
  9
$PLINEWID
 40
0.0
  9
$COORDS
 70
     2
  9
$SPLFRAME
 70
     0
  9
$SPLINETYPE
 70
     6
  9
$SPLINESEGS
 70
     8
  9
$ATTDIA
 70
     0
  9
$ATTREQ
 70
     1
  9
$HANDLING
 70
 22529
  9
$HANDSEED
  5
7DE1B343D9DFEF2
  9
$SURFTAB1
 70
     6
  9
$SURFTAB2
 70
     6
  9
$SURFTYPE
 70
     6
  9
$SURFU
 70
     6
  9
$SURFV
 70
     6
  9
$UCSNAME
  2

  9
$UCSORG
 10
0.0
 20
0.0
 30
0.0
  9
$UCSXDIR
 10
1.0
 20
0.0
 30
0.0
  9
$UCSYDIR
 10
0.0
 20
1.0
 30
0.0
  9
$PUCSNAME
  2

  9
$PUCSORG
 10
0.0
 20
0.0
 30
0.0
  9
$PUCSXDIR
 10
1.0
 20
0.0
 30
0.0
  9
$PUCSYDIR
 10
0.0
 20
1.0
 30
0.0
  9
$USERI1
 70
     0
  9
$USERI2
 70
     0
  9
$USERI3
 70
     0
  9
$USERI4
 70
     0
  9
$USERI5
 70
     0
  9
$USERR1
 40
0.0
  9
$USERR2
 40
0.0
  9
$USERR3
 40
0.0
  9
$USERR4
 40
0.0
  9
$USERR5
 40
0.0
  9
$WORLDVIEW
 70
     1
  9
$SHADEDGE
 70
     3
  9
$SHADEDIF
 70
    70
  9
$TILEMODE
 70
     1
  9
$MAXACTVP
 70
    16
  9
$PINSBASE
 10
3.79343324519102
 20
50.00000000000001
 30
5.461202600613032
  9
$PLIMCHECK
 70
     0
  9
$PEXTMIN
 10
1.000000000000000E+20
 20
1.000000000000000E+20
 30
1.000000000000000E+20
  9
$PEXTMAX
 10
-1.000000000000000E+20
 20
-1.000000000000000E+20
 30
-1.000000000000000E+20
  9
$PLIMMIN
 10
0.0
 20
0.0
  9
$PLIMMAX
 10
12.0
 20
9.0
  9
$UNITMODE
 70
     0
  9
$VISRETAIN
 70
     0
  9
$PLINEGEN
 70
     1
  9
$PSLTSCALE
 70
     0
  9
$TREEDEPTH
 70
  3020
  9
$PICKSTYLE
 70
     1
  9
$CMLSTYLE
  2
STANDARD
  9
$CMLJUST
 70
     0
  9
$CMLSCALE
 40
1.0
  9
$PROXYGRAPHICS
 70
     1
  9
$MEASUREMENT
 70
     0
  0
ENDSEC
  0
SECTION
  2
CLASSES
  0
CLASS
  1
LWPOLYLINE
  2
AcDbPolyline
  3
AutoCAD 2000
 90
        0
280
     0
281
     1
  0
CLASS
  1
ACDBDICTIONARYWDFLT
  2
AcDbDictionaryWithDefault
  3
AutoCAD 2000
 90
        0
280
     0
281
     0
  0
CLASS
  1
ACDBPLACEHOLDER
  2
AcDbPlaceHolder
  3
AutoCAD 2000
 90
        0
280
     0
281
     0
  0
CLASS
  1
LAYOUT
  2
AcDbLayout
  3
AutoCAD 2000
 90
        0
280
     0
281
     0
  0
CLASS
  1
DICTIONARYVAR
  2
AcDbDictionaryVar
  3
AutoCAD 2000
 90
        0
280
     0
281
     0
  0
CLASS
  1
LONG_TRANSACTION
  2
AcDbLongTransaction
  3
AutoCAD 2000
 90
        0
280
     0
281
     0
  0
CLASS
  1
LWPOLYLINE
  2
AcDbPolyline
  3
AutoCAD 2000
 90
        0
280
     0
281
     1
  0
CLASS
  1
HATCH
  2
AcDbHatch
  3
AutoCAD 2000
 90
        0
280
     0
281
     1
  0
CLASS
  1
XRECORD
  2
AcDbXrecord
  3
AutoCAD 2000
 90
        0
280
     0
281
     0
  0
ENDSEC
  0
SECTION
  2
TABLES
  0
TABLE
  2
VPORT
  5
7DE1B343D9DFE7E
330
0
100
AcDbSymbolTable
 70
     2
  0
VPORT
  5
7DE1B343D9DFECD
330
7DE1B343D9DFE7E
100
AcDbSymbolTableRecord
100
AcDbViewportTableRecord
  2
*ACTIVE
 70
     0
 10
0.0
 20
0.0
 11
1.0
 21
1.0
 12
12.34145376393807
 22
5.091339138209981
 13
0.0
 23
0.0
 14
0.015625
 24
0.015625
 15
0.0
 25
0.0
 16
0.0
 26
0.0
 36
1.0
 17
0.0
 27
0.0
 37
0.0
 40
4.284156611737523
 41
4.320930232558139
 42
50.0
 43
0.0
 44
0.0
 50
0.0
 51
0.0
 71
     0
 72
  2000
 73
     1
 74
     0
 75
     0
 76
     0
 77
     0
 78
     0
  0
ENDTAB
  0
TABLE
  2
LTYPE
  5
7DE1B343D9DFE7B
330
0
100
AcDbSymbolTable
 70
     1
  0
LTYPE
  5
7DE1B343D9DFE88
330
7DE1B343D9DFE7B
100
AcDbSymbolTableRecord
100
AcDbLinetypeTableRecord
  2
BYBLOCK
 70
     0
  3

 72
    65
 73
     0
 40
0.0
  0
LTYPE
  5
7DE1B343D9DFE89
330
7DE1B343D9DFE7B
100
AcDbSymbolTableRecord
100
AcDbLinetypeTableRecord
  2
BYLAYER
 70
     0
  3

 72
    65
 73
     0
 40
0.0
  0
LTYPE
  5
7DE1B343D9DFE8A
330
7DE1B343D9DFE7B
100
AcDbSymbolTableRecord
100
AcDbLinetypeTableRecord
  2
CONTINUOUS
 70
     0
  3
Solid line
 72
    65
 73
     0
 40
0.0
  0
ENDTAB
  0
TABLE
  2
LAYER
  5
7DE1B343D9DFE78
330
0
100
AcDbSymbolTable
 70
     3
  0
LAYER
  5
7DE1B343D9DFE85
330
7DE1B343D9DFE78
100
AcDbSymbolTableRecord
100
AcDbLayerTableRecord
  2
0
 70
     0
 62
     7
  6
CONTINUOUS
  0
LAYER
  5
7DE1B343D9DFE95
330
7DE1B343D9DFE78
100
AcDbSymbolTableRecord
100
AcDbLayerTableRecord
  2
TEXT
 70
     0
 62
     3
  6
CONTINUOUS
  0
LAYER
  5
7DE1B343D9DFEA5
330
7DE1B343D9DFE78
100
AcDbSymbolTableRecord
100
AcDbLayerTableRecord
  2
ASHADE
 70
     4
 62
     7
  6
CONTINUOUS
  0
ENDTAB
  0
TABLE
  2
STYLE
  5
7DE1B343D9DFE79
330
0
100
AcDbSymbolTable
 70
     4
  0
STYLE
  5
7DE1B343D9DFE86
330
7DE1B343D9DFE79
100
AcDbSymbolTableRecord
100
AcDbTextStyleTableRecord
  2
STANDARD
 70
     0
 40
0.0
 41
1.0
 50
0.0
 71
     0
 42
0.3125
  3
txt
  4

  0
STYLE
  5
7DE1B343D9DFE92
330
7DE1B343D9DFE79
100
AcDbSymbolTableRecord
100
AcDbTextStyleTableRecord
  2
ITALICC
 70
     0
 40
0.0
 41
1.0
 50
0.0
 71
     0
 42
0.125
  3
italicc
  4

  0
STYLE
  5
7DE1B343D9DFEA2
330
7DE1B343D9DFE79
100
AcDbSymbolTableRecord
100
AcDbTextStyleTableRecord
  2
ASHADE
 70
     0
 40
0.2
 41
1.0
 50
0.0
 71
     0
 42
0.3125
  3
simplex
  4

  0
STYLE
  5
7DE1B343D9DFEBD
330
7DE1B343D9DFE79
100
AcDbSymbolTableRecord
100
AcDbTextStyleTableRecord
  2
ROMANS
 70
     0
 40
0.0
 41
1.0
 50
0.0
 71
     0
 42
0.125
  3
romans.shx
  4

  0
ENDTAB
  0
TABLE
  2
VIEW
  5
7DE1B343D9DFE7C
330
0
100
AcDbSymbolTable
 70
     0
  0
ENDTAB
  0
TABLE
  2
UCS
  5
7DE1B343D9DFE7D
330
0
100
AcDbSymbolTable
 70
     0
  0
ENDTAB
  0
TABLE
  2
APPID
  5
7DE1B343D9DFE7F
330
0
100
AcDbSymbolTable
 70
     6
  0
APPID
  5
7DE1B343D9DFE87
330
7DE1B343D9DFE7F
100
AcDbSymbolTableRecord
100
AcDbRegAppTableRecord
  2
ACAD
 70
     0
  0
APPID
  5
7DE1B343D9DFEA3
330
7DE1B343D9DFE7F
100
AcDbSymbolTableRecord
100
AcDbRegAppTableRecord
  2
AVE_RENDER
 70
     0
  0
APPID
  5
7DE1B343D9DFEA4
330
7DE1B343D9DFE7F
100
AcDbSymbolTableRecord
100
AcDbRegAppTableRecord
  2
AVE_ENTITY_MATERIAL
 70
     0
  0
APPID
  5
7DE1B343D9DFEB1
330
7DE1B343D9DFE7F
100
AcDbSymbolTableRecord
100
AcDbRegAppTableRecord
  2
AVE_FINISH
 70
     0
  0
APPID
  5
7DE1B343D9DFEB2
330
7DE1B343D9DFE7F
100
AcDbSymbolTableRecord
100
AcDbRegAppTableRecord
  2
AVE_MATERIAL
 70
     0
  0
APPID
  5
7DE1B343D9DFEB3
330
7DE1B343D9DFE7F
100
AcDbSymbolTableRecord
100
AcDbRegAppTableRecord
  2
AVE_GLOBAL
 70
     0
  0
ENDTAB
  0
TABLE
  2
DIMSTYLE
  5
7DE1B343D9DFE80
330
0
100
AcDbSymbolTable
 70
     1
  0
DIMSTYLE
105
7DE1B343D9DFE9A
330
7DE1B343D9DFE80
100
AcDbSymbolTableRecord
100
AcDbDimStyleTableRecord
  2
STANDARD
 70
     0
  3

  4

  5

  6

  7

 40
1.0
 41
0.125
 42
0.125
 43
0.375
 44
0.125
 45
0.0
 46
0.0
 47
0.0
 48
0.0
140
0.125
141
-0.125
142
0.0
143
25.4
144
1.0
145
0.0
146
1.0
147
0.09
 71
     0
 72
     0
 73
     1
 74
     1
 75
     0
 76
     0
 77
     0
 78
     4
170
     0
171
     2
172
     0
173
     0
174
     1
175
     0
176
     0
177
     0
178
     0
270
     2
271
     3
272
     3
273
     2
274
     2
340
7DE1B343D9DFEBD
275
     0
280
     0
281
     0
282
     0
283
     1
284
     4
285
     0
286
     0
287
     3
288
     0
  0
ENDTAB
  0
TABLE
  2
BLOCK_RECORD
  5
7DE1B343D9DFE77
330
0
100
AcDbSymbolTable
 70
     2
  0
BLOCK_RECORD
  5
7DE1B343D9DFE8E
102
{ACAD_XDICTIONARY
360
7DE1B343D9DFEF0
102
}
330
7DE1B343D9DFE77
100
AcDbSymbolTableRecord
100
AcDbBlockTableRecord
  2
*MODEL_SPACE
  0
BLOCK_RECORD
  5
7DE1B343D9DFE8B
102
{ACAD_XDICTIONARY
360
7DE1B343D9DFEEE
102
}
330
7DE1B343D9DFE77
100
AcDbSymbolTableRecord
100
AcDbBlockTableRecord
  2
*PAPER_SPACE
  0
BLOCK_RECORD
  5
7DE1B343D9DFEA6
330
7DE1B343D9DFE77
100
AcDbSymbolTableRecord
100
AcDbBlockTableRecord
  2
AVE_RENDER
  0
BLOCK_RECORD
  5
7DE1B343D9DFEB4
330
7DE1B343D9DFE77
100
AcDbSymbolTableRecord
100
AcDbBlockTableRecord
  2
AVE_GLOBAL
  0
ENDTAB
  0
ENDSEC
  0
SECTION
  2
BLOCKS
  0
BLOCK
  5
7DE1B343D9DFE98
330
7DE1B343D9DFE8E
100
AcDbEntity
  8
0
100
AcDbBlockBegin
  2
*MODEL_SPACE
 70
     0
 10
0.0
 20
0.0
 30
0.0
  3
*MODEL_SPACE
  1

  0
ENDBLK
  5
7DE1B343D9DFE99
330
7DE1B343D9DFE8E
100
AcDbEntity
  8
0
100
AcDbBlockEnd
  0
BLOCK
  5
7DE1B343D9DFE96
330
7DE1B343D9DFE8B
100
AcDbEntity
 67
     1
  8
0
100
AcDbBlockBegin
  2
*PAPER_SPACE
 70
     0
 10
0.0
 20
0.0
 30
0.0
  3
*PAPER_SPACE
  1

  0
ENDBLK
  5
7DE1B343D9DFE97
330
7DE1B343D9DFE8B
100
AcDbEntity
 67
     1
  8
0
100
AcDbBlockEnd
  0
BLOCK
  5
7DE1B343D9DFEA7
330
7DE1B343D9DFEA6
100
AcDbEntity
  8
0
100
AcDbBlockBegin
  2
AVE_RENDER
 70
     0
 10
0.0
 20
0.0
 30
0.0
  3
AVE_RENDER
  1
AVE_RENDER
  0
ENDBLK
  5
7DE1B343D9DFEA8
330
7DE1B343D9DFEA6
100
AcDbEntity
  8
0
100
AcDbBlockEnd
  0
BLOCK
  5
7DE1B343D9DFEB5
330
7DE1B343D9DFEB4
100
AcDbEntity
  8
0
100
AcDbBlockBegin
  2
AVE_GLOBAL
 70
     0
 10
0.0
 20
0.0
 30
0.0
  3
AVE_GLOBAL
  1
AVE_GLOBAL
  0
ENDBLK
  5
7DE1B343D9DFEB6
330
7DE1B343D9DFEB4
100
AcDbEntity
  8
0
100
AcDbBlockEnd
  0
ENDSEC
  0
SECTION
  2
ENTITIES
  0
LWPOLYLINE
  5
7DE1B343D9DE8FF
330
7DE1B343D9DFE8E
100
AcDbEntity
  8
0
100
AcDbPolyline
 90
       17
 70
     1
 43
0.0
 10
5.198932928061251
 20
6.919075003968098
 10
8.010767959178934
 20
6.919075003968098
 42
-0.3956352645581227
 10
5.198932928061251
 20
4.046735783499624
 10
5.198932928061251
 20
4.481575003968099
 10
5.152057928061251
 20
4.454511710099835
 42
0.2679491924311219
 10
5.136432928061251
 20
4.427448416231571
 10
5.136432928061252
 20
4.044739972850416
 42
-0.0026879292676233
 10
5.104853980692831
 20
4.044237750858719
 42
1.000000000000007
 10
5.105511875429673
 20
3.981741213558518
 42
0.4080606327252913
 10
8.073766718470832
 20
6.949996056599676
 42
0.4173000774246855
 10
8.042518449820731
 20
6.981575003968098
 10
5.105182928061251
 20
6.981575003968098
 42
1.0
 10
5.105182928061251
 20
6.919075003968097
 10
5.136432928061251
 20
6.919075003968098
 10
5.136432928061251
 20
6.535701591704626
 42
0.2679491924311219
 10
5.152057928061251
 20
6.508638297836362
 10
5.198932928061251
 20
6.481575003968098
  0
TEXT
  5
7DE1B343D9DFD39
330
7DE1B343D9DFE8E
100
AcDbEntity
  8
TEXT
100
AcDbText
 10
5.820874498464801
 20
3.652658160028566
 30
0.0
 40
0.125
  1
PART #110286
  7
ITALICC
 72
     1
 11
6.573850688940991
 21
3.652658160028566
 31
0.0
100
AcDbText
  0
TEXT
  5
7DE1B343D9DFD3A
330
7DE1B343D9DFE8E
100
AcDbEntity
  8
TEXT
100
AcDbText
 10
6.987155847191312
 20
3.205735517356191
 30
0.0
 40
0.0522247191011236
  1
Phone  1-800-328-2495
 41
1.272321428571429
 72
     5
 11
8.316088431460975
 21
3.205735517356191
 31
0.0
100
AcDbText
  0
TEXT
  5
7DE1B343D9DFD3B
330
7DE1B343D9DFE8E
100
AcDbEntity
  8
TEXT
100
AcDbText
 10
6.987155847191312
 20
3.485510798255067
 30
0.0
 40
0.0522247191011236
  1
Stylmark  Incorporated
 41
1.221428571428573
 72
     5
 11
8.316088431460975
 21
3.485510798255067
 31
0.0
100
AcDbText
  0
TEXT
  5
7DE1B343D9DFD3C
330
7DE1B343D9DFE8E
100
AcDbEntity
  8
TEXT
100
AcDbText
 10
6.987155847191312
 20
3.392252371288775
 30
0.0
 40
0.0522247191011236
  1
6536 Main St. N.E. * P.O. Box 32008
 41
0.8388932496075366
 72
     5
 11
8.316088431460975
 21
3.392252371288775
 31
0.0
100
AcDbText
  0
TEXT
  5
7DE1B343D9DFD3D
330
7DE1B343D9DFE8E
100
AcDbEntity
  8
TEXT
100
AcDbText
 10
6.987155847191312
 20
3.298993944322483
 30
0.0
 40
0.0522247191011236
  1
Minneapolis, MN 55432-0008
 41
1.11444212721585
 72
     5
 11
8.316088431460975
 21
3.298993944322483
 31
0.0
100
AcDbText
  0
LWPOLYLINE
  5
7DE1B343D9DFD3E
330
7DE1B343D9DFE8E
100
AcDbEntity
  8
TEXT
100
AcDbPolyline
 90
        3
 70
     0
 43
0.0006660908203125
 10
4.831202155124004
 20
3.319380279993625
 10
4.831202155124004
 20
3.206144840540498
 10
4.944437594577126
 20
3.206144840540498
  0
LWPOLYLINE
  5
7DE1B343D9DFD43
330
7DE1B343D9DFE8E
100
AcDbEntity
  8
TEXT
100
AcDbPolyline
 90
        3
 70
     0
 43
0.0006660908203125
 10
4.857845787936502
 20
3.319380279993625
 10
4.857845787936502
 20
3.232788473352999
 10
4.944437594577126
 20
3.232788473352999
  0
LWPOLYLINE
  5
7DE1B343D9DFD48
330
7DE1B343D9DFE8E
100
AcDbEntity
  8
TEXT
100
AcDbPolyline
 90
        2
 70
     0
 43
0.0001332181640625
 10
4.904472145358378
 20
3.329371642298311
 10
4.831202155124004
 20
3.319380279993625
  0
LWPOLYLINE
  5
7DE1B343D9DFD4C
330
7DE1B343D9DFE8E
100
AcDbEntity
  8
TEXT
100
AcDbPolyline
 90
        2
 70
     0
 43
0.0001332181640625
 10
4.857845787936502
 20
3.319380279993625
 10
4.917793961764629
 20
3.329371642298311
  0
LWPOLYLINE
  5
7DE1B343D9DFD50
330
7DE1B343D9DFE8E
100
AcDbEntity
  8
TEXT
100
AcDbPolyline
 90
        2
 70
     0
 43
0.0001332181640625
 10
4.857845787936502
 20
3.232788473352999
 10
4.917793961764629
 20
3.292736647181124
  0
LWPOLYLINE
  5
7DE1B343D9DFD54
330
7DE1B343D9DFE8E
100
AcDbEntity
  8
TEXT
100
AcDbPolyline
 90
        3
 70
     0
 43
0.0006660908203125
 10
4.944437594577126
 20
3.472581168665501
 10
4.831202155124004
 20
3.472581168665501
 10
4.831202155124004
 20
3.359345729212373
  0
LWPOLYLINE
  5
7DE1B343D9DFD59
330
7DE1B343D9DFE8E
100
AcDbEntity
  8
TEXT
100
AcDbPolyline
 90
        3
 70
     0
 43
0.0006660908203125
 10
4.944437594577126
 20
3.445937535853
 10
4.857845787936502
 20
3.445937535853
 10
4.857845787936502
 20
3.359345729212373
  0
LWPOLYLINE
  5
7DE1B343D9DFD5E
330
7DE1B343D9DFE8E
100
AcDbEntity
  8
TEXT
100
AcDbPolyline
 90
        2
 70
     0
 43
0.0001332181640625
 10
4.857845787936502
 20
3.445937535853
 10
4.917793961764627
 20
3.385989362024874
  0
LWPOLYLINE
  5
7DE1B343D9DFD62
330
7DE1B343D9DFE8E
100
AcDbEntity
  8
TEXT
100
AcDbPolyline
 90
        2
 70
     0
 43
0.0001332181640625
 10
4.857845787936502
 20
3.359345729212373
 10
4.917793961764627
 20
3.349354366907685
  0
LWPOLYLINE
  5
7DE1B343D9DFD66
330
7DE1B343D9DFE8E
100
AcDbEntity
  8
TEXT
100
AcDbPolyline
 90
        2
 70
     0
 43
0.0001332181640625
 10
4.831202155124004
 20
3.359345729212373
 10
4.904472145358378
 20
3.349354366907685
  0
LWPOLYLINE
  5
7DE1B343D9DFD6A
330
7DE1B343D9DFE8E
100
AcDbEntity
  8
TEXT
100
AcDbPolyline
 90
        2
 70
     0
 43
0.0006660908203125
 10
4.857845787936502
 20
3.319380279993625
 10
4.831202155124004
 20
3.319380279993625
  0
LWPOLYLINE
  5
7DE1B343D9DFD6E
330
7DE1B343D9DFE8E
100
AcDbEntity
  8
TEXT
100
AcDbPolyline
 90
        2
 70
     0
 43
0.0006660908203125
 10
4.857845787936502
 20
3.359345729212373
 10
4.831202155124004
 20
3.359345729212373
  0
LINE
  5
7DE1B343D9DFD72
330
7DE1B343D9DFE8E
100
AcDbEntity
  8
TEXT
100
AcDbLine
 10
6.346392584250502
 20
3.408304474008732
 30
0.0
 11
6.239186310863212
 21
3.408304474008732
 31
0.0
  0
LINE
  5
7DE1B343D9DFD73
330
7DE1B343D9DFE8E
100
AcDbEntity
  8
TEXT
100
AcDbLine
 10
6.37542348259498
 20
3.472581168665497
 30
0.0
 11
6.240591573377921
 21
3.472581168665497
 31
0.0
  0
ARC
  5
7DE1B343D9DFD74
330
7DE1B343D9DFE8E
100
AcDbEntity
  8
TEXT
100
AcDbCircle
 10
6.299905669771238
 20
3.303343919402481
 30
0.0
 40
0.0676855811441166
100
AcDbArc
 50
90.0
 51
153.7768192527749
  0
LWPOLYLINE
  5
7DE1B343D9DFD75
330
7DE1B343D9DFE8E
100
AcDbEntity
  8
TEXT
100
AcDbPolyline
 90
        2
 70
     0
 43
0.0
 10
6.238153815408402
 20
3.249599080627425
 42
0.2901071551932823
 10
6.281229748276038
 20
3.206108135676986
 42
5.328517124445801
  0
ARC
  5
7DE1B343D9DFD79
330
7DE1B343D9DFE8E
100
AcDbEntity
  8
TEXT
100
AcDbCircle
 10
5.594774292099752
 20
3.265900527015036
 30
0.0
 40
0.0601160179737537
100
AcDbArc
 50
180.0000000000003
 51
264.0521544866073
  0
LINE
  5
7DE1B343D9DFD7A
330
7DE1B343D9DFE8E
100
AcDbEntity
  8
TEXT
100
AcDbLine
 10
5.5982896477253
 20
3.506969086259636
 30
0.0
 11
5.538247042881293
 21
3.506969086259636
 31
0.0
  0
ARC
  5
7DE1B343D9DFD7B
330
7DE1B343D9DFE8E
100
AcDbEntity
  8
TEXT
100
AcDbCircle
 10
5.362515289982781
 20
3.390493709218996
 30
0.0
 40
0.0820874594465043
100
AcDbArc
 50
90.0
 51
270.0
  0
LWPOLYLINE
  5
7DE1B343D9DFD7C
330
7DE1B343D9DFE8E
100
AcDbEntity
  8
TEXT
100
AcDbPolyline
 90
        2
 70
     0
 43
0.0001332181640625
 10
4.954428956881817
 20
3.399311178431121
 10
4.944437594577126
 20
3.472581168665501
  0
LWPOLYLINE
  5
7DE1B343D9DFD80
330
7DE1B343D9DFE8E
100
AcDbEntity
  8
TEXT
100
AcDbPolyline
 90
        2
 70
     0
 43
0.0001332181640625
 10
4.944437594577126
 20
3.445937535853
 10
4.954428956881817
 20
3.385989362024874
  0
LWPOLYLINE
  5
7DE1B343D9DFD84
330
7DE1B343D9DFE8E
100
AcDbEntity
  8
TEXT
100
AcDbPolyline
 90
        3
 70
     0
 43
0.0006660908203125
 10
5.097638483249004
 20
3.359345729212373
 10
5.097638483249004
 20
3.472581168665501
 10
4.984403043795878
 20
3.472581168665501
  0
LWPOLYLINE
  5
7DE1B343D9DFD89
330
7DE1B343D9DFE8E
100
AcDbEntity
  8
TEXT
100
AcDbPolyline
 90
        3
 70
     0
 43
0.0006660908203125
 10
5.070994850436503
 20
3.359345729212373
 10
5.070994850436503
 20
3.445937535853
 10
4.984403043795878
 20
3.445937535853
  0
LWPOLYLINE
  5
7DE1B343D9DFD8E
330
7DE1B343D9DFE8E
100
AcDbEntity
  8
TEXT
100
AcDbPolyline
 90
        2
 70
     0
 43
0.0001332181640625
 10
5.070994850436503
 20
3.445937535853
 10
5.011046676608379
 20
3.385989362024874
  0
LWPOLYLINE
  5
7DE1B343D9DFD92
330
7DE1B343D9DFE8E
100
AcDbEntity
  8
TEXT
100
AcDbPolyline
 90
        2
 70
     0
 43
0.0001332181640625
 10
4.984403043795878
 20
3.445937535853
 10
4.974411681491189
 20
3.385989362024874
  0
LWPOLYLINE
  5
7DE1B343D9DFD96
330
7DE1B343D9DFE8E
100
AcDbEntity
  8
TEXT
100
AcDbPolyline
 90
        2
 70
     0
 43
0.0001332181640625
 10
4.984403043795878
 20
3.472581168665501
 10
4.974411681491189
 20
3.399311178431121
  0
LWPOLYLINE
  5
7DE1B343D9DFD9A
330
7DE1B343D9DFE8E
100
AcDbEntity
  8
TEXT
100
AcDbPolyline
 90
        2
 70
     0
 43
0.0001332181640625
 10
5.024368493014628
 20
3.349354366907685
 10
5.097638483249004
 20
3.359345729212373
  0
LWPOLYLINE
  5
7DE1B343D9DFD9E
330
7DE1B343D9DFE8E
100
AcDbEntity
  8
TEXT
100
AcDbPolyline
 90
        2
 70
     0
 43
0.0001332181640625
 10
5.070994850436503
 20
3.359345729212373
 10
5.011046676608379
 20
3.349354366907685
  0
LWPOLYLINE
  5
7DE1B343D9DFDA2
330
7DE1B343D9DFE8E
100
AcDbEntity
  8
TEXT
100
AcDbPolyline
 90
        2
 70
     0
 43
0.0001332181640625
 10
5.097638483249004
 20
3.319380279993625
 10
5.024368493014628
 20
3.329371642298311
  0
LWPOLYLINE
  5
7DE1B343D9DFDA6
330
7DE1B343D9DFE8E
100
AcDbEntity
  8
TEXT
100
AcDbPolyline
 90
        2
 70
     0
 43
0.0001332181640625
 10
5.070994850436503
 20
3.319380279993625
 10
5.011046676608379
 20
3.329371642298311
  0
LWPOLYLINE
  5
7DE1B343D9DFDAA
330
7DE1B343D9DFE8E
100
AcDbEntity
  8
TEXT
100
AcDbPolyline
 90
        2
 70
     0
 43
0.0001332181640625
 10
5.070994850436503
 20
3.232788473352999
 10
5.011046676608379
 20
3.292736647181124
  0
LWPOLYLINE
  5
7DE1B343D9DFDAE
330
7DE1B343D9DFE8E
100
AcDbEntity
  8
TEXT
100
AcDbPolyline
 90
        3
 70
     0
 43
0.0006660908203125
 10
4.984403043795878
 20
3.232788473352999
 10
5.070994850436503
 20
3.232788473352999
 10
5.070994850436503
 20
3.319380279993625
  0
LWPOLYLINE
  5
7DE1B343D9DFDB3
330
7DE1B343D9DFE8E
100
AcDbEntity
  8
TEXT
100
AcDbPolyline
 90
        3
 70
     0
 43
0.0006660908203125
 10
4.984403043795878
 20
3.206144840540498
 10
5.097638483249004
 20
3.206144840540498
 10
5.097638483249004
 20
3.319380279993625
  0
LWPOLYLINE
  5
7DE1B343D9DFDB8
330
7DE1B343D9DFE8E
100
AcDbEntity
  8
TEXT
100
AcDbPolyline
 90
        5
 70
     0
 43
0.0001332181640625
 10
4.954428956881817
 20
3.279414830774874
 10
4.954428956881817
 20
3.292736647181124
 10
4.917793961764629
 20
3.292736647181124
 10
4.917793961764629
 20
3.329371642298311
 10
4.904472145358378
 20
3.329371642298311
  0
LWPOLYLINE
  5
7DE1B343D9DFDBF
330
7DE1B343D9DFE8E
100
AcDbEntity
  8
TEXT
100
AcDbPolyline
 90
        2
 70
     0
 43
0.0006660908203125
 10
4.944437594577126
 20
3.232788473352999
 10
4.944437594577126
 20
3.206144840540498
  0
LWPOLYLINE
  5
7DE1B343D9DFDC3
330
7DE1B343D9DFE8E
100
AcDbEntity
  8
TEXT
100
AcDbPolyline
 90
        2
 70
     0
 43
0.0001332181640625
 10
4.944437594577126
 20
3.232788473352999
 10
4.954428956881817
 20
3.292736647181124
  0
LWPOLYLINE
  5
7DE1B343D9DFDC7
330
7DE1B343D9DFE8E
100
AcDbEntity
  8
TEXT
100
AcDbPolyline
 90
        2
 70
     0
 43
0.0001332181640625
 10
4.944437594577126
 20
3.206144840540498
 10
4.954428956881817
 20
3.279414830774874
  0
LWPOLYLINE
  5
7DE1B343D9DFDCB
330
7DE1B343D9DFE8E
100
AcDbEntity
  8
TEXT
100
AcDbPolyline
 90
        5
 70
     0
 43
0.0001332181640625
 10
4.904472145358378
 20
3.349354366907685
 10
4.917793961764627
 20
3.349354366907685
 10
4.917793961764627
 20
3.385989362024874
 10
4.954428956881817
 20
3.385989362024874
 10
4.954428956881817
 20
3.399311178431121
  0
LWPOLYLINE
  5
7DE1B343D9DFDD2
330
7DE1B343D9DFE8E
100
AcDbEntity
  8
TEXT
100
AcDbPolyline
 90
        5
 70
     0
 43
0.0001332181640625
 10
4.974411681491189
 20
3.399311178431121
 10
4.974411681491189
 20
3.385989362024874
 10
5.011046676608379
 20
3.385989362024874
 10
5.011046676608379
 20
3.349354366907685
 10
5.024368493014628
 20
3.349354366907685
  0
LWPOLYLINE
  5
7DE1B343D9DFDD9
330
7DE1B343D9DFE8E
100
AcDbEntity
  8
TEXT
100
AcDbPolyline
 90
        2
 70
     0
 43
0.0001332181640625
 10
4.984403043795878
 20
3.232788473352999
 10
4.974411681491189
 20
3.292736647181124
  0
LWPOLYLINE
  5
7DE1B343D9DFDDD
330
7DE1B343D9DFE8E
100
AcDbEntity
  8
TEXT
100
AcDbPolyline
 90
        2
 70
     0
 43
0.0001332181640625
 10
4.974411681491189
 20
3.279414830774874
 10
4.984403043795878
 20
3.206144840540498
  0
LWPOLYLINE
  5
7DE1B343D9DFDE1
330
7DE1B343D9DFE8E
100
AcDbEntity
  8
TEXT
100
AcDbPolyline
 90
        2
 70
     0
 43
0.0006660908203125
 10
4.984403043795878
 20
3.232788473352999
 10
4.984403043795878
 20
3.206144840540498
  0
LWPOLYLINE
  5
7DE1B343D9DFDE5
330
7DE1B343D9DFE8E
100
AcDbEntity
  8
TEXT
100
AcDbPolyline
 90
        5
 70
     0
 43
0.0001332181640625
 10
5.024368493014628
 20
3.329371642298311
 10
5.011046676608379
 20
3.329371642298311
 10
5.011046676608379
 20
3.292736647181124
 10
4.974411681491189
 20
3.292736647181124
 10
4.974411681491189
 20
3.279414830774874
  0
LWPOLYLINE
  5
7DE1B343D9DFDEC
330
7DE1B343D9DFE8E
100
AcDbEntity
  8
TEXT
100
AcDbPolyline
 90
        2
 70
     0
 43
0.0006660908203125
 10
5.070994850436503
 20
3.359345729212373
 10
5.097638483249004
 20
3.359345729212373
  0
LWPOLYLINE
  5
7DE1B343D9DFDF0
330
7DE1B343D9DFE8E
100
AcDbEntity
  8
TEXT
100
AcDbPolyline
 90
        2
 70
     0
 43
0.0006660908203125
 10
5.070994850436503
 20
3.319380279993625
 10
5.097638483249004
 20
3.319380279993625
  0
LINE
  5
7DE1B343D9DFDF4
330
7DE1B343D9DFE8E
100
AcDbEntity
  8
TEXT
100
AcDbLine
 10
5.367752620097029
 20
3.408304474008732
 30
0.0
 11
5.534658274126
 21
3.408304474008732
 31
0.0
  0
LINE
  5
7DE1B343D9DFDF5
330
7DE1B343D9DFE8E
100
AcDbEntity
  8
TEXT
100
AcDbLine
 10
5.43335275634133
 20
3.372499752398104
 30
0.0
 11
5.367752620097029
 21
3.372499752398104
 31
0.0
  0
LINE
  5
7DE1B343D9DFDF6
330
7DE1B343D9DFE8E
100
AcDbEntity
  8
TEXT
100
AcDbLine
 10
5.280427830536277
 20
3.206108135676986
 30
0.0
 11
5.43335275634133
 21
3.206108135676986
 31
0.0
  0
LINE
  5
7DE1B343D9DFDF7
330
7DE1B343D9DFE8E
100
AcDbEntity
  8
TEXT
100
AcDbLine
 10
5.438293130247609
 20
3.274465142010426
 30
0.0
 11
5.280427830536275
 21
3.274465142010426
 31
0.0
  0
LINE
  5
7DE1B343D9DFDF8
330
7DE1B343D9DFE8E
100
AcDbEntity
  8
TEXT
100
AcDbLine
 10
5.362515289982781
 20
3.30840624977249
 30
0.0
 11
5.438293130247609
 21
3.30840624977249
 31
0.0
  0
ARC
  5
7DE1B343D9DFDF9
330
7DE1B343D9DFE8E
100
AcDbEntity
  8
TEXT
100
AcDbCircle
 10
5.36775262009703
 20
3.39040211320342
 30
0.0
 40
0.017902360805315
100
AcDbArc
 50
90.0
 51
270.0
  0
LINE
  5
7DE1B343D9DFDFA
330
7DE1B343D9DFE8E
100
AcDbEntity
  8
TEXT
100
AcDbLine
 10
5.280427830536275
 20
3.274465142010426
 30
0.0
 11
5.280427830536277
 21
3.206108135676986
 31
0.0
  0
LINE
  5
7DE1B343D9DFDFB
330
7DE1B343D9DFE8E
100
AcDbEntity
  8
TEXT
100
AcDbLine
 10
5.534658274126
 20
3.408304474008732
 30
0.0
 11
5.534658274126
 21
3.265900527015036
 31
0.0
  0
ARC
  5
7DE1B343D9DFDFC
330
7DE1B343D9DFE8E
100
AcDbEntity
  8
TEXT
100
AcDbCircle
 10
5.433352756341331
 20
3.289303944037544
 30
0.0
 40
0.0831958083605586
100
AcDbArc
 50
270.0
 51
90.0
  0
ARC
  5
7DE1B343D9DFDFD
330
7DE1B343D9DFE8E
100
AcDbEntity
  8
TEXT
100
AcDbCircle
 10
5.43829313024761
 20
3.29143569589146
 30
0.0
 40
0.0169705538810321
100
AcDbArc
 50
270.0
 51
90.0
  0
LWPOLYLINE
  5
7DE1B343D9DFDFE
330
7DE1B343D9DFE8E
100
AcDbEntity
  8
TEXT
100
AcDbPolyline
 90
        2
 70
     0
 43
0.0006660908203125
 10
4.944437594577126
 20
3.445937535853
 10
4.944437594577126
 20
3.472581168665501
  0
LWPOLYLINE
  5
7DE1B343D9DFE02
330
7DE1B343D9DFE8E
100
AcDbEntity
  8
TEXT
100
AcDbPolyline
 90
        2
 70
     0
 43
0.0006660908203125
 10
4.984403043795878
 20
3.445937535853
 10
4.984403043795878
 20
3.472581168665501
  0
LINE
  5
7DE1B343D9DFE06
330
7DE1B343D9DFE8E
100
AcDbEntity
  8
TEXT
100
AcDbLine
 10
5.538247042881293
 20
3.472581168665497
 30
0.0
 11
5.362515289982781
 21
3.472581168665497
 31
0.0
  0
LINE
  5
7DE1B343D9DFE07
330
7DE1B343D9DFE8E
100
AcDbEntity
  8
TEXT
100
AcDbLine
 10
5.538247042881293
 20
3.506969086259636
 30
0.0
 11
5.538247042881293
 21
3.472581168665497
 31
0.0
  0
LINE
  5
7DE1B343D9DFE08
330
7DE1B343D9DFE8E
100
AcDbEntity
  8
TEXT
100
AcDbLine
 10
5.728718934901145
 20
3.371709172552377
 30
0.0
 11
5.670088613869207
 21
3.472581168665497
 31
0.0
  0
LINE
  5
7DE1B343D9DFE09
330
7DE1B343D9DFE8E
100
AcDbEntity
  8
TEXT
100
AcDbLine
 10
5.787467497707011
 20
3.472581168665497
 30
0.0
 11
5.728718934901145
 21
3.371709172552377
 31
0.0
  0
LINE
  5
7DE1B343D9DFE0A
330
7DE1B343D9DFE8E
100
AcDbEntity
  8
TEXT
100
AcDbLine
 10
5.884398123066752
 20
3.288495973779986
 30
0.0
 11
5.884398123066752
 21
3.540592646404308
 31
0.0
  0
LINE
  5
7DE1B343D9DFE0B
330
7DE1B343D9DFE8E
100
AcDbEntity
  8
TEXT
100
AcDbLine
 10
5.916709977204412
 20
3.472581168665497
 30
0.0
 11
5.916709977204412
 21
3.271716961933089
 31
0.0
  0
LINE
  5
7DE1B343D9DFE0C
330
7DE1B343D9DFE8E
100
AcDbEntity
  8
TEXT
100
AcDbLine
 10
5.916709977204412
 20
3.271716961933089
 30
0.0
 11
5.899716340319811
 21
3.271716961933089
 31
0.0
  0
LINE
  5
7DE1B343D9DFE0D
330
7DE1B343D9DFE8E
100
AcDbEntity
  8
TEXT
100
AcDbLine
 10
5.885537696562947
 20
3.206108135676986
 30
0.0
 11
5.983541030262381
 21
3.206108135676986
 31
0.0
  0
LINE
  5
7DE1B343D9DFE0E
330
7DE1B343D9DFE8E
100
AcDbEntity
  8
TEXT
100
AcDbLine
 10
5.719118697904191
 20
3.226066641781999
 30
0.0
 11
5.816418403997635
 21
3.390416852717268
 31
0.0
  0
ARC
  5
7DE1B343D9DFE0F
330
7DE1B343D9DFE8E
100
AcDbEntity
  8
TEXT
100
AcDbCircle
 10
5.685075137991977
 20
3.245655857950682
 30
0.0
 40
0.0392772371940762
100
AcDbArc
 50
270.1604552698595
 51
330.0831797321295
  0
LINE
  5
7DE1B343D9DFE10
330
7DE1B343D9DFE8E
100
AcDbEntity
  8
TEXT
100
AcDbLine
 10
5.588544881606106
 20
3.206108135676986
 30
0.0
 11
5.6851851326811
 21
3.206378774775269
 31
0.0
  0
LWPOLYLINE
  5
7DE1B343D9DFE11
330
7DE1B343D9DFE8E
100
AcDbEntity
  8
TEXT
100
AcDbPolyline
 90
        6
 70
     1
 43
0.0
 10
5.631068685181255
 20
3.408304474008732
 10
5.600752090961047
 20
3.408304474008732
 10
5.600752090961047
 20
3.285193475953838
 42
0.407328721240804
 10
5.612295742122523
 20
3.273374561277452
 10
5.672917441167254
 20
3.273374561277452
 10
5.690382781574572
 20
3.306186790320931
  0
LINE
  5
7DE1B343D9DFE19
330
7DE1B343D9DFE8E
100
AcDbEntity
  8
TEXT
100
AcDbLine
 10
5.816418403997635
 20
3.390416852717268
 30
0.0
 11
5.816418403997635
 21
3.257659477891911
 31
0.0
  0
ARC
  5
7DE1B343D9DFE1A
330
7DE1B343D9DFE8E
100
AcDbEntity
  8
TEXT
100
AcDbCircle
 10
5.899716340319809
 20
3.287098768176515
 30
0.0
 40
0.0153818062434269
100
AcDbArc
 50
174.7883570302258
 51
270.0
  0
LWPOLYLINE
  5
7DE1B343D9DFE1B
330
7DE1B343D9DFE8E
100
AcDbEntity
  8
TEXT
100
AcDbPolyline
 90
        2
 70
     0
 43
0.0
 10
5.816418403997634
 20
3.257659477891915
 42
0.3318488747599744
 10
5.885537696562947
 20
3.206108135676986
 42
-6.868794160588311
  0
LINE
  5
7DE1B343D9DFE1F
330
7DE1B343D9DFE8E
100
AcDbEntity
  8
TEXT
100
AcDbLine
 10
6.040930099251642
 20
3.206108135676986
 30
0.0
 11
6.107988146033482
 21
3.206108135676986
 31
0.0
  0
LINE
  5
7DE1B343D9DFE20
330
7DE1B343D9DFE8E
100
AcDbEntity
  8
TEXT
100
AcDbLine
 10
6.040930099251642
 20
3.400750684842622
 30
0.0
 11
6.040930099251642
 21
3.206108135676986
 31
0.0
  0
LINE
  5
7DE1B343D9DFE21
330
7DE1B343D9DFE8E
100
AcDbEntity
  8
TEXT
100
AcDbLine
 10
5.983541030262381
 20
3.408304474008732
 30
0.0
 11
6.033376310085529
 21
3.408304474008732
 31
0.0
  0
LINE
  5
7DE1B343D9DFE22
330
7DE1B343D9DFE8E
100
AcDbEntity
  8
TEXT
100
AcDbLine
 10
5.983541030262381
 20
3.206108135676986
 30
0.0
 11
5.983541030262381
 21
3.408304474008732
 31
0.0
  0
LWPOLYLINE
  5
7DE1B343D9DFE23
330
7DE1B343D9DFE8E
100
AcDbEntity
  8
TEXT
100
AcDbPolyline
 90
        2
 70
     0
 43
0.0
 10
6.033376310085527
 20
3.408304474008732
 42
-0.4142135623731017
 10
6.040930099251641
 20
3.400750684842622
 42
-0.9999999999999998
  0
LINE
  5
7DE1B343D9DFE27
330
7DE1B343D9DFE8E
100
AcDbEntity
  8
TEXT
100
AcDbLine
 10
6.239186310863212
 20
3.408304474008732
 30
0.0
 11
6.239186310863212
 21
3.333252067934525
 31
0.0
  0
LINE
  5
7DE1B343D9DFE28
330
7DE1B343D9DFE8E
100
AcDbEntity
  8
TEXT
100
AcDbLine
 10
6.107988146033482
 20
3.408304474008732
 30
0.0
 11
6.162121742954433
 21
3.408304474008732
 31
0.0
  0
LINE
  5
7DE1B343D9DFE29
330
7DE1B343D9DFE8E
100
AcDbEntity
  8
TEXT
100
AcDbLine
 10
6.107988146033482
 20
3.206108135676986
 30
0.0
 11
6.107988146033482
 21
3.408304474008732
 31
0.0
  0
LWPOLYLINE
  5
7DE1B343D9DFE2A
330
7DE1B343D9DFE8E
100
AcDbEntity
  8
TEXT
100
AcDbPolyline
 90
        2
 70
     0
 43
0.0
 10
6.162121742954431
 20
3.408304474008732
 42
-0.4142135623731017
 10
6.169675532120544
 20
3.400750684842622
 42
-0.9999999999999998
  0
LWPOLYLINE
  5
7DE1B343D9DFE2E
330
7DE1B343D9DFE8E
100
AcDbEntity
  8
TEXT
100
AcDbPolyline
 90
        4
 70
     0
 43
0.0
 10
6.169675532120544
 20
3.400750684842622
 10
6.169675532120544
 20
3.206108135676986
 10
6.238153815408402
 20
3.206108135676986
 10
6.238153815408402
 20
3.249599080627425
 42
-1.714843617202739
  0
LINE
  5
7DE1B343D9DFE34
330
7DE1B343D9DFE8E
100
AcDbEntity
  8
TEXT
100
AcDbLine
 10
5.5982896477253
 20
3.472581168665497
 30
0.0
 11
5.5982896477253
 21
3.506969086259636
 31
0.0
  0
LINE
  5
7DE1B343D9DFE35
330
7DE1B343D9DFE8E
100
AcDbEntity
  8
TEXT
100
AcDbLine
 10
5.670088613869207
 20
3.472581168665497
 30
0.0
 11
5.5982896477253
 21
3.472581168665497
 31
0.0
  0
LINE
  5
7DE1B343D9DFE36
330
7DE1B343D9DFE8E
100
AcDbEntity
  8
TEXT
100
AcDbLine
 10
5.817589410500387
 20
3.472581168665497
 30
0.0
 11
5.787467497707011
 21
3.472581168665497
 31
0.0
  0
LINE
  5
7DE1B343D9DFE37
330
7DE1B343D9DFE8E
100
AcDbEntity
  8
TEXT
100
AcDbLine
 10
5.817589410500387
 20
3.540592646404308
 30
0.0
 11
5.817589410500387
 21
3.472581168665497
 31
0.0
  0
LINE
  5
7DE1B343D9DFE38
330
7DE1B343D9DFE8E
100
AcDbEntity
  8
TEXT
100
AcDbLine
 10
5.884398123066752
 20
3.540592646404308
 30
0.0
 11
5.817589410500387
 21
3.540592646404308
 31
0.0
  0
LWPOLYLINE
  5
7DE1B343D9DFE39
330
7DE1B343D9DFE8E
100
AcDbEntity
  8
TEXT
100
AcDbPolyline
 90
        3
 70
     0
 43
0.0
 10
6.204809882664754
 20
3.472581168665501
 10
6.08650972384871
 20
3.472581168665501
 10
6.08650972384871
 20
3.445413671904605
 42
-1.960274751411753
  0
LINE
  5
7DE1B343D9DFE3E
330
7DE1B343D9DFE8E
100
AcDbEntity
  8
TEXT
100
AcDbLine
 10
6.050728033135548
 20
3.472581168665497
 30
0.0
 11
5.916709977204412
 21
3.472581168665497
 31
0.0
  0
LWPOLYLINE
  5
7DE1B343D9DFE3F
330
7DE1B343D9DFE8E
100
AcDbEntity
  8
TEXT
100
AcDbPolyline
 90
        2
 70
     0
 43
0.0
 10
6.050728033135548
 20
3.472581168665501
 42
-0.3328679258950098
 10
6.08650972384871
 20
3.445413671904605
 42
6.772930709997214
  0
LINE
  5
7DE1B343D9DFE43
330
7DE1B343D9DFE8E
100
AcDbEntity
  8
TEXT
100
AcDbLine
 10
6.240591573377921
 20
3.472581168665497
 30
0.0
 11
6.240591573377921
 21
3.444258622895854
 31
0.0
  0
LWPOLYLINE
  5
7DE1B343D9DFE44
330
7DE1B343D9DFE8E
100
AcDbEntity
  8
TEXT
100
AcDbPolyline
 90
        2
 70
     0
 43
0.0
 10
6.204809882664754
 20
3.472581168665501
 42
-0.3277054968067132
 10
6.240591573377919
 20
3.444258622895857
 42
6.667889725900311
  0
LINE
  5
7DE1B343D9DFE48
330
7DE1B343D9DFE8E
100
AcDbEntity
  8
TEXT
100
AcDbLine
 10
6.454383421470021
 20
3.36736919011207
 30
0.0
 11
6.410632650288119
 21
3.449619466108215
 31
0.0
  0
LINE
  5
7DE1B343D9DFE49
330
7DE1B343D9DFE8E
100
AcDbEntity
  8
TEXT
100
AcDbLine
 10
6.454383421470021
 20
3.472581168665497
 30
0.0
 11
6.454383421470021
 21
3.36736919011207
 31
0.0
  0
LINE
  5
7DE1B343D9DFE4A
330
7DE1B343D9DFE8E
100
AcDbEntity
  8
TEXT
100
AcDbLine
 10
6.68206716040839
 20
3.396715842253959
 30
0.0
 11
6.68206716040839
 21
3.538045374433098
 31
0.0
  0
LINE
  5
7DE1B343D9DFE4B
330
7DE1B343D9DFE8E
100
AcDbEntity
  8
TEXT
100
AcDbLine
 10
6.729165318964374
 20
3.472581168665497
 30
0.0
 11
6.68206716040839
 21
3.396715842253959
 31
0.0
  0
LINE
  5
7DE1B343D9DFE4C
330
7DE1B343D9DFE8E
100
AcDbEntity
  8
TEXT
100
AcDbLine
 10
6.739600035728297
 20
3.362687925724524
 30
0.0
 11
6.804157151694003
 21
3.472581168665497
 31
0.0
  0
LINE
  5
7DE1B343D9DFE4D
330
7DE1B343D9DFE8E
100
AcDbEntity
  8
TEXT
100
AcDbLine
 10
6.618232169185617
 20
3.206108135676986
 30
0.0
 11
6.682610353504237
 21
3.206108135676986
 31
0.0
  0
LWPOLYLINE
  5
7DE1B343D9DFE4E
330
7DE1B343D9DFE8E
100
AcDbEntity
  8
TEXT
100
AcDbPolyline
 90
        2
 70
     0
 43
0.0
 10
6.458323098775059
 20
3.249599080627425
 42
-0.2901071551932486
 10
6.415247165907414
 20
3.206108135676986
 42
-5.328517124445184
  0
ARC
  5
7DE1B343D9DFE52
330
7DE1B343D9DFE8E
100
AcDbEntity
  8
TEXT
100
AcDbCircle
 10
6.3463925842505
 20
3.379945099008735
 30
0.0
 40
0.028359375
100
AcDbArc
 50
25.78218179591245
 51
90.0
  0
LINE
  5
7DE1B343D9DFE53
330
7DE1B343D9DFE8E
100
AcDbEntity
  8
TEXT
100
AcDbLine
 10
6.382193659554623
 20
3.3710295005466
 30
0.0
 11
6.371928899141058
 21
3.392280040119294
 31
0.0
  0
LINE
  5
7DE1B343D9DFE54
330
7DE1B343D9DFE8E
100
AcDbEntity
  8
TEXT
100
AcDbLine
 10
6.29990566977124
 20
3.3710295005466
 30
0.0
 11
6.382193659554623
 21
3.3710295005466
 31
0.0
  0
LWPOLYLINE
  5
7DE1B343D9DFE55
330
7DE1B343D9DFE8E
100
AcDbEntity
  8
TEXT
100
AcDbPolyline
 90
        4
 70
     1
 43
0.0
 10
6.395124700837522
 20
3.309072113661012
 10
6.306464382177663
 20
3.309072113661012
 42
0.9999999999999998
 10
6.306464382177663
 20
3.266673573157151
 10
6.395124700837522
 20
3.266673573157151
 42
1.0
  0
LWPOLYLINE
  5
7DE1B343D9DFE5B
330
7DE1B343D9DFE8E
100
AcDbEntity
  8
TEXT
100
AcDbPolyline
 90
        2
 70
     0
 43
0.0
 10
6.281229748276038
 20
3.206108135676986
 10
6.415247165907414
 20
3.206108135676986
 42
0.9999999999999998
  0
LINE
  5
7DE1B343D9DFE5F
330
7DE1B343D9DFE8E
100
AcDbEntity
  8
TEXT
100
AcDbLine
 10
6.541584187893054
 20
3.408304474008732
 30
0.0
 11
6.618232169185612
 21
3.408304474008732
 31
0.0
  0
LINE
  5
7DE1B343D9DFE60
330
7DE1B343D9DFE8E
100
AcDbEntity
  8
TEXT
100
AcDbLine
 10
6.618232169185612
 20
3.408304474008732
 30
0.0
 11
6.618232169185617
 21
3.206108135676986
 31
0.0
  0
ARC
  5
7DE1B343D9DFE61
330
7DE1B343D9DFE8E
100
AcDbEntity
  8
TEXT
100
AcDbCircle
 10
6.541584187893052
 20
3.383398598726069
 30
0.0
 40
0.0249058752826653
100
AcDbArc
 50
89.99971217465335
 51
179.9999999999985
  0
LINE
  5
7DE1B343D9DFE62
330
7DE1B343D9DFE8E
100
AcDbEntity
  8
TEXT
100
AcDbLine
 10
6.516678312610395
 20
3.206108135676986
 30
0.0
 11
6.516678312610389
 21
3.383398641108455
 31
0.0
  0
LWPOLYLINE
  5
7DE1B343D9DFE63
330
7DE1B343D9DFE8E
100
AcDbEntity
  8
TEXT
100
AcDbPolyline
 90
        2
 70
     0
 43
0.0
 10
6.458323098775059
 20
3.206108135676986
 10
6.516678312610393
 20
3.206108135676986
  0
LWPOLYLINE
  5
7DE1B343D9DFE67
330
7DE1B343D9DFE8E
100
AcDbEntity
  8
TEXT
100
AcDbPolyline
 90
        2
 70
     0
 43
0.0
 10
6.458323098775059
 20
3.249599080627425
 10
6.458323098775059
 20
3.206108135676986
  0
LINE
  5
7DE1B343D9DFE6B
330
7DE1B343D9DFE8E
100
AcDbEntity
  8
TEXT
100
AcDbLine
 10
6.835092259091908
 20
3.206108135676986
 30
0.0
 11
6.739600035728297
 21
3.362687925724524
 31
0.0
  0
LINE
  5
7DE1B343D9DFE6C
330
7DE1B343D9DFE8E
100
AcDbEntity
  8
TEXT
100
AcDbLine
 10
6.758513886715702
 20
3.206108135676986
 30
0.0
 11
6.835092259091908
 21
3.206108135676986
 31
0.0
  0
LINE
  5
7DE1B343D9DFE6D
330
7DE1B343D9DFE8E
100
AcDbEntity
  8
TEXT
100
AcDbLine
 10
6.682610353504237
 20
3.337687704153167
 30
0.0
 11
6.758513886715702
 21
3.206108135676986
 31
0.0
  0
LINE
  5
7DE1B343D9DFE6E
330
7DE1B343D9DFE8E
100
AcDbEntity
  8
TEXT
100
AcDbLine
 10
6.682610353504237
 20
3.206108135676986
 30
0.0
 11
6.682610353504237
 21
3.337687704153167
 31
0.0
  0
LINE
  5
7DE1B343D9DFE6F
330
7DE1B343D9DFE8E
100
AcDbEntity
  8
TEXT
100
AcDbLine
 10
6.68206716040839
 20
3.538045374433098
 30
0.0
 11
6.613752281859117
 21
3.538045374433098
 31
0.0
  0
ARC
  5
7DE1B343D9DFE70
330
7DE1B343D9DFE8E
100
AcDbEntity
  8
TEXT
100
AcDbCircle
 10
6.373396542817911
 20
3.430997601544595
 30
0.0
 40
0.0416329381542859
100
AcDbArc
 50
26.56974201007528
 51
87.20939649401342
  0
LINE
  5
7DE1B343D9DFE71
330
7DE1B343D9DFE8E
100
AcDbEntity
  8
TEXT
100
AcDbLine
 10
6.518280327769522
 20
3.472581168665497
 30
0.0
 11
6.454383421470021
 21
3.472581168665497
 31
0.0
  0
LINE
  5
7DE1B343D9DFE72
330
7DE1B343D9DFE8E
100
AcDbEntity
  8
TEXT
100
AcDbLine
 10
6.518280327769522
 20
3.445033518804623
 30
0.0
 11
6.518280327769522
 21
3.472581168665497
 31
0.0
  0
ARC
  5
7DE1B343D9DFE73
330
7DE1B343D9DFE8E
100
AcDbEntity
  8
TEXT
100
AcDbCircle
 10
6.54947314483263
 20
3.441335441383233
 30
0.0
 40
0.0314112657011332
100
AcDbArc
 50
95.88484768694724
 51
173.2388340632136
  0
LINE
  5
7DE1B343D9DFE74
330
7DE1B343D9DFE8E
100
AcDbEntity
  8
TEXT
100
AcDbLine
 10
6.613752281859111
 20
3.472581168665497
 30
0.0
 11
6.546252564209595
 21
3.472581168665497
 31
0.0
  0
LINE
  5
7DE1B343D9DFE75
330
7DE1B343D9DFE8E
100
AcDbEntity
  8
TEXT
100
AcDbLine
 10
6.613752281859117
 20
3.538045374433098
 30
0.0
 11
6.613752281859111
 21
3.472581168665497
 31
0.0
  0
LINE
  5
7DE1B343D9DFE76
330
7DE1B343D9DFE8E
100
AcDbEntity
  8
TEXT
100
AcDbLine
 10
6.804157151694003
 20
3.472581168665497
 30
0.0
 11
6.729165318964376
 21
3.472581168665497
 31
0.0
  0
INSERT
  5
7DE1B343D9DFEA9
330
7DE1B343D9DFE8E
100
AcDbEntity
  8
ASHADE
 62
     1
100
AcDbBlockReference
  2
AVE_RENDER
 10
0.0
 20
0.0
 30
0.0
1001
AVE_RENDER
1002
{
1070
     6
1000
Pref
1070
    30
1070
    20
1070
     1
1070
     0
1000

1070
    10
1070
     1
1070
    30
1040
1.0
1070
     1
1040
0.3
1040
0.7
1040
0.0
1040
10.0
1010
-1.0
1020
-1.0
1030
-1.0
1040
0.3
1070
    49
1070
     0
1070
     0
1010
1.0
1020
1.0
1030
1.0
1040
45.0
1070
     1
1070
     0
1000
WCS
1040
0.0
1002
}
  0
INSERT
  5
7DE1B343D9DFEAA
330
7DE1B343D9DFE8E
100
AcDbEntity
  8
ASHADE
 62
     3
100
AcDbBlockReference
  2
AVE_RENDER
 10
0.0
 20
0.0
 30
0.0
1001
AVE_RENDER
1002
{
1070
     0
1000
Full Opt
1070
     0
1070
     1
1070
     1
1070
     1
1070
     0
1070
     0
1070
     0
1070
     1
1070
     1
1040
0.0001
1040
0.0001
1002
}
  0
INSERT
  5
7DE1B343D9DFEAB
330
7DE1B343D9DFE8E
100
AcDbEntity
  8
ASHADE
 62
     4
100
AcDbBlockReference
  2
AVE_RENDER
 10
0.0
 20
0.0
 30
0.0
1001
AVE_RENDER
1002
{
1070
     0
1000
Quick Opt
1070
     0
1070
     1
1070
     1
1070
     1
1070
     0
1070
     0
1070
     1
1002
}
  0
INSERT
  5
7DE1B343D9DFEAC
330
7DE1B343D9DFE8E
100
AcDbEntity
  8
ASHADE
 62
     5
100
AcDbBlockReference
  2
AVE_RENDER
 10
0.0
 20
0.0
 30
0.0
1001
AVE_RENDER
1002
{
1070
     1
1000
Scanl Opt
1070
     2
1070
     0
1070
     2
1040
2.0
1040
4.0
1070
     0
1070
     1
1070
     0
1040
0.03
1002
}
  0
INSERT
  5
7DE1B343D9DFEAD
330
7DE1B343D9DFE8E
100
AcDbEntity
  8
ASHADE
 62
     6
100
AcDbBlockReference
  2
AVE_RENDER
 10
0.0
 20
0.0
 30
0.0
1001
AVE_RENDER
1002
{
1070
     2
1000
Raytr Opt
1070
     2
1070
     0
1070
     2
1040
2.0
1040
4.0
1070
     0
1070
     1
1070
     1
1040
0.03
1070
     3
1040
0.03
1002
}
  0
INSERT
  5
7DE1B343D9DFEAE
330
7DE1B343D9DFE8E
100
AcDbEntity
  8
ASHADE
 62
     7
100
AcDbBlockReference
  2
AVE_RENDER
 10
0.0
 20
0.0
 30
0.0
1001
AVE_RENDER
1002
{
1070
     0
1000
RFile Opt
1070
     5
1070
   640
1070
   480
1070
 10000
1070
     3
1070
    32
1070
    24
1070
     0
1070
     0
1070
     0
1070
     1
1070
     0
1070
     0
1070
     0
1002
}
  0
INSERT
  5
7DE1B343D9DFEAF
330
7DE1B343D9DFE8E
100
AcDbEntity
  8
ASHADE
 62
     8
100
AcDbBlockReference
  2
AVE_RENDER
 10
0.0
 20
0.0
 30
0.0
1001
AVE_RENDER
1002
{
1070
     0
1000
Fog Opt
1070
     0
1070
     0
1040
0.0
1040
1.0
1040
0.0
1040
1.0
1010
0.5
1020
0.5
1030
0.5
1002
}
  0
INSERT
  5
7DE1B343D9DFEB0
330
7DE1B343D9DFE8E
100
AcDbEntity
  8
ASHADE
 62
     9
100
AcDbBlockReference
  2
AVE_RENDER
 10
0.0
 20
0.0
 30
0.0
1001
AVE_RENDER
1002
{
1070
     0
1000
BG Opt
1070
     0
1070
     1
1010
0.0
1020
0.0
1030
0.0
1010
1.0
1020
0.0
1030
0.0
1010
0.0
1020
1.0
1030
0.0
1010
0.0
1020
0.0
1030
1.0
1040
0.5
1040
0.33
1040
0.0
1000

1070
     1
1000

1070
     1
1070
     1
1040
1.0
1040
1.0
1040
0.0
1040
0.0
1070
     0
1002
}
  0
INSERT
  5
7DE1B343D9DFEB7
330
7DE1B343D9DFE8E
100
AcDbEntity
  8
ASHADE
 62
     1
100
AcDbBlockReference
  2
AVE_GLOBAL
 10
0.0
 20
0.0
 30
0.0
1001
AVE_MATERIAL
1002
{
1000
*GLOBAL*
1000
1
1000
Global finish.
1002
{
1002
}
1002
{
1070
    63
1002
{
1002
{
1010
-1.0
1020
-1.0
1030
-1.0
1002
}
1040
0.1000000014901161
1000

1040
0.0
1002
{
1002
}
1040
0.0
1002
{
1002
}
1040
0.0
1002
}
1002
{
1002
{
1010
-1.0
1020
-1.0
1030
-1.0
1002
}
1040
0.6999999880790711
1000

1040
0.0
1002
{
1002
}
1040
0.0
1002
{
1002
}
1040
0.0
1002
}
1002
{
1002
{
1010
-1.0
1020
-1.0
1030
-1.0
1002
}
1040
0.2000000029802322
1000

1040
0.0
1002
{
1002
}
1040
0.0
1002
{
1002
}
1040
0.0
1002
}
1002
{
1070
     0
1002
{
1070
     1
1002
{
1040
1.0
1040
1.0
1000

1040
0.0
1002
{
1002
}
1040
0.0
1002
{
1002
}
1040
0.0
1002
}
1002
}
1040
1.0
1040
0.0
1040
0.0
1002
}
1002
{
1040
1.0
1040
1.0
1000

1040
0.0
1002
{
1002
}
1040
0.0
1002
{
1002
}
1040
0.0
1002
}
1002
{
1040
0.5
1040
1.0
1000

1040
0.0
1002
{
1002
}
1040
0.0
1002
{
1002
}
1040
0.0
1002
}
1002
{
1070
     0
1040
0.0
1002
{
1002
}
1040
1.0
1002
{
1002
}
1040
0.0
1002
}
1002
{
1040
0.0
1002
{
1002
{
1010
0.0
1020
0.0
1030
0.0
1002
}
1040
1.0
1000

1040
0.0
1002
{
1002
}
1040
0.0
1002
{
1002
}
1040
0.0
1002
}
1002
}
1002
{
1002
{
1070
     1
1002
{
1040
0.0
1040
1.0
1000

1040
0.0
1002
{
1002
}
1040
0.0
1002
{
1002
}
1040
0.0
1002
}
1002
}
1040
0.0
1002
{
1002
}
1010
1.0
1020
0.0
1030
0.0
1010
0.0
1020
1.0
1030
0.0
1010
0.0
1020
0.0
1030
1.0
1070
     0
1002
}
1002
{
1002
{
1040
1.0
1040
1.0
1002
{
1070
     1
1002
{
1040
1.0
1040
1.0
1000

1040
0.0
1002
{
1002
}
1040
0.0
1002
{
1002
}
1040
0.0
1002
}
1002
}
1002
}
1070
     0
1040
0.0
1002
{
1002
}
1002
}
1002
{
1002
}
1002
}
1002
{
1071
        3
1070
     3
1070
     0
1002
{
1070
     2
1070
     0
1070
     0
1040
0.0
1002
}
1070
     0
1070
     2
1002
{
1002
}
1002
}
1002
{
1040
8030.0
1040
190.3000030517578
1040
0.3050000071525574
1040
228.0
1040
545.0
1040
14.0
1040
17.39999961853027
1040
0.4560000002384186
1002
}
1002
}
  0
ENDSEC
  0
SECTION
  2
OBJECTS
  0
DICTIONARY
  5
7DE1B343D9DFE82
330
0
100
AcDbDictionary
  3
ACAD_GROUP
350
7DE1B343D9DFE83
  3
ACAD_LAYOUT
350
7DE1B343D9DFEC3
  3
ACAD_MLINESTYLE
350
7DE1B343D9DFE84
  3
ACAD_PLOTSETTINGS
350
7DE1B343D9DFEC4
  3
ACAD_PLOTSTYLENAME
350
7DE1B343D9DFEC1
  3
ACDBHEADERROUNDTRIPXREC
350
7DE1B343D9DFECE
  3
ACDBVARIABLEDICTIONARY
350
7DE1B343D9DFECB
  0
DICTIONARY
  5
7DE1B343D9DFEF0
330
7DE1B343D9DFE8E
100
AcDbDictionary
280
     1
  3
ACAD_LAYOUTSELFREF
360
7DE1B343D9DFEF1
  0
DICTIONARY
  5
7DE1B343D9DFEEE
330
7DE1B343D9DFE8B
100
AcDbDictionary
280
     1
  3
ACAD_LAYOUTSELFREF
360
7DE1B343D9DFEEF
  0
DICTIONARY
  5
7DE1B343D9DFE83
102
{ACAD_REACTORS
330
7DE1B343D9DFE82
102
}
330
7DE1B343D9DFE82
100
AcDbDictionary
  0
DICTIONARY
  5
7DE1B343D9DFEC3
102
{ACAD_REACTORS
330
7DE1B343D9DFE82
102
}
330
7DE1B343D9DFE82
100
AcDbDictionary
  0
DICTIONARY
  5
7DE1B343D9DFE84
102
{ACAD_REACTORS
330
7DE1B343D9DFE82
102
}
330
7DE1B343D9DFE82
100
AcDbDictionary
  3
STANDARD
350
7DE1B343D9DFE91
  0
DICTIONARY
  5
7DE1B343D9DFEC4
102
{ACAD_REACTORS
330
7DE1B343D9DFE82
102
}
330
7DE1B343D9DFE82
100
AcDbDictionary
  0
ACDBDICTIONARYWDFLT
  5
7DE1B343D9DFEC1
102
{ACAD_REACTORS
330
7DE1B343D9DFE82
102
}
330
7DE1B343D9DFE82
100
AcDbDictionary
281
     1
  3
Normal
350
7DE1B343D9DFEC2
100
AcDbDictionaryWithDefault
340
7DE1B343D9DFEC2
  0
DICTIONARY
  5
7DE1B343D9DFECE
102
{ACAD_REACTORS
330
7DE1B343D9DFE82
102
}
330
7DE1B343D9DFE82
100
AcDbDictionary
  3
CEPSNTYPE
350
7DE1B343D9DFED8
  3
FINGERPRINTGUID
350
7DE1B343D9DFED9
  3
HYPERLINKBASE
350
7DE1B343D9DFED1
  3
INSUNITS
350
7DE1B343D9DFED7
  3
LAYOUTDICT
350
7DE1B343D9DFED3
  3
LWETCUNION
350
7DE1B343D9DFED6
  3
PLOTSETDICT
350
7DE1B343D9DFED4
  3
PLOTSTYLNAMDICT
350
7DE1B343D9DFED5
  3
PSVPSCALE
350
7DE1B343D9DFEDB
  3
PUCSBASE
350
7DE1B343D9DFEDE
  3
PUCSORGBACK
350
7DE1B343D9DFEE4
  3
PUCSORGBOTTOM
350
7DE1B343D9DFEE0
  3
PUCSORGFRONT
350
7DE1B343D9DFEE3
  3
PUCSORGLEFT
350
7DE1B343D9DFEE1
  3
PUCSORGRIGHT
350
7DE1B343D9DFEE2
  3
PUCSORGTOP
350
7DE1B343D9DFEDF
  3
PUCSORTHOREF
350
7DE1B343D9DFEDC
  3
PUCSORTHOVIEW
350
7DE1B343D9DFEDD
  3
STYLESHEET
350
7DE1B343D9DFED2
  3
TSTACKALIGN
350
7DE1B343D9DFECF
  3
TSTACKSIZE
350
7DE1B343D9DFED0
  3
UCSBASE
350
7DE1B343D9DFEE7
  3
UCSORGBACK
350
7DE1B343D9DFEED
  3
UCSORGBOTTOM
350
7DE1B343D9DFEE9
  3
UCSORGFRONT
350
7DE1B343D9DFEEC
  3
UCSORGLEFT
350
7DE1B343D9DFEEA
  3
UCSORGRIGHT
350
7DE1B343D9DFEEB
  3
UCSORGTOP
350
7DE1B343D9DFEE8
  3
UCSORTHOREF
350
7DE1B343D9DFEE5
  3
UCSORTHOVIEW
350
7DE1B343D9DFEE6
  3
VERSIONGUID
350
7DE1B343D9DFEDA
  0
DICTIONARY
  5
7DE1B343D9DFECB
102
{ACAD_REACTORS
330
7DE1B343D9DFE82
102
}
330
7DE1B343D9DFE82
100
AcDbDictionary
  3
DIMASSOC
350
7DE1B343D9DFECC
  0
XRECORD
  5
7DE1B343D9DFEF1
102
{ACAD_REACTORS
330
7DE1B343D9DFEF0
102
}
330
7DE1B343D9DFEF0
100
AcDbXrecord
340
7DE1B343D9DFE8E
  0
XRECORD
  5
7DE1B343D9DFEEF
102
{ACAD_REACTORS
330
7DE1B343D9DFEEE
102
}
330
7DE1B343D9DFEEE
100
AcDbXrecord
340
7DE1B343D9DFE8B
  0
MLINESTYLE
  5
7DE1B343D9DFE91
102
{ACAD_REACTORS
330
7DE1B343D9DFE84
102
}
330
7DE1B343D9DFE84
100
AcDbMlineStyle
  2
STANDARD
 70
     0
  3

 62
     0
 51
90.0
 52
90.0
 71
     2
 49
0.5
 62
   256
  6
BYLAYER
 49
-0.5
 62
   256
  6
BYLAYER
  0
ACDBPLACEHOLDER
  5
7DE1B343D9DFEC2
102
{ACAD_REACTORS
330
7DE1B343D9DFEC1
102
}
330
7DE1B343D9DFEC1
100
AcDbPlaceHolder
280
     0
  0
XRECORD
  5
7DE1B343D9DFED8
102
{ACAD_REACTORS
330
7DE1B343D9DFECE
102
}
330
7DE1B343D9DFECE
100
AcDbXrecord
 90
        0
  0
XRECORD
  5
7DE1B343D9DFED9
102
{ACAD_REACTORS
330
7DE1B343D9DFECE
102
}
330
7DE1B343D9DFECE
100
AcDbXrecord
  1
{DDF95BA0-8DB5-11D6-88E6-0090279574E7}
  0
XRECORD
  5
7DE1B343D9DFED1
102
{ACAD_REACTORS
330
7DE1B343D9DFECE
102
}
330
7DE1B343D9DFECE
100
AcDbXrecord
  1

  0
XRECORD
  5
7DE1B343D9DFED7
102
{ACAD_REACTORS
330
7DE1B343D9DFECE
102
}
330
7DE1B343D9DFECE
100
AcDbXrecord
 90
        0
  0
XRECORD
  5
7DE1B343D9DFED3
102
{ACAD_REACTORS
330
7DE1B343D9DFECE
102
}
330
7DE1B343D9DFECE
100
AcDbXrecord
340
7DE1B343D9DFEC3
  0
XRECORD
  5
7DE1B343D9DFED6
102
{ACAD_REACTORS
330
7DE1B343D9DFECE
102
}
330
7DE1B343D9DFECE
100
AcDbXrecord
 90
    14877
  0
XRECORD
  5
7DE1B343D9DFED4
102
{ACAD_REACTORS
330
7DE1B343D9DFECE
102
}
330
7DE1B343D9DFECE
100
AcDbXrecord
340
7DE1B343D9DFEC4
  0
XRECORD
  5
7DE1B343D9DFED5
102
{ACAD_REACTORS
330
7DE1B343D9DFECE
102
}
330
7DE1B343D9DFECE
100
AcDbXrecord
340
7DE1B343D9DFEC1
  0
XRECORD
  5
7DE1B343D9DFEDB
102
{ACAD_REACTORS
330
7DE1B343D9DFECE
102
}
330
7DE1B343D9DFECE
100
AcDbXrecord
 40
0.0
  0
XRECORD
  5
7DE1B343D9DFEDE
102
{ACAD_REACTORS
330
7DE1B343D9DFECE
102
}
330
7DE1B343D9DFECE
100
AcDbXrecord
340
0
  0
XRECORD
  5
7DE1B343D9DFEE4
102
{ACAD_REACTORS
330
7DE1B343D9DFECE
102
}
330
7DE1B343D9DFECE
100
AcDbXrecord
 10
0.0
 20
0.0
 30
0.0
  0
XRECORD
  5
7DE1B343D9DFEE0
102
{ACAD_REACTORS
330
7DE1B343D9DFECE
102
}
330
7DE1B343D9DFECE
100
AcDbXrecord
 10
0.0
 20
0.0
 30
0.0
  0
XRECORD
  5
7DE1B343D9DFEE3
102
{ACAD_REACTORS
330
7DE1B343D9DFECE
102
}
330
7DE1B343D9DFECE
100
AcDbXrecord
 10
0.0
 20
0.0
 30
0.0
  0
XRECORD
  5
7DE1B343D9DFEE1
102
{ACAD_REACTORS
330
7DE1B343D9DFECE
102
}
330
7DE1B343D9DFECE
100
AcDbXrecord
 10
0.0
 20
0.0
 30
0.0
  0
XRECORD
  5
7DE1B343D9DFEE2
102
{ACAD_REACTORS
330
7DE1B343D9DFECE
102
}
330
7DE1B343D9DFECE
100
AcDbXrecord
 10
0.0
 20
0.0
 30
0.0
  0
XRECORD
  5
7DE1B343D9DFEDF
102
{ACAD_REACTORS
330
7DE1B343D9DFECE
102
}
330
7DE1B343D9DFECE
100
AcDbXrecord
 10
0.0
 20
0.0
 30
0.0
  0
XRECORD
  5
7DE1B343D9DFEDC
102
{ACAD_REACTORS
330
7DE1B343D9DFECE
102
}
330
7DE1B343D9DFECE
100
AcDbXrecord
340
0
  0
XRECORD
  5
7DE1B343D9DFEDD
102
{ACAD_REACTORS
330
7DE1B343D9DFECE
102
}
330
7DE1B343D9DFECE
100
AcDbXrecord
 70
     0
  0
XRECORD
  5
7DE1B343D9DFED2
102
{ACAD_REACTORS
330
7DE1B343D9DFECE
102
}
330
7DE1B343D9DFECE
100
AcDbXrecord
  1

  0
XRECORD
  5
7DE1B343D9DFECF
102
{ACAD_REACTORS
330
7DE1B343D9DFECE
102
}
330
7DE1B343D9DFECE
100
AcDbXrecord
 90
        1
  0
XRECORD
  5
7DE1B343D9DFED0
102
{ACAD_REACTORS
330
7DE1B343D9DFECE
102
}
330
7DE1B343D9DFECE
100
AcDbXrecord
 90
       70
  0
XRECORD
  5
7DE1B343D9DFEE7
102
{ACAD_REACTORS
330
7DE1B343D9DFECE
102
}
330
7DE1B343D9DFECE
100
AcDbXrecord
340
0
  0
XRECORD
  5
7DE1B343D9DFEED
102
{ACAD_REACTORS
330
7DE1B343D9DFECE
102
}
330
7DE1B343D9DFECE
100
AcDbXrecord
 10
0.0
 20
0.0
 30
0.0
  0
XRECORD
  5
7DE1B343D9DFEE9
102
{ACAD_REACTORS
330
7DE1B343D9DFECE
102
}
330
7DE1B343D9DFECE
100
AcDbXrecord
 10
0.0
 20
0.0
 30
0.0
  0
XRECORD
  5
7DE1B343D9DFEEC
102
{ACAD_REACTORS
330
7DE1B343D9DFECE
102
}
330
7DE1B343D9DFECE
100
AcDbXrecord
 10
0.0
 20
0.0
 30
0.0
  0
XRECORD
  5
7DE1B343D9DFEEA
102
{ACAD_REACTORS
330
7DE1B343D9DFECE
102
}
330
7DE1B343D9DFECE
100
AcDbXrecord
 10
0.0
 20
0.0
 30
0.0
  0
XRECORD
  5
7DE1B343D9DFEEB
102
{ACAD_REACTORS
330
7DE1B343D9DFECE
102
}
330
7DE1B343D9DFECE
100
AcDbXrecord
 10
0.0
 20
0.0
 30
0.0
  0
XRECORD
  5
7DE1B343D9DFEE8
102
{ACAD_REACTORS
330
7DE1B343D9DFECE
102
}
330
7DE1B343D9DFECE
100
AcDbXrecord
 10
0.0
 20
0.0
 30
0.0
  0
XRECORD
  5
7DE1B343D9DFEE5
102
{ACAD_REACTORS
330
7DE1B343D9DFECE
102
}
330
7DE1B343D9DFECE
100
AcDbXrecord
340
0
  0
XRECORD
  5
7DE1B343D9DFEE6
102
{ACAD_REACTORS
330
7DE1B343D9DFECE
102
}
330
7DE1B343D9DFECE
100
AcDbXrecord
 70
     0
  0
XRECORD
  5
7DE1B343D9DFEDA
102
{ACAD_REACTORS
330
7DE1B343D9DFECE
102
}
330
7DE1B343D9DFECE
100
AcDbXrecord
  1
{DDF95BA2-8DB5-11D6-88E6-0090279574E7}
  0
DICTIONARYVAR
  5
7DE1B343D9DFECC
102
{ACAD_REACTORS
330
7DE1B343D9DFECB
102
}
330
7DE1B343D9DFECB
100
DictionaryVariables
280
     0
  1
1
  0
ENDSEC
  0
EOF
