  0
SECTION
  2
HEADER
  9
$ACADVER
  1
AC1014
  9
$ACADMAINTVER
 70
     9
  9
$DWGCODEPAGE
  3
ANSI_1252
  9
$INSBASE
 10
5.824695122905258
 20
4.852047082466034
 30
0.0
  9
$EXTMIN
 10
3.574478163134981
 20
4.056973068009316
 30
0.0
  9
$EXTMAX
 10
8.074912082675535
 20
7.102047082466035
 30
0.0
  9
$LIMMIN
 10
0.0
 20
0.0
  9
$LIMMAX
 10
18.0
 20
12.0
  9
$ORTHOMODE
 70
     1
  9
$REGENMODE
 70
     1
  9
$FILLMODE
 70
     1
  9
$QTEXTMODE
 70
     0
  9
$MIRRTEXT
 70
     0
  9
$DRAGMODE
 70
     2
  9
$LTSCALE
 40
1.0
  9
$OSMODE
 70
    39
  9
$ATTMODE
 70
     1
  9
$TEXTSIZE
 40
0.125
  9
$TRACEWID
 40
0.05
  9
$TEXTSTYLE
  7
ROMANS
  9
$CLAYER
  8
0
  9
$CELTYPE
  6
BYLAYER
  9
$CECOLOR
 62
   256
  9
$CELTSCALE
 40
1.0
  9
$DELOBJ
 70
     1
  9
$DISPSILH
 70
     1
  9
$DIMSCALE
 40
1.0
  9
$DIMASZ
 40
0.125
  9
$DIMEXO
 40
0.125
  9
$DIMDLI
 40
0.375
  9
$DIMRND
 40
0.0
  9
$DIMDLE
 40
0.0
  9
$DIMEXE
 40
0.125
  9
$DIMTP
 40
0.0
  9
$DIMTM
 40
0.0
  9
$DIMTXT
 40
0.125
  9
$DIMCEN
 40
-0.125
  9
$DIMTSZ
 40
0.0
  9
$DIMTOL
 70
     0
  9
$DIMLIM
 70
     0
  9
$DIMTIH
 70
     1
  9
$DIMTOH
 70
     1
  9
$DIMSE1
 70
     0
  9
$DIMSE2
 70
     0
  9
$DIMTAD
 70
     0
  9
$DIMZIN
 70
     4
  9
$DIMBLK
  1

  9
$DIMASO
 70
     1
  9
$DIMSHO
 70
     1
  9
$DIMPOST
  1

  9
$DIMAPOST
  1

  9
$DIMALT
 70
     0
  9
$DIMALTD
 70
     2
  9
$DIMALTF
 40
25.4
  9
$DIMLFAC
 40
1.0
  9
$DIMTOFL
 70
     0
  9
$DIMTVP
 40
0.0
  9
$DIMTIX
 70
     1
  9
$DIMSOXD
 70
     0
  9
$DIMSAH
 70
     0
  9
$DIMBLK1
  1

  9
$DIMBLK2
  1

  9
$DIMSTYLE
  2
STANDARD
  9
$DIMCLRD
 70
     0
  9
$DIMCLRE
 70
     0
  9
$DIMCLRT
 70
     0
  9
$DIMTFAC
 40
1.0
  9
$DIMGAP
 40
0.09
  9
$DIMJUST
 70
     0
  9
$DIMSD1
 70
     0
  9
$DIMSD2
 70
     0
  9
$DIMTOLJ
 70
     1
  9
$DIMTZIN
 70
     4
  9
$DIMALTZ
 70
     0
  9
$DIMALTTZ
 70
     0
  9
$DIMFIT
 70
     3
  9
$DIMUPT
 70
     0
  9
$DIMUNIT
 70
     2
  9
$DIMDEC
 70
     3
  9
$DIMTDEC
 70
     3
  9
$DIMALTU
 70
     2
  9
$DIMALTTD
 70
     2
  9
$DIMTXSTY
  7
ROMANS
  9
$DIMAUNIT
 70
     0
  9
$LUNITS
 70
     2
  9
$LUPREC
 70
     3
  9
$SKETCHINC
 40
0.1
  9
$FILLETRAD
 40
0.03125
  9
$AUNITS
 70
     0
  9
$AUPREC
 70
     0
  9
$MENU
  1
ACAD
  9
$ELEVATION
 40
0.0
  9
$PELEVATION
 40
0.0
  9
$THICKNESS
 40
0.0
  9
$LIMCHECK
 70
     0
  9
$BLIPMODE
 70
     0
  9
$CHAMFERA
 40
0.0
  9
$CHAMFERB
 40
0.0
  9
$CHAMFERC
 40
0.0
  9
$CHAMFERD
 40
0.0
  9
$SKPOLY
 70
     0
  9
$TDCREATE
 40
2448994.538248842
  9
$TDUPDATE
 40
2452458.304698055
  9
$TDINDWG
 40
0.0011670833
  9
$TDUSRTIMER
 40
0.0011670833
  9
$USRTIMER
 70
     1
  9
$ANGBASE
 50
0.0
  9
$ANGDIR
 70
     0
  9
$PDMODE
 70
     0
  9
$PDSIZE
 40
0.0
  9
$PLINEWID
 40
0.0
  9
$COORDS
 70
     2
  9
$SPLFRAME
 70
     0
  9
$SPLINETYPE
 70
     6
  9
$SPLINESEGS
 70
     8
  9
$ATTDIA
 70
     0
  9
$ATTREQ
 70
     1
  9
$HANDLING
 70
 22529
  9
$HANDSEED
  5
7DE1B343D9DFB2B
  9
$SURFTAB1
 70
     6
  9
$SURFTAB2
 70
     6
  9
$SURFTYPE
 70
     6
  9
$SURFU
 70
     6
  9
$SURFV
 70
     6
  9
$UCSNAME
  2

  9
$UCSORG
 10
0.0
 20
0.0
 30
0.0
  9
$UCSXDIR
 10
1.0
 20
0.0
 30
0.0
  9
$UCSYDIR
 10
0.0
 20
1.0
 30
0.0
  9
$PUCSNAME
  2

  9
$PUCSORG
 10
0.0
 20
0.0
 30
0.0
  9
$PUCSXDIR
 10
1.0
 20
0.0
 30
0.0
  9
$PUCSYDIR
 10
0.0
 20
1.0
 30
0.0
  9
$USERI1
 70
     0
  9
$USERI2
 70
     0
  9
$USERI3
 70
     0
  9
$USERI4
 70
     0
  9
$USERI5
 70
     0
  9
$USERR1
 40
0.0
  9
$USERR2
 40
0.0
  9
$USERR3
 40
0.0
  9
$USERR4
 40
0.0
  9
$USERR5
 40
0.0
  9
$WORLDVIEW
 70
     1
  9
$SHADEDGE
 70
     3
  9
$SHADEDIF
 70
    70
  9
$TILEMODE
 70
     1
  9
$MAXACTVP
 70
    16
  9
$PINSBASE
 10
3.706213783782744
 20
50.00000000000001
 30
5.522814633312399
  9
$PLIMCHECK
 70
     0
  9
$PEXTMIN
 10
1.000000000000000E+20
 20
1.000000000000000E+20
 30
1.000000000000000E+20
  9
$PEXTMAX
 10
-1.000000000000000E+20
 20
-1.000000000000000E+20
 30
-1.000000000000000E+20
  9
$PLIMMIN
 10
0.0
 20
0.0
  9
$PLIMMAX
 10
12.0
 20
9.0
  9
$UNITMODE
 70
     0
  9
$VISRETAIN
 70
     0
  9
$PLINEGEN
 70
     1
  9
$PSLTSCALE
 70
     0
  9
$TREEDEPTH
 70
  3020
  9
$PICKSTYLE
 70
     1
  9
$CMLSTYLE
  2
STANDARD
  9
$CMLJUST
 70
     0
  9
$CMLSCALE
 40
1.0
  9
$PROXYGRAPHICS
 70
     1
  9
$MEASUREMENT
 70
     0
  0
ENDSEC
  0
SECTION
  2
CLASSES
  0
CLASS
  1
LWPOLYLINE
  2
AcDbPolyline
  3
AutoCAD 2000
 90
        0
280
     0
281
     1
  0
CLASS
  1
ACDBDICTIONARYWDFLT
  2
AcDbDictionaryWithDefault
  3
AutoCAD 2000
 90
        0
280
     0
281
     0
  0
CLASS
  1
ACDBPLACEHOLDER
  2
AcDbPlaceHolder
  3
AutoCAD 2000
 90
        0
280
     0
281
     0
  0
CLASS
  1
LAYOUT
  2
AcDbLayout
  3
AutoCAD 2000
 90
        0
280
     0
281
     0
  0
CLASS
  1
DICTIONARYVAR
  2
AcDbDictionaryVar
  3
AutoCAD 2000
 90
        0
280
     0
281
     0
  0
CLASS
  1
LONG_TRANSACTION
  2
AcDbLongTransaction
  3
AutoCAD 2000
 90
        0
280
     0
281
     0
  0
CLASS
  1
LWPOLYLINE
  2
AcDbPolyline
  3
AutoCAD 2000
 90
        0
280
     0
281
     1
  0
CLASS
  1
HATCH
  2
AcDbHatch
  3
AutoCAD 2000
 90
        0
280
     0
281
     1
  0
CLASS
  1
XRECORD
  2
AcDbXrecord
  3
AutoCAD 2000
 90
        0
280
     0
281
     0
  0
ENDSEC
  0
SECTION
  2
TABLES
  0
TABLE
  2
VPORT
  5
7DE1B343D9DFAB7
330
0
100
AcDbSymbolTable
 70
     2
  0
VPORT
  5
7DE1B343D9DFB06
330
7DE1B343D9DFAB7
100
AcDbSymbolTableRecord
100
AcDbViewportTableRecord
  2
*ACTIVE
 70
     0
 10
0.0
 20
0.0
 11
1.0
 21
1.0
 12
10.30865390300662
 22
5.57931521299681
 13
0.0
 23
0.0
 14
0.015625
 24
0.015625
 15
0.0
 25
0.0
 16
0.0
 26
0.0
 36
1.0
 17
0.0
 27
0.0
 37
0.0
 40
3.438694580060316
 41
4.320930232558139
 42
50.0
 43
0.0
 44
0.0
 50
0.0
 51
0.0
 71
     0
 72
  2000
 73
     1
 74
     0
 75
     0
 76
     0
 77
     0
 78
     0
  0
ENDTAB
  0
TABLE
  2
LTYPE
  5
7DE1B343D9DFAB4
330
0
100
AcDbSymbolTable
 70
     1
  0
LTYPE
  5
7DE1B343D9DFAC1
330
7DE1B343D9DFAB4
100
AcDbSymbolTableRecord
100
AcDbLinetypeTableRecord
  2
BYBLOCK
 70
     0
  3

 72
    65
 73
     0
 40
0.0
  0
LTYPE
  5
7DE1B343D9DFAC2
330
7DE1B343D9DFAB4
100
AcDbSymbolTableRecord
100
AcDbLinetypeTableRecord
  2
BYLAYER
 70
     0
  3

 72
    65
 73
     0
 40
0.0
  0
LTYPE
  5
7DE1B343D9DFAC3
330
7DE1B343D9DFAB4
100
AcDbSymbolTableRecord
100
AcDbLinetypeTableRecord
  2
CONTINUOUS
 70
     0
  3
Solid line
 72
    65
 73
     0
 40
0.0
  0
ENDTAB
  0
TABLE
  2
LAYER
  5
7DE1B343D9DFAB1
330
0
100
AcDbSymbolTable
 70
     3
  0
LAYER
  5
7DE1B343D9DFABE
330
7DE1B343D9DFAB1
100
AcDbSymbolTableRecord
100
AcDbLayerTableRecord
  2
0
 70
     0
 62
     7
  6
CONTINUOUS
  0
LAYER
  5
7DE1B343D9DFACE
330
7DE1B343D9DFAB1
100
AcDbSymbolTableRecord
100
AcDbLayerTableRecord
  2
TEXT
 70
     0
 62
     3
  6
CONTINUOUS
  0
LAYER
  5
7DE1B343D9DFADE
330
7DE1B343D9DFAB1
100
AcDbSymbolTableRecord
100
AcDbLayerTableRecord
  2
ASHADE
 70
     4
 62
     7
  6
CONTINUOUS
  0
ENDTAB
  0
TABLE
  2
STYLE
  5
7DE1B343D9DFAB2
330
0
100
AcDbSymbolTable
 70
     4
  0
STYLE
  5
7DE1B343D9DFABF
330
7DE1B343D9DFAB2
100
AcDbSymbolTableRecord
100
AcDbTextStyleTableRecord
  2
STANDARD
 70
     0
 40
0.0
 41
1.0
 50
0.0
 71
     0
 42
0.3125
  3
txt
  4

  0
STYLE
  5
7DE1B343D9DFACB
330
7DE1B343D9DFAB2
100
AcDbSymbolTableRecord
100
AcDbTextStyleTableRecord
  2
ITALICC
 70
     0
 40
0.0
 41
1.0
 50
0.0
 71
     0
 42
0.125
  3
italicc
  4

  0
STYLE
  5
7DE1B343D9DFADB
330
7DE1B343D9DFAB2
100
AcDbSymbolTableRecord
100
AcDbTextStyleTableRecord
  2
ASHADE
 70
     0
 40
0.2
 41
1.0
 50
0.0
 71
     0
 42
0.3125
  3
simplex
  4

  0
STYLE
  5
7DE1B343D9DFAF6
330
7DE1B343D9DFAB2
100
AcDbSymbolTableRecord
100
AcDbTextStyleTableRecord
  2
ROMANS
 70
     0
 40
0.0
 41
1.0
 50
0.0
 71
     0
 42
0.125
  3
romans.shx
  4

  0
ENDTAB
  0
TABLE
  2
VIEW
  5
7DE1B343D9DFAB5
330
0
100
AcDbSymbolTable
 70
     0
  0
ENDTAB
  0
TABLE
  2
UCS
  5
7DE1B343D9DFAB6
330
0
100
AcDbSymbolTable
 70
     0
  0
ENDTAB
  0
TABLE
  2
APPID
  5
7DE1B343D9DFAB8
330
0
100
AcDbSymbolTable
 70
     6
  0
APPID
  5
7DE1B343D9DFAC0
330
7DE1B343D9DFAB8
100
AcDbSymbolTableRecord
100
AcDbRegAppTableRecord
  2
ACAD
 70
     0
  0
APPID
  5
7DE1B343D9DFADC
330
7DE1B343D9DFAB8
100
AcDbSymbolTableRecord
100
AcDbRegAppTableRecord
  2
AVE_RENDER
 70
     0
  0
APPID
  5
7DE1B343D9DFADD
330
7DE1B343D9DFAB8
100
AcDbSymbolTableRecord
100
AcDbRegAppTableRecord
  2
AVE_ENTITY_MATERIAL
 70
     0
  0
APPID
  5
7DE1B343D9DFAEA
330
7DE1B343D9DFAB8
100
AcDbSymbolTableRecord
100
AcDbRegAppTableRecord
  2
AVE_FINISH
 70
     0
  0
APPID
  5
7DE1B343D9DFAEB
330
7DE1B343D9DFAB8
100
AcDbSymbolTableRecord
100
AcDbRegAppTableRecord
  2
AVE_MATERIAL
 70
     0
  0
APPID
  5
7DE1B343D9DFAEC
330
7DE1B343D9DFAB8
100
AcDbSymbolTableRecord
100
AcDbRegAppTableRecord
  2
AVE_GLOBAL
 70
     0
  0
ENDTAB
  0
TABLE
  2
DIMSTYLE
  5
7DE1B343D9DFAB9
330
0
100
AcDbSymbolTable
 70
     1
  0
DIMSTYLE
105
7DE1B343D9DFAD3
330
7DE1B343D9DFAB9
100
AcDbSymbolTableRecord
100
AcDbDimStyleTableRecord
  2
STANDARD
 70
     0
  3

  4

  5

  6

  7

 40
1.0
 41
0.125
 42
0.125
 43
0.375
 44
0.125
 45
0.0
 46
0.0
 47
0.0
 48
0.0
140
0.125
141
-0.125
142
0.0
143
25.4
144
1.0
145
0.0
146
1.0
147
0.09
 71
     0
 72
     0
 73
     1
 74
     1
 75
     0
 76
     0
 77
     0
 78
     4
170
     0
171
     2
172
     0
173
     0
174
     1
175
     0
176
     0
177
     0
178
     0
270
     2
271
     3
272
     3
273
     2
274
     2
340
7DE1B343D9DFAF6
275
     0
280
     0
281
     0
282
     0
283
     1
284
     4
285
     0
286
     0
287
     3
288
     0
  0
ENDTAB
  0
TABLE
  2
BLOCK_RECORD
  5
7DE1B343D9DFAB0
330
0
100
AcDbSymbolTable
 70
     2
  0
BLOCK_RECORD
  5
7DE1B343D9DFAC7
102
{ACAD_XDICTIONARY
360
7DE1B343D9DFB29
102
}
330
7DE1B343D9DFAB0
100
AcDbSymbolTableRecord
100
AcDbBlockTableRecord
  2
*MODEL_SPACE
  0
BLOCK_RECORD
  5
7DE1B343D9DFAC4
102
{ACAD_XDICTIONARY
360
7DE1B343D9DFB27
102
}
330
7DE1B343D9DFAB0
100
AcDbSymbolTableRecord
100
AcDbBlockTableRecord
  2
*PAPER_SPACE
  0
BLOCK_RECORD
  5
7DE1B343D9DFADF
330
7DE1B343D9DFAB0
100
AcDbSymbolTableRecord
100
AcDbBlockTableRecord
  2
AVE_RENDER
  0
BLOCK_RECORD
  5
7DE1B343D9DFAED
330
7DE1B343D9DFAB0
100
AcDbSymbolTableRecord
100
AcDbBlockTableRecord
  2
AVE_GLOBAL
  0
ENDTAB
  0
ENDSEC
  0
SECTION
  2
BLOCKS
  0
BLOCK
  5
7DE1B343D9DFAD1
330
7DE1B343D9DFAC7
100
AcDbEntity
  8
0
100
AcDbBlockBegin
  2
*MODEL_SPACE
 70
     0
 10
0.0
 20
0.0
 30
0.0
  3
*MODEL_SPACE
  1

  0
ENDBLK
  5
7DE1B343D9DFAD2
330
7DE1B343D9DFAC7
100
AcDbEntity
  8
0
100
AcDbBlockEnd
  0
BLOCK
  5
7DE1B343D9DFACF
330
7DE1B343D9DFAC4
100
AcDbEntity
 67
     1
  8
0
100
AcDbBlockBegin
  2
*PAPER_SPACE
 70
     0
 10
0.0
 20
0.0
 30
0.0
  3
*PAPER_SPACE
  1

  0
ENDBLK
  5
7DE1B343D9DFAD0
330
7DE1B343D9DFAC4
100
AcDbEntity
 67
     1
  8
0
100
AcDbBlockEnd
  0
BLOCK
  5
7DE1B343D9DFAE0
330
7DE1B343D9DFADF
100
AcDbEntity
  8
0
100
AcDbBlockBegin
  2
AVE_RENDER
 70
     0
 10
0.0
 20
0.0
 30
0.0
  3
AVE_RENDER
  1
AVE_RENDER
  0
ENDBLK
  5
7DE1B343D9DFAE1
330
7DE1B343D9DFADF
100
AcDbEntity
  8
0
100
AcDbBlockEnd
  0
BLOCK
  5
7DE1B343D9DFAEE
330
7DE1B343D9DFAED
100
AcDbEntity
  8
0
100
AcDbBlockBegin
  2
AVE_GLOBAL
 70
     0
 10
0.0
 20
0.0
 30
0.0
  3
AVE_GLOBAL
  1
AVE_GLOBAL
  0
ENDBLK
  5
7DE1B343D9DFAEF
330
7DE1B343D9DFAED
100
AcDbEntity
  8
0
100
AcDbBlockEnd
  0
ENDSEC
  0
SECTION
  2
ENTITIES
  0
LWPOLYLINE
  5
7DE1B343D9DE709
330
7DE1B343D9DFAC7
100
AcDbEntity
  8
0
100
AcDbPolyline
 90
       14
 70
     1
 43
0.0
 10
4.27056853516873
 20
4.914547082466034
 10
3.63808816233827
 20
4.914547082466034
 42
0.0036226019767276
 10
3.637412104505751
 20
4.882856941620964
 42
-0.9999999999999927
 10
3.574918303980051
 20
4.883737223311104
 42
-0.9860132971832694
 10
8.074471941830465
 20
4.883737223311104
 42
-0.9999999999999927
 10
8.011978141304764
 20
4.882856941620963
 42
0.0036226019767276
 10
8.011302083472246
 20
4.914547082466034
 10
7.378821710641784
 20
4.914547082466034
 42
-0.2679491924311233
 10
7.35175841677352
 20
4.930172082466034
 10
7.324695122905257
 20
4.977047082466034
 10
8.008620774112277
 20
4.977047082466034
 42
0.9444002816030348
 10
3.640769471698239
 20
4.977047082466034
 10
4.324695122905258
 20
4.977047082466034
 10
4.297631829036994
 20
4.930172082466034
 42
-0.2679491924311233
  0
TEXT
  5
7DE1B343D9DF972
330
7DE1B343D9DFAC7
100
AcDbEntity
  8
TEXT
100
AcDbText
 10
5.068742741952878
 20
4.514991672091897
 30
0.0
 40
0.125
  1
PART #110285
  7
ITALICC
 72
     1
 11
5.824695122905258
 21
4.514991672091897
 31
0.0
100
AcDbText
  0
TEXT
  5
7DE1B343D9DF973
330
7DE1B343D9DFAC7
100
AcDbEntity
  8
TEXT
100
AcDbText
 10
6.238000281155579
 20
4.068069029419522
 30
0.0
 40
0.0522247191011236
  1
Phone  1-800-328-2495
 41
1.272321428571429
 72
     5
 11
7.566932865425243
 21
4.068069029419522
 31
0.0
100
AcDbText
  0
TEXT
  5
7DE1B343D9DF974
330
7DE1B343D9DFAC7
100
AcDbEntity
  8
TEXT
100
AcDbText
 10
6.238000281155579
 20
4.347844310318398
 30
0.0
 40
0.0522247191011236
  1
Stylmark  Incorporated
 41
1.221428571428573
 72
     5
 11
7.566932865425243
 21
4.347844310318398
 31
0.0
100
AcDbText
  0
TEXT
  5
7DE1B343D9DF975
330
7DE1B343D9DFAC7
100
AcDbEntity
  8
TEXT
100
AcDbText
 10
6.238000281155579
 20
4.254585883352106
 30
0.0
 40
0.0522247191011236
  1
6536 Main St. N.E. * P.O. Box 32008
 41
0.8388932496075366
 72
     5
 11
7.566932865425243
 21
4.254585883352106
 31
0.0
100
AcDbText
  0
TEXT
  5
7DE1B343D9DF976
330
7DE1B343D9DFAC7
100
AcDbEntity
  8
TEXT
100
AcDbText
 10
6.238000281155579
 20
4.161327456385814
 30
0.0
 40
0.0522247191011236
  1
Minneapolis, MN 55432-0008
 41
1.11444212721585
 72
     5
 11
7.566932865425243
 21
4.161327456385814
 31
0.0
100
AcDbText
  0
LWPOLYLINE
  5
7DE1B343D9DF977
330
7DE1B343D9DFAC7
100
AcDbEntity
  8
TEXT
100
AcDbPolyline
 90
        3
 70
     0
 43
0.0006660908203125
 10
4.082046589088271
 20
4.181713792056957
 10
4.082046589088271
 20
4.068478352603829
 10
4.195282028541393
 20
4.068478352603829
  0
LWPOLYLINE
  5
7DE1B343D9DF97C
330
7DE1B343D9DFAC7
100
AcDbEntity
  8
TEXT
100
AcDbPolyline
 90
        3
 70
     0
 43
0.0006660908203125
 10
4.108690221900769
 20
4.181713792056957
 10
4.108690221900769
 20
4.09512198541633
 10
4.195282028541393
 20
4.09512198541633
  0
LWPOLYLINE
  5
7DE1B343D9DF981
330
7DE1B343D9DFAC7
100
AcDbEntity
  8
TEXT
100
AcDbPolyline
 90
        2
 70
     0
 43
0.0001332181640625
 10
4.155316579322645
 20
4.191705154361642
 10
4.082046589088271
 20
4.181713792056957
  0
LWPOLYLINE
  5
7DE1B343D9DF985
330
7DE1B343D9DFAC7
100
AcDbEntity
  8
TEXT
100
AcDbPolyline
 90
        2
 70
     0
 43
0.0001332181640625
 10
4.108690221900769
 20
4.181713792056957
 10
4.168638395728896
 20
4.191705154361642
  0
LWPOLYLINE
  5
7DE1B343D9DF989
330
7DE1B343D9DFAC7
100
AcDbEntity
  8
TEXT
100
AcDbPolyline
 90
        2
 70
     0
 43
0.0001332181640625
 10
4.108690221900769
 20
4.09512198541633
 10
4.168638395728896
 20
4.155070159244456
  0
LWPOLYLINE
  5
7DE1B343D9DF98D
330
7DE1B343D9DFAC7
100
AcDbEntity
  8
TEXT
100
AcDbPolyline
 90
        3
 70
     0
 43
0.0006660908203125
 10
4.195282028541393
 20
4.334914680728832
 10
4.082046589088271
 20
4.334914680728832
 10
4.082046589088271
 20
4.221679241275705
  0
LWPOLYLINE
  5
7DE1B343D9DF992
330
7DE1B343D9DFAC7
100
AcDbEntity
  8
TEXT
100
AcDbPolyline
 90
        3
 70
     0
 43
0.0006660908203125
 10
4.195282028541393
 20
4.308271047916331
 10
4.108690221900769
 20
4.308271047916331
 10
4.108690221900769
 20
4.221679241275705
  0
LWPOLYLINE
  5
7DE1B343D9DF997
330
7DE1B343D9DFAC7
100
AcDbEntity
  8
TEXT
100
AcDbPolyline
 90
        2
 70
     0
 43
0.0001332181640625
 10
4.108690221900769
 20
4.308271047916331
 10
4.168638395728894
 20
4.248322874088206
  0
LWPOLYLINE
  5
7DE1B343D9DF99B
330
7DE1B343D9DFAC7
100
AcDbEntity
  8
TEXT
100
AcDbPolyline
 90
        2
 70
     0
 43
0.0001332181640625
 10
4.108690221900769
 20
4.221679241275705
 10
4.168638395728894
 20
4.211687878971016
  0
LWPOLYLINE
  5
7DE1B343D9DF99F
330
7DE1B343D9DFAC7
100
AcDbEntity
  8
TEXT
100
AcDbPolyline
 90
        2
 70
     0
 43
0.0001332181640625
 10
4.082046589088271
 20
4.221679241275705
 10
4.155316579322645
 20
4.211687878971016
  0
LWPOLYLINE
  5
7DE1B343D9DF9A3
330
7DE1B343D9DFAC7
100
AcDbEntity
  8
TEXT
100
AcDbPolyline
 90
        2
 70
     0
 43
0.0006660908203125
 10
4.108690221900769
 20
4.181713792056957
 10
4.082046589088271
 20
4.181713792056957
  0
LWPOLYLINE
  5
7DE1B343D9DF9A7
330
7DE1B343D9DFAC7
100
AcDbEntity
  8
TEXT
100
AcDbPolyline
 90
        2
 70
     0
 43
0.0006660908203125
 10
4.108690221900769
 20
4.221679241275705
 10
4.082046589088271
 20
4.221679241275705
  0
LINE
  5
7DE1B343D9DF9AB
330
7DE1B343D9DFAC7
100
AcDbEntity
  8
TEXT
100
AcDbLine
 10
5.597237018214769
 20
4.270637986072063
 30
0.0
 11
5.490030744827479
 21
4.270637986072063
 31
0.0
  0
LINE
  5
7DE1B343D9DF9AC
330
7DE1B343D9DFAC7
100
AcDbEntity
  8
TEXT
100
AcDbLine
 10
5.626267916559247
 20
4.334914680728829
 30
0.0
 11
5.491436007342188
 21
4.334914680728829
 31
0.0
  0
ARC
  5
7DE1B343D9DF9AD
330
7DE1B343D9DFAC7
100
AcDbEntity
  8
TEXT
100
AcDbCircle
 10
5.550750103735505
 20
4.165677431465812
 30
0.0
 40
0.0676855811441166
100
AcDbArc
 50
90.0
 51
153.7768192527749
  0
LWPOLYLINE
  5
7DE1B343D9DF9AE
330
7DE1B343D9DFAC7
100
AcDbEntity
  8
TEXT
100
AcDbPolyline
 90
        2
 70
     0
 43
0.0
 10
5.488998249372669
 20
4.111932592690756
 42
0.2901071551932823
 10
5.532074182240305
 20
4.068441647740318
 42
5.328517124445801
  0
ARC
  5
7DE1B343D9DF9B2
330
7DE1B343D9DFAC7
100
AcDbEntity
  8
TEXT
100
AcDbCircle
 10
4.845618726064019
 20
4.128234039078368
 30
0.0
 40
0.0601160179737537
100
AcDbArc
 50
180.0000000000003
 51
264.0521544866073
  0
LINE
  5
7DE1B343D9DF9B3
330
7DE1B343D9DFAC7
100
AcDbEntity
  8
TEXT
100
AcDbLine
 10
4.849134081689567
 20
4.369302598322967
 30
0.0
 11
4.78909147684556
 21
4.369302598322967
 31
0.0
  0
ARC
  5
7DE1B343D9DF9B4
330
7DE1B343D9DFAC7
100
AcDbEntity
  8
TEXT
100
AcDbCircle
 10
4.613359723947048
 20
4.252827221282327
 30
0.0
 40
0.0820874594465043
100
AcDbArc
 50
90.0
 51
270.0
  0
LWPOLYLINE
  5
7DE1B343D9DF9B5
330
7DE1B343D9DFAC7
100
AcDbEntity
  8
TEXT
100
AcDbPolyline
 90
        2
 70
     0
 43
0.0001332181640625
 10
4.205273390846084
 20
4.261644690494453
 10
4.195282028541393
 20
4.334914680728832
  0
LWPOLYLINE
  5
7DE1B343D9DF9B9
330
7DE1B343D9DFAC7
100
AcDbEntity
  8
TEXT
100
AcDbPolyline
 90
        2
 70
     0
 43
0.0001332181640625
 10
4.195282028541393
 20
4.308271047916331
 10
4.205273390846084
 20
4.248322874088206
  0
LWPOLYLINE
  5
7DE1B343D9DF9BD
330
7DE1B343D9DFAC7
100
AcDbEntity
  8
TEXT
100
AcDbPolyline
 90
        3
 70
     0
 43
0.0006660908203125
 10
4.348482917213271
 20
4.221679241275705
 10
4.348482917213271
 20
4.334914680728832
 10
4.235247477760145
 20
4.334914680728832
  0
LWPOLYLINE
  5
7DE1B343D9DF9C2
330
7DE1B343D9DFAC7
100
AcDbEntity
  8
TEXT
100
AcDbPolyline
 90
        3
 70
     0
 43
0.0006660908203125
 10
4.32183928440077
 20
4.221679241275705
 10
4.32183928440077
 20
4.308271047916331
 10
4.235247477760145
 20
4.308271047916331
  0
LWPOLYLINE
  5
7DE1B343D9DF9C7
330
7DE1B343D9DFAC7
100
AcDbEntity
  8
TEXT
100
AcDbPolyline
 90
        2
 70
     0
 43
0.0001332181640625
 10
4.32183928440077
 20
4.308271047916331
 10
4.261891110572646
 20
4.248322874088206
  0
LWPOLYLINE
  5
7DE1B343D9DF9CB
330
7DE1B343D9DFAC7
100
AcDbEntity
  8
TEXT
100
AcDbPolyline
 90
        2
 70
     0
 43
0.0001332181640625
 10
4.235247477760145
 20
4.308271047916331
 10
4.225256115455456
 20
4.248322874088206
  0
LWPOLYLINE
  5
7DE1B343D9DF9CF
330
7DE1B343D9DFAC7
100
AcDbEntity
  8
TEXT
100
AcDbPolyline
 90
        2
 70
     0
 43
0.0001332181640625
 10
4.235247477760145
 20
4.334914680728832
 10
4.225256115455456
 20
4.261644690494453
  0
LWPOLYLINE
  5
7DE1B343D9DF9D3
330
7DE1B343D9DFAC7
100
AcDbEntity
  8
TEXT
100
AcDbPolyline
 90
        2
 70
     0
 43
0.0001332181640625
 10
4.275212926978895
 20
4.211687878971016
 10
4.348482917213271
 20
4.221679241275705
  0
LWPOLYLINE
  5
7DE1B343D9DF9D7
330
7DE1B343D9DFAC7
100
AcDbEntity
  8
TEXT
100
AcDbPolyline
 90
        2
 70
     0
 43
0.0001332181640625
 10
4.32183928440077
 20
4.221679241275705
 10
4.261891110572646
 20
4.211687878971016
  0
LWPOLYLINE
  5
7DE1B343D9DF9DB
330
7DE1B343D9DFAC7
100
AcDbEntity
  8
TEXT
100
AcDbPolyline
 90
        2
 70
     0
 43
0.0001332181640625
 10
4.348482917213271
 20
4.181713792056957
 10
4.275212926978895
 20
4.191705154361642
  0
LWPOLYLINE
  5
7DE1B343D9DF9DF
330
7DE1B343D9DFAC7
100
AcDbEntity
  8
TEXT
100
AcDbPolyline
 90
        2
 70
     0
 43
0.0001332181640625
 10
4.32183928440077
 20
4.181713792056957
 10
4.261891110572646
 20
4.191705154361642
  0
LWPOLYLINE
  5
7DE1B343D9DF9E3
330
7DE1B343D9DFAC7
100
AcDbEntity
  8
TEXT
100
AcDbPolyline
 90
        2
 70
     0
 43
0.0001332181640625
 10
4.32183928440077
 20
4.09512198541633
 10
4.261891110572646
 20
4.155070159244456
  0
LWPOLYLINE
  5
7DE1B343D9DF9E7
330
7DE1B343D9DFAC7
100
AcDbEntity
  8
TEXT
100
AcDbPolyline
 90
        3
 70
     0
 43
0.0006660908203125
 10
4.235247477760145
 20
4.09512198541633
 10
4.32183928440077
 20
4.09512198541633
 10
4.32183928440077
 20
4.181713792056957
  0
LWPOLYLINE
  5
7DE1B343D9DF9EC
330
7DE1B343D9DFAC7
100
AcDbEntity
  8
TEXT
100
AcDbPolyline
 90
        3
 70
     0
 43
0.0006660908203125
 10
4.235247477760145
 20
4.068478352603829
 10
4.348482917213271
 20
4.068478352603829
 10
4.348482917213271
 20
4.181713792056957
  0
LWPOLYLINE
  5
7DE1B343D9DF9F1
330
7DE1B343D9DFAC7
100
AcDbEntity
  8
TEXT
100
AcDbPolyline
 90
        5
 70
     0
 43
0.0001332181640625
 10
4.205273390846084
 20
4.141748342838205
 10
4.205273390846084
 20
4.155070159244456
 10
4.168638395728896
 20
4.155070159244456
 10
4.168638395728896
 20
4.191705154361642
 10
4.155316579322645
 20
4.191705154361642
  0
LWPOLYLINE
  5
7DE1B343D9DF9F8
330
7DE1B343D9DFAC7
100
AcDbEntity
  8
TEXT
100
AcDbPolyline
 90
        2
 70
     0
 43
0.0006660908203125
 10
4.195282028541393
 20
4.09512198541633
 10
4.195282028541393
 20
4.068478352603829
  0
LWPOLYLINE
  5
7DE1B343D9DF9FC
330
7DE1B343D9DFAC7
100
AcDbEntity
  8
TEXT
100
AcDbPolyline
 90
        2
 70
     0
 43
0.0001332181640625
 10
4.195282028541393
 20
4.09512198541633
 10
4.205273390846084
 20
4.155070159244456
  0
LWPOLYLINE
  5
7DE1B343D9DFA00
330
7DE1B343D9DFAC7
100
AcDbEntity
  8
TEXT
100
AcDbPolyline
 90
        2
 70
     0
 43
0.0001332181640625
 10
4.195282028541393
 20
4.068478352603829
 10
4.205273390846084
 20
4.141748342838205
  0
LWPOLYLINE
  5
7DE1B343D9DFA04
330
7DE1B343D9DFAC7
100
AcDbEntity
  8
TEXT
100
AcDbPolyline
 90
        5
 70
     0
 43
0.0001332181640625
 10
4.155316579322645
 20
4.211687878971016
 10
4.168638395728894
 20
4.211687878971016
 10
4.168638395728894
 20
4.248322874088206
 10
4.205273390846084
 20
4.248322874088206
 10
4.205273390846084
 20
4.261644690494453
  0
LWPOLYLINE
  5
7DE1B343D9DFA0B
330
7DE1B343D9DFAC7
100
AcDbEntity
  8
TEXT
100
AcDbPolyline
 90
        5
 70
     0
 43
0.0001332181640625
 10
4.225256115455456
 20
4.261644690494453
 10
4.225256115455456
 20
4.248322874088206
 10
4.261891110572646
 20
4.248322874088206
 10
4.261891110572646
 20
4.211687878971016
 10
4.275212926978895
 20
4.211687878971016
  0
LWPOLYLINE
  5
7DE1B343D9DFA12
330
7DE1B343D9DFAC7
100
AcDbEntity
  8
TEXT
100
AcDbPolyline
 90
        2
 70
     0
 43
0.0001332181640625
 10
4.235247477760145
 20
4.09512198541633
 10
4.225256115455456
 20
4.155070159244456
  0
LWPOLYLINE
  5
7DE1B343D9DFA16
330
7DE1B343D9DFAC7
100
AcDbEntity
  8
TEXT
100
AcDbPolyline
 90
        2
 70
     0
 43
0.0001332181640625
 10
4.225256115455456
 20
4.141748342838205
 10
4.235247477760145
 20
4.068478352603829
  0
LWPOLYLINE
  5
7DE1B343D9DFA1A
330
7DE1B343D9DFAC7
100
AcDbEntity
  8
TEXT
100
AcDbPolyline
 90
        2
 70
     0
 43
0.0006660908203125
 10
4.235247477760145
 20
4.09512198541633
 10
4.235247477760145
 20
4.068478352603829
  0
LWPOLYLINE
  5
7DE1B343D9DFA1E
330
7DE1B343D9DFAC7
100
AcDbEntity
  8
TEXT
100
AcDbPolyline
 90
        5
 70
     0
 43
0.0001332181640625
 10
4.275212926978895
 20
4.191705154361642
 10
4.261891110572646
 20
4.191705154361642
 10
4.261891110572646
 20
4.155070159244456
 10
4.225256115455456
 20
4.155070159244456
 10
4.225256115455456
 20
4.141748342838205
  0
LWPOLYLINE
  5
7DE1B343D9DFA25
330
7DE1B343D9DFAC7
100
AcDbEntity
  8
TEXT
100
AcDbPolyline
 90
        2
 70
     0
 43
0.0006660908203125
 10
4.32183928440077
 20
4.221679241275705
 10
4.348482917213271
 20
4.221679241275705
  0
LWPOLYLINE
  5
7DE1B343D9DFA29
330
7DE1B343D9DFAC7
100
AcDbEntity
  8
TEXT
100
AcDbPolyline
 90
        2
 70
     0
 43
0.0006660908203125
 10
4.32183928440077
 20
4.181713792056957
 10
4.348482917213271
 20
4.181713792056957
  0
LINE
  5
7DE1B343D9DFA2D
330
7DE1B343D9DFAC7
100
AcDbEntity
  8
TEXT
100
AcDbLine
 10
4.618597054061296
 20
4.270637986072063
 30
0.0
 11
4.785502708090267
 21
4.270637986072063
 31
0.0
  0
LINE
  5
7DE1B343D9DFA2E
330
7DE1B343D9DFAC7
100
AcDbEntity
  8
TEXT
100
AcDbLine
 10
4.684197190305597
 20
4.234833264461435
 30
0.0
 11
4.618597054061296
 21
4.234833264461435
 31
0.0
  0
LINE
  5
7DE1B343D9DFA2F
330
7DE1B343D9DFAC7
100
AcDbEntity
  8
TEXT
100
AcDbLine
 10
4.531272264500544
 20
4.068441647740318
 30
0.0
 11
4.684197190305597
 21
4.068441647740318
 31
0.0
  0
LINE
  5
7DE1B343D9DFA30
330
7DE1B343D9DFAC7
100
AcDbEntity
  8
TEXT
100
AcDbLine
 10
4.689137564211876
 20
4.136798654073757
 30
0.0
 11
4.531272264500542
 21
4.136798654073757
 31
0.0
  0
LINE
  5
7DE1B343D9DFA31
330
7DE1B343D9DFAC7
100
AcDbEntity
  8
TEXT
100
AcDbLine
 10
4.613359723947048
 20
4.170739761835822
 30
0.0
 11
4.689137564211876
 21
4.170739761835822
 31
0.0
  0
ARC
  5
7DE1B343D9DFA32
330
7DE1B343D9DFAC7
100
AcDbEntity
  8
TEXT
100
AcDbCircle
 10
4.618597054061297
 20
4.252735625266751
 30
0.0
 40
0.017902360805315
100
AcDbArc
 50
90.0
 51
270.0
  0
LINE
  5
7DE1B343D9DFA33
330
7DE1B343D9DFAC7
100
AcDbEntity
  8
TEXT
100
AcDbLine
 10
4.531272264500542
 20
4.136798654073757
 30
0.0
 11
4.531272264500544
 21
4.068441647740318
 31
0.0
  0
LINE
  5
7DE1B343D9DFA34
330
7DE1B343D9DFAC7
100
AcDbEntity
  8
TEXT
100
AcDbLine
 10
4.785502708090267
 20
4.270637986072063
 30
0.0
 11
4.785502708090267
 21
4.128234039078368
 31
0.0
  0
ARC
  5
7DE1B343D9DFA35
330
7DE1B343D9DFAC7
100
AcDbEntity
  8
TEXT
100
AcDbCircle
 10
4.684197190305598
 20
4.151637456100875
 30
0.0
 40
0.0831958083605586
100
AcDbArc
 50
270.0
 51
90.0
  0
ARC
  5
7DE1B343D9DFA36
330
7DE1B343D9DFAC7
100
AcDbEntity
  8
TEXT
100
AcDbCircle
 10
4.689137564211877
 20
4.153769207954791
 30
0.0
 40
0.0169705538810321
100
AcDbArc
 50
270.0
 51
90.0
  0
LWPOLYLINE
  5
7DE1B343D9DFA37
330
7DE1B343D9DFAC7
100
AcDbEntity
  8
TEXT
100
AcDbPolyline
 90
        2
 70
     0
 43
0.0006660908203125
 10
4.195282028541393
 20
4.308271047916331
 10
4.195282028541393
 20
4.334914680728832
  0
LWPOLYLINE
  5
7DE1B343D9DFA3B
330
7DE1B343D9DFAC7
100
AcDbEntity
  8
TEXT
100
AcDbPolyline
 90
        2
 70
     0
 43
0.0006660908203125
 10
4.235247477760145
 20
4.308271047916331
 10
4.235247477760145
 20
4.334914680728832
  0
LINE
  5
7DE1B343D9DFA3F
330
7DE1B343D9DFAC7
100
AcDbEntity
  8
TEXT
100
AcDbLine
 10
4.78909147684556
 20
4.334914680728829
 30
0.0
 11
4.613359723947048
 21
4.334914680728829
 31
0.0
  0
LINE
  5
7DE1B343D9DFA40
330
7DE1B343D9DFAC7
100
AcDbEntity
  8
TEXT
100
AcDbLine
 10
4.78909147684556
 20
4.369302598322967
 30
0.0
 11
4.78909147684556
 21
4.334914680728829
 31
0.0
  0
LINE
  5
7DE1B343D9DFA41
330
7DE1B343D9DFAC7
100
AcDbEntity
  8
TEXT
100
AcDbLine
 10
4.979563368865412
 20
4.234042684615708
 30
0.0
 11
4.920933047833474
 21
4.334914680728829
 31
0.0
  0
LINE
  5
7DE1B343D9DFA42
330
7DE1B343D9DFAC7
100
AcDbEntity
  8
TEXT
100
AcDbLine
 10
5.038311931671278
 20
4.334914680728829
 30
0.0
 11
4.979563368865412
 21
4.234042684615708
 31
0.0
  0
LINE
  5
7DE1B343D9DFA43
330
7DE1B343D9DFAC7
100
AcDbEntity
  8
TEXT
100
AcDbLine
 10
5.135242557031019
 20
4.150829485843317
 30
0.0
 11
5.135242557031019
 21
4.402926158467639
 31
0.0
  0
LINE
  5
7DE1B343D9DFA44
330
7DE1B343D9DFAC7
100
AcDbEntity
  8
TEXT
100
AcDbLine
 10
5.167554411168679
 20
4.334914680728829
 30
0.0
 11
5.167554411168679
 21
4.134050473996421
 31
0.0
  0
LINE
  5
7DE1B343D9DFA45
330
7DE1B343D9DFAC7
100
AcDbEntity
  8
TEXT
100
AcDbLine
 10
5.167554411168679
 20
4.134050473996421
 30
0.0
 11
5.150560774284078
 21
4.134050473996421
 31
0.0
  0
LINE
  5
7DE1B343D9DFA46
330
7DE1B343D9DFAC7
100
AcDbEntity
  8
TEXT
100
AcDbLine
 10
5.136382130527214
 20
4.068441647740318
 30
0.0
 11
5.234385464226648
 21
4.068441647740318
 31
0.0
  0
LINE
  5
7DE1B343D9DFA47
330
7DE1B343D9DFAC7
100
AcDbEntity
  8
TEXT
100
AcDbLine
 10
4.969963131868458
 20
4.088400153845331
 30
0.0
 11
5.067262837961902
 21
4.252750364780599
 31
0.0
  0
ARC
  5
7DE1B343D9DFA48
330
7DE1B343D9DFAC7
100
AcDbEntity
  8
TEXT
100
AcDbCircle
 10
4.935919571956244
 20
4.107989370014013
 30
0.0
 40
0.0392772371940762
100
AcDbArc
 50
270.1604552698595
 51
330.0831797321295
  0
LINE
  5
7DE1B343D9DFA49
330
7DE1B343D9DFAC7
100
AcDbEntity
  8
TEXT
100
AcDbLine
 10
4.839389315570373
 20
4.068441647740318
 30
0.0
 11
4.936029566645367
 21
4.0687122868386
 31
0.0
  0
LWPOLYLINE
  5
7DE1B343D9DFA4A
330
7DE1B343D9DFAC7
100
AcDbEntity
  8
TEXT
100
AcDbPolyline
 90
        6
 70
     1
 43
0.0
 10
4.881913119145522
 20
4.270637986072063
 10
4.851596524925314
 20
4.270637986072063
 10
4.851596524925314
 20
4.147526988017169
 42
0.407328721240804
 10
4.86314017608679
 20
4.135708073340783
 10
4.923761875131521
 20
4.135708073340783
 10
4.941227215538839
 20
4.168520302384262
  0
LINE
  5
7DE1B343D9DFA52
330
7DE1B343D9DFAC7
100
AcDbEntity
  8
TEXT
100
AcDbLine
 10
5.067262837961902
 20
4.252750364780599
 30
0.0
 11
5.067262837961902
 21
4.119992989955242
 31
0.0
  0
ARC
  5
7DE1B343D9DFA53
330
7DE1B343D9DFAC7
100
AcDbEntity
  8
TEXT
100
AcDbCircle
 10
5.150560774284076
 20
4.149432280239846
 30
0.0
 40
0.0153818062434269
100
AcDbArc
 50
174.7883570302258
 51
270.0
  0
LWPOLYLINE
  5
7DE1B343D9DFA54
330
7DE1B343D9DFAC7
100
AcDbEntity
  8
TEXT
100
AcDbPolyline
 90
        2
 70
     0
 43
0.0
 10
5.067262837961901
 20
4.119992989955246
 42
0.3318488747599744
 10
5.136382130527214
 20
4.068441647740318
 42
-6.868794160588311
  0
LINE
  5
7DE1B343D9DFA58
330
7DE1B343D9DFAC7
100
AcDbEntity
  8
TEXT
100
AcDbLine
 10
5.291774533215909
 20
4.068441647740318
 30
0.0
 11
5.358832579997749
 21
4.068441647740318
 31
0.0
  0
LINE
  5
7DE1B343D9DFA59
330
7DE1B343D9DFAC7
100
AcDbEntity
  8
TEXT
100
AcDbLine
 10
5.291774533215909
 20
4.263084196905953
 30
0.0
 11
5.291774533215909
 21
4.068441647740318
 31
0.0
  0
LINE
  5
7DE1B343D9DFA5A
330
7DE1B343D9DFAC7
100
AcDbEntity
  8
TEXT
100
AcDbLine
 10
5.234385464226648
 20
4.270637986072063
 30
0.0
 11
5.284220744049796
 21
4.270637986072063
 31
0.0
  0
LINE
  5
7DE1B343D9DFA5B
330
7DE1B343D9DFAC7
100
AcDbEntity
  8
TEXT
100
AcDbLine
 10
5.234385464226648
 20
4.068441647740318
 30
0.0
 11
5.234385464226648
 21
4.270637986072063
 31
0.0
  0
LWPOLYLINE
  5
7DE1B343D9DFA5C
330
7DE1B343D9DFAC7
100
AcDbEntity
  8
TEXT
100
AcDbPolyline
 90
        2
 70
     0
 43
0.0
 10
5.284220744049794
 20
4.270637986072063
 42
-0.4142135623731017
 10
5.291774533215908
 20
4.263084196905953
 42
-0.9999999999999998
  0
LINE
  5
7DE1B343D9DFA60
330
7DE1B343D9DFAC7
100
AcDbEntity
  8
TEXT
100
AcDbLine
 10
5.490030744827479
 20
4.270637986072063
 30
0.0
 11
5.490030744827479
 21
4.195585579997857
 31
0.0
  0
LINE
  5
7DE1B343D9DFA61
330
7DE1B343D9DFAC7
100
AcDbEntity
  8
TEXT
100
AcDbLine
 10
5.358832579997749
 20
4.270637986072063
 30
0.0
 11
5.4129661769187
 21
4.270637986072063
 31
0.0
  0
LINE
  5
7DE1B343D9DFA62
330
7DE1B343D9DFAC7
100
AcDbEntity
  8
TEXT
100
AcDbLine
 10
5.358832579997749
 20
4.068441647740318
 30
0.0
 11
5.358832579997749
 21
4.270637986072063
 31
0.0
  0
LWPOLYLINE
  5
7DE1B343D9DFA63
330
7DE1B343D9DFAC7
100
AcDbEntity
  8
TEXT
100
AcDbPolyline
 90
        2
 70
     0
 43
0.0
 10
5.412966176918698
 20
4.270637986072063
 42
-0.4142135623731017
 10
5.420519966084811
 20
4.263084196905953
 42
-0.9999999999999998
  0
LWPOLYLINE
  5
7DE1B343D9DFA67
330
7DE1B343D9DFAC7
100
AcDbEntity
  8
TEXT
100
AcDbPolyline
 90
        4
 70
     0
 43
0.0
 10
5.420519966084811
 20
4.263084196905953
 10
5.420519966084811
 20
4.068441647740318
 10
5.488998249372669
 20
4.068441647740318
 10
5.488998249372669
 20
4.111932592690756
 42
-1.714843617202739
  0
LINE
  5
7DE1B343D9DFA6D
330
7DE1B343D9DFAC7
100
AcDbEntity
  8
TEXT
100
AcDbLine
 10
4.849134081689567
 20
4.334914680728829
 30
0.0
 11
4.849134081689567
 21
4.369302598322967
 31
0.0
  0
LINE
  5
7DE1B343D9DFA6E
330
7DE1B343D9DFAC7
100
AcDbEntity
  8
TEXT
100
AcDbLine
 10
4.920933047833474
 20
4.334914680728829
 30
0.0
 11
4.849134081689567
 21
4.334914680728829
 31
0.0
  0
LINE
  5
7DE1B343D9DFA6F
330
7DE1B343D9DFAC7
100
AcDbEntity
  8
TEXT
100
AcDbLine
 10
5.068433844464654
 20
4.334914680728829
 30
0.0
 11
5.038311931671278
 21
4.334914680728829
 31
0.0
  0
LINE
  5
7DE1B343D9DFA70
330
7DE1B343D9DFAC7
100
AcDbEntity
  8
TEXT
100
AcDbLine
 10
5.068433844464654
 20
4.402926158467639
 30
0.0
 11
5.068433844464654
 21
4.334914680728829
 31
0.0
  0
LINE
  5
7DE1B343D9DFA71
330
7DE1B343D9DFAC7
100
AcDbEntity
  8
TEXT
100
AcDbLine
 10
5.135242557031019
 20
4.402926158467639
 30
0.0
 11
5.068433844464654
 21
4.402926158467639
 31
0.0
  0
LWPOLYLINE
  5
7DE1B343D9DFA72
330
7DE1B343D9DFAC7
100
AcDbEntity
  8
TEXT
100
AcDbPolyline
 90
        3
 70
     0
 43
0.0
 10
5.455654316629021
 20
4.334914680728832
 10
5.337354157812977
 20
4.334914680728832
 10
5.337354157812977
 20
4.307747183967936
 42
-1.960274751411753
  0
LINE
  5
7DE1B343D9DFA77
330
7DE1B343D9DFAC7
100
AcDbEntity
  8
TEXT
100
AcDbLine
 10
5.301572467099815
 20
4.334914680728829
 30
0.0
 11
5.167554411168679
 21
4.334914680728829
 31
0.0
  0
LWPOLYLINE
  5
7DE1B343D9DFA78
330
7DE1B343D9DFAC7
100
AcDbEntity
  8
TEXT
100
AcDbPolyline
 90
        2
 70
     0
 43
0.0
 10
5.301572467099815
 20
4.334914680728832
 42
-0.3328679258950098
 10
5.337354157812977
 20
4.307747183967936
 42
6.772930709997214
  0
LINE
  5
7DE1B343D9DFA7C
330
7DE1B343D9DFAC7
100
AcDbEntity
  8
TEXT
100
AcDbLine
 10
5.491436007342188
 20
4.334914680728829
 30
0.0
 11
5.491436007342188
 21
4.306592134959185
 31
0.0
  0
LWPOLYLINE
  5
7DE1B343D9DFA7D
330
7DE1B343D9DFAC7
100
AcDbEntity
  8
TEXT
100
AcDbPolyline
 90
        2
 70
     0
 43
0.0
 10
5.455654316629021
 20
4.334914680728832
 42
-0.3277054968067132
 10
5.491436007342186
 20
4.306592134959188
 42
6.667889725900311
  0
LINE
  5
7DE1B343D9DFA81
330
7DE1B343D9DFAC7
100
AcDbEntity
  8
TEXT
100
AcDbLine
 10
5.705227855434288
 20
4.229702702175401
 30
0.0
 11
5.661477084252386
 21
4.311952978171547
 31
0.0
  0
LINE
  5
7DE1B343D9DFA82
330
7DE1B343D9DFAC7
100
AcDbEntity
  8
TEXT
100
AcDbLine
 10
5.705227855434288
 20
4.334914680728829
 30
0.0
 11
5.705227855434288
 21
4.229702702175401
 31
0.0
  0
LINE
  5
7DE1B343D9DFA83
330
7DE1B343D9DFAC7
100
AcDbEntity
  8
TEXT
100
AcDbLine
 10
5.932911594372657
 20
4.259049354317291
 30
0.0
 11
5.932911594372657
 21
4.400378886496429
 31
0.0
  0
LINE
  5
7DE1B343D9DFA84
330
7DE1B343D9DFAC7
100
AcDbEntity
  8
TEXT
100
AcDbLine
 10
5.980009752928642
 20
4.334914680728829
 30
0.0
 11
5.932911594372657
 21
4.259049354317291
 31
0.0
  0
LINE
  5
7DE1B343D9DFA85
330
7DE1B343D9DFAC7
100
AcDbEntity
  8
TEXT
100
AcDbLine
 10
5.990444469692564
 20
4.225021437787855
 30
0.0
 11
6.05500158565827
 21
4.334914680728829
 31
0.0
  0
LINE
  5
7DE1B343D9DFA86
330
7DE1B343D9DFAC7
100
AcDbEntity
  8
TEXT
100
AcDbLine
 10
5.869076603149884
 20
4.068441647740318
 30
0.0
 11
5.933454787468504
 21
4.068441647740318
 31
0.0
  0
LWPOLYLINE
  5
7DE1B343D9DFA87
330
7DE1B343D9DFAC7
100
AcDbEntity
  8
TEXT
100
AcDbPolyline
 90
        2
 70
     0
 43
0.0
 10
5.709167532739326
 20
4.111932592690756
 42
-0.2901071551932486
 10
5.666091599871681
 20
4.068441647740318
 42
-5.328517124445184
  0
ARC
  5
7DE1B343D9DFA8B
330
7DE1B343D9DFAC7
100
AcDbEntity
  8
TEXT
100
AcDbCircle
 10
5.597237018214767
 20
4.242278611072066
 30
0.0
 40
0.028359375
100
AcDbArc
 50
25.78218179591245
 51
90.0
  0
LINE
  5
7DE1B343D9DFA8C
330
7DE1B343D9DFAC7
100
AcDbEntity
  8
TEXT
100
AcDbLine
 10
5.63303809351889
 20
4.233363012609931
 30
0.0
 11
5.622773333105326
 21
4.254613552182625
 31
0.0
  0
LINE
  5
7DE1B343D9DFA8D
330
7DE1B343D9DFAC7
100
AcDbEntity
  8
TEXT
100
AcDbLine
 10
5.550750103735507
 20
4.233363012609931
 30
0.0
 11
5.63303809351889
 21
4.233363012609931
 31
0.0
  0
LWPOLYLINE
  5
7DE1B343D9DFA8E
330
7DE1B343D9DFAC7
100
AcDbEntity
  8
TEXT
100
AcDbPolyline
 90
        4
 70
     1
 43
0.0
 10
5.645969134801789
 20
4.171405625724343
 10
5.55730881614193
 20
4.171405625724343
 42
0.9999999999999998
 10
5.55730881614193
 20
4.129007085220482
 10
5.645969134801789
 20
4.129007085220482
 42
1.0
  0
LWPOLYLINE
  5
7DE1B343D9DFA94
330
7DE1B343D9DFAC7
100
AcDbEntity
  8
TEXT
100
AcDbPolyline
 90
        2
 70
     0
 43
0.0
 10
5.532074182240305
 20
4.068441647740318
 10
5.666091599871681
 20
4.068441647740318
 42
0.9999999999999998
  0
LINE
  5
7DE1B343D9DFA98
330
7DE1B343D9DFAC7
100
AcDbEntity
  8
TEXT
100
AcDbLine
 10
5.792428621857321
 20
4.270637986072063
 30
0.0
 11
5.869076603149879
 21
4.270637986072063
 31
0.0
  0
LINE
  5
7DE1B343D9DFA99
330
7DE1B343D9DFAC7
100
AcDbEntity
  8
TEXT
100
AcDbLine
 10
5.869076603149879
 20
4.270637986072063
 30
0.0
 11
5.869076603149884
 21
4.068441647740318
 31
0.0
  0
ARC
  5
7DE1B343D9DFA9A
330
7DE1B343D9DFAC7
100
AcDbEntity
  8
TEXT
100
AcDbCircle
 10
5.792428621857319
 20
4.245732110789401
 30
0.0
 40
0.0249058752826653
100
AcDbArc
 50
89.99971217465335
 51
179.9999999999985
  0
LINE
  5
7DE1B343D9DFA9B
330
7DE1B343D9DFAC7
100
AcDbEntity
  8
TEXT
100
AcDbLine
 10
5.767522746574662
 20
4.068441647740318
 30
0.0
 11
5.767522746574656
 21
4.245732153171786
 31
0.0
  0
LWPOLYLINE
  5
7DE1B343D9DFA9C
330
7DE1B343D9DFAC7
100
AcDbEntity
  8
TEXT
100
AcDbPolyline
 90
        2
 70
     0
 43
0.0
 10
5.709167532739326
 20
4.068441647740318
 10
5.76752274657466
 20
4.068441647740318
  0
LWPOLYLINE
  5
7DE1B343D9DFAA0
330
7DE1B343D9DFAC7
100
AcDbEntity
  8
TEXT
100
AcDbPolyline
 90
        2
 70
     0
 43
0.0
 10
5.709167532739326
 20
4.111932592690756
 10
5.709167532739326
 20
4.068441647740318
  0
LINE
  5
7DE1B343D9DFAA4
330
7DE1B343D9DFAC7
100
AcDbEntity
  8
TEXT
100
AcDbLine
 10
6.085936693056175
 20
4.068441647740318
 30
0.0
 11
5.990444469692564
 21
4.225021437787855
 31
0.0
  0
LINE
  5
7DE1B343D9DFAA5
330
7DE1B343D9DFAC7
100
AcDbEntity
  8
TEXT
100
AcDbLine
 10
6.009358320679969
 20
4.068441647740318
 30
0.0
 11
6.085936693056175
 21
4.068441647740318
 31
0.0
  0
LINE
  5
7DE1B343D9DFAA6
330
7DE1B343D9DFAC7
100
AcDbEntity
  8
TEXT
100
AcDbLine
 10
5.933454787468504
 20
4.200021216216498
 30
0.0
 11
6.009358320679969
 21
4.068441647740318
 31
0.0
  0
LINE
  5
7DE1B343D9DFAA7
330
7DE1B343D9DFAC7
100
AcDbEntity
  8
TEXT
100
AcDbLine
 10
5.933454787468504
 20
4.068441647740318
 30
0.0
 11
5.933454787468504
 21
4.200021216216498
 31
0.0
  0
LINE
  5
7DE1B343D9DFAA8
330
7DE1B343D9DFAC7
100
AcDbEntity
  8
TEXT
100
AcDbLine
 10
5.932911594372657
 20
4.400378886496429
 30
0.0
 11
5.864596715823384
 21
4.400378886496429
 31
0.0
  0
ARC
  5
7DE1B343D9DFAA9
330
7DE1B343D9DFAC7
100
AcDbEntity
  8
TEXT
100
AcDbCircle
 10
5.624240976782178
 20
4.293331113607926
 30
0.0
 40
0.0416329381542859
100
AcDbArc
 50
26.56974201007528
 51
87.20939649401342
  0
LINE
  5
7DE1B343D9DFAAA
330
7DE1B343D9DFAC7
100
AcDbEntity
  8
TEXT
100
AcDbLine
 10
5.769124761733789
 20
4.334914680728829
 30
0.0
 11
5.705227855434288
 21
4.334914680728829
 31
0.0
  0
LINE
  5
7DE1B343D9DFAAB
330
7DE1B343D9DFAC7
100
AcDbEntity
  8
TEXT
100
AcDbLine
 10
5.769124761733789
 20
4.307367030867954
 30
0.0
 11
5.769124761733789
 21
4.334914680728829
 31
0.0
  0
ARC
  5
7DE1B343D9DFAAC
330
7DE1B343D9DFAC7
100
AcDbEntity
  8
TEXT
100
AcDbCircle
 10
5.800317578796897
 20
4.303668953446564
 30
0.0
 40
0.0314112657011332
100
AcDbArc
 50
95.88484768694724
 51
173.2388340632136
  0
LINE
  5
7DE1B343D9DFAAD
330
7DE1B343D9DFAC7
100
AcDbEntity
  8
TEXT
100
AcDbLine
 10
5.864596715823378
 20
4.334914680728829
 30
0.0
 11
5.797096998173862
 21
4.334914680728829
 31
0.0
  0
LINE
  5
7DE1B343D9DFAAE
330
7DE1B343D9DFAC7
100
AcDbEntity
  8
TEXT
100
AcDbLine
 10
5.864596715823384
 20
4.400378886496429
 30
0.0
 11
5.864596715823378
 21
4.334914680728829
 31
0.0
  0
LINE
  5
7DE1B343D9DFAAF
330
7DE1B343D9DFAC7
100
AcDbEntity
  8
TEXT
100
AcDbLine
 10
6.05500158565827
 20
4.334914680728829
 30
0.0
 11
5.980009752928643
 21
4.334914680728829
 31
0.0
  0
INSERT
  5
7DE1B343D9DFAE2
330
7DE1B343D9DFAC7
100
AcDbEntity
  8
ASHADE
 62
     1
100
AcDbBlockReference
  2
AVE_RENDER
 10
0.0
 20
0.0
 30
0.0
1001
AVE_RENDER
1002
{
1070
     6
1000
Pref
1070
    30
1070
    20
1070
     1
1070
     0
1000

1070
    10
1070
     1
1070
    30
1040
1.0
1070
     1
1040
0.3
1040
0.7
1040
0.0
1040
10.0
1010
-1.0
1020
-1.0
1030
-1.0
1040
0.3
1070
    49
1070
     0
1070
     0
1010
1.0
1020
1.0
1030
1.0
1040
45.0
1070
     1
1070
     0
1000
WCS
1040
0.0
1002
}
  0
INSERT
  5
7DE1B343D9DFAE3
330
7DE1B343D9DFAC7
100
AcDbEntity
  8
ASHADE
 62
     3
100
AcDbBlockReference
  2
AVE_RENDER
 10
0.0
 20
0.0
 30
0.0
1001
AVE_RENDER
1002
{
1070
     0
1000
Full Opt
1070
     0
1070
     1
1070
     1
1070
     1
1070
     0
1070
     0
1070
     0
1070
     1
1070
     1
1040
0.0001
1040
0.0001
1002
}
  0
INSERT
  5
7DE1B343D9DFAE4
330
7DE1B343D9DFAC7
100
AcDbEntity
  8
ASHADE
 62
     4
100
AcDbBlockReference
  2
AVE_RENDER
 10
0.0
 20
0.0
 30
0.0
1001
AVE_RENDER
1002
{
1070
     0
1000
Quick Opt
1070
     0
1070
     1
1070
     1
1070
     1
1070
     0
1070
     0
1070
     1
1002
}
  0
INSERT
  5
7DE1B343D9DFAE5
330
7DE1B343D9DFAC7
100
AcDbEntity
  8
ASHADE
 62
     5
100
AcDbBlockReference
  2
AVE_RENDER
 10
0.0
 20
0.0
 30
0.0
1001
AVE_RENDER
1002
{
1070
     1
1000
Scanl Opt
1070
     2
1070
     0
1070
     2
1040
2.0
1040
4.0
1070
     0
1070
     1
1070
     0
1040
0.03
1002
}
  0
INSERT
  5
7DE1B343D9DFAE6
330
7DE1B343D9DFAC7
100
AcDbEntity
  8
ASHADE
 62
     6
100
AcDbBlockReference
  2
AVE_RENDER
 10
0.0
 20
0.0
 30
0.0
1001
AVE_RENDER
1002
{
1070
     2
1000
Raytr Opt
1070
     2
1070
     0
1070
     2
1040
2.0
1040
4.0
1070
     0
1070
     1
1070
     1
1040
0.03
1070
     3
1040
0.03
1002
}
  0
INSERT
  5
7DE1B343D9DFAE7
330
7DE1B343D9DFAC7
100
AcDbEntity
  8
ASHADE
 62
     7
100
AcDbBlockReference
  2
AVE_RENDER
 10
0.0
 20
0.0
 30
0.0
1001
AVE_RENDER
1002
{
1070
     0
1000
RFile Opt
1070
     5
1070
   640
1070
   480
1070
 10000
1070
     3
1070
    32
1070
    24
1070
     0
1070
     0
1070
     0
1070
     1
1070
     0
1070
     0
1070
     0
1002
}
  0
INSERT
  5
7DE1B343D9DFAE8
330
7DE1B343D9DFAC7
100
AcDbEntity
  8
ASHADE
 62
     8
100
AcDbBlockReference
  2
AVE_RENDER
 10
0.0
 20
0.0
 30
0.0
1001
AVE_RENDER
1002
{
1070
     0
1000
Fog Opt
1070
     0
1070
     0
1040
0.0
1040
1.0
1040
0.0
1040
1.0
1010
0.5
1020
0.5
1030
0.5
1002
}
  0
INSERT
  5
7DE1B343D9DFAE9
330
7DE1B343D9DFAC7
100
AcDbEntity
  8
ASHADE
 62
     9
100
AcDbBlockReference
  2
AVE_RENDER
 10
0.0
 20
0.0
 30
0.0
1001
AVE_RENDER
1002
{
1070
     0
1000
BG Opt
1070
     0
1070
     1
1010
0.0
1020
0.0
1030
0.0
1010
1.0
1020
0.0
1030
0.0
1010
0.0
1020
1.0
1030
0.0
1010
0.0
1020
0.0
1030
1.0
1040
0.5
1040
0.33
1040
0.0
1000

1070
     1
1000

1070
     1
1070
     1
1040
1.0
1040
1.0
1040
0.0
1040
0.0
1070
     0
1002
}
  0
INSERT
  5
7DE1B343D9DFAF0
330
7DE1B343D9DFAC7
100
AcDbEntity
  8
ASHADE
 62
     1
100
AcDbBlockReference
  2
AVE_GLOBAL
 10
0.0
 20
0.0
 30
0.0
1001
AVE_MATERIAL
1002
{
1000
*GLOBAL*
1000
1
1000
Global finish.
1002
{
1002
}
1002
{
1070
    63
1002
{
1002
{
1010
-1.0
1020
-1.0
1030
-1.0
1002
}
1040
0.1000000014901161
1000

1040
0.0
1002
{
1002
}
1040
0.0
1002
{
1002
}
1040
0.0
1002
}
1002
{
1002
{
1010
-1.0
1020
-1.0
1030
-1.0
1002
}
1040
0.6999999880790711
1000

1040
0.0
1002
{
1002
}
1040
0.0
1002
{
1002
}
1040
0.0
1002
}
1002
{
1002
{
1010
-1.0
1020
-1.0
1030
-1.0
1002
}
1040
0.2000000029802322
1000

1040
0.0
1002
{
1002
}
1040
0.0
1002
{
1002
}
1040
0.0
1002
}
1002
{
1070
     0
1002
{
1070
     1
1002
{
1040
1.0
1040
1.0
1000

1040
0.0
1002
{
1002
}
1040
0.0
1002
{
1002
}
1040
0.0
1002
}
1002
}
1040
1.0
1040
0.0
1040
0.0
1002
}
1002
{
1040
1.0
1040
1.0
1000

1040
0.0
1002
{
1002
}
1040
0.0
1002
{
1002
}
1040
0.0
1002
}
1002
{
1040
0.5
1040
1.0
1000

1040
0.0
1002
{
1002
}
1040
0.0
1002
{
1002
}
1040
0.0
1002
}
1002
{
1070
     0
1040
0.0
1002
{
1002
}
1040
1.0
1002
{
1002
}
1040
0.0
1002
}
1002
{
1040
0.0
1002
{
1002
{
1010
0.0
1020
0.0
1030
0.0
1002
}
1040
1.0
1000

1040
0.0
1002
{
1002
}
1040
0.0
1002
{
1002
}
1040
0.0
1002
}
1002
}
1002
{
1002
{
1070
     1
1002
{
1040
0.0
1040
1.0
1000

1040
0.0
1002
{
1002
}
1040
0.0
1002
{
1002
}
1040
0.0
1002
}
1002
}
1040
0.0
1002
{
1002
}
1010
1.0
1020
0.0
1030
0.0
1010
0.0
1020
1.0
1030
0.0
1010
0.0
1020
0.0
1030
1.0
1070
     0
1002
}
1002
{
1002
{
1040
1.0
1040
1.0
1002
{
1070
     1
1002
{
1040
1.0
1040
1.0
1000

1040
0.0
1002
{
1002
}
1040
0.0
1002
{
1002
}
1040
0.0
1002
}
1002
}
1002
}
1070
     0
1040
0.0
1002
{
1002
}
1002
}
1002
{
1002
}
1002
}
1002
{
1071
        3
1070
     3
1070
     0
1002
{
1070
     2
1070
     0
1070
     0
1040
0.0
1002
}
1070
     0
1070
     2
1002
{
1002
}
1002
}
1002
{
1040
8030.0
1040
190.3000030517578
1040
0.3050000071525574
1040
228.0
1040
545.0
1040
14.0
1040
17.39999961853027
1040
0.4560000002384186
1002
}
1002
}
  0
ENDSEC
  0
SECTION
  2
OBJECTS
  0
DICTIONARY
  5
7DE1B343D9DFABB
330
0
100
AcDbDictionary
  3
ACAD_GROUP
350
7DE1B343D9DFABC
  3
ACAD_LAYOUT
350
7DE1B343D9DFAFC
  3
ACAD_MLINESTYLE
350
7DE1B343D9DFABD
  3
ACAD_PLOTSETTINGS
350
7DE1B343D9DFAFD
  3
ACAD_PLOTSTYLENAME
350
7DE1B343D9DFAFA
  3
ACDBHEADERROUNDTRIPXREC
350
7DE1B343D9DFB07
  3
ACDBVARIABLEDICTIONARY
350
7DE1B343D9DFB04
  0
DICTIONARY
  5
7DE1B343D9DFB29
330
7DE1B343D9DFAC7
100
AcDbDictionary
280
     1
  3
ACAD_LAYOUTSELFREF
360
7DE1B343D9DFB2A
  0
DICTIONARY
  5
7DE1B343D9DFB27
330
7DE1B343D9DFAC4
100
AcDbDictionary
280
     1
  3
ACAD_LAYOUTSELFREF
360
7DE1B343D9DFB28
  0
DICTIONARY
  5
7DE1B343D9DFABC
102
{ACAD_REACTORS
330
7DE1B343D9DFABB
102
}
330
7DE1B343D9DFABB
100
AcDbDictionary
  0
DICTIONARY
  5
7DE1B343D9DFAFC
102
{ACAD_REACTORS
330
7DE1B343D9DFABB
102
}
330
7DE1B343D9DFABB
100
AcDbDictionary
  0
DICTIONARY
  5
7DE1B343D9DFABD
102
{ACAD_REACTORS
330
7DE1B343D9DFABB
102
}
330
7DE1B343D9DFABB
100
AcDbDictionary
  3
STANDARD
350
7DE1B343D9DFACA
  0
DICTIONARY
  5
7DE1B343D9DFAFD
102
{ACAD_REACTORS
330
7DE1B343D9DFABB
102
}
330
7DE1B343D9DFABB
100
AcDbDictionary
  0
ACDBDICTIONARYWDFLT
  5
7DE1B343D9DFAFA
102
{ACAD_REACTORS
330
7DE1B343D9DFABB
102
}
330
7DE1B343D9DFABB
100
AcDbDictionary
281
     1
  3
Normal
350
7DE1B343D9DFAFB
100
AcDbDictionaryWithDefault
340
7DE1B343D9DFAFB
  0
DICTIONARY
  5
7DE1B343D9DFB07
102
{ACAD_REACTORS
330
7DE1B343D9DFABB
102
}
330
7DE1B343D9DFABB
100
AcDbDictionary
  3
CEPSNTYPE
350
7DE1B343D9DFB11
  3
FINGERPRINTGUID
350
7DE1B343D9DFB12
  3
HYPERLINKBASE
350
7DE1B343D9DFB0A
  3
INSUNITS
350
7DE1B343D9DFB10
  3
LAYOUTDICT
350
7DE1B343D9DFB0C
  3
LWETCUNION
350
7DE1B343D9DFB0F
  3
PLOTSETDICT
350
7DE1B343D9DFB0D
  3
PLOTSTYLNAMDICT
350
7DE1B343D9DFB0E
  3
PSVPSCALE
350
7DE1B343D9DFB14
  3
PUCSBASE
350
7DE1B343D9DFB17
  3
PUCSORGBACK
350
7DE1B343D9DFB1D
  3
PUCSORGBOTTOM
350
7DE1B343D9DFB19
  3
PUCSORGFRONT
350
7DE1B343D9DFB1C
  3
PUCSORGLEFT
350
7DE1B343D9DFB1A
  3
PUCSORGRIGHT
350
7DE1B343D9DFB1B
  3
PUCSORGTOP
350
7DE1B343D9DFB18
  3
PUCSORTHOREF
350
7DE1B343D9DFB15
  3
PUCSORTHOVIEW
350
7DE1B343D9DFB16
  3
STYLESHEET
350
7DE1B343D9DFB0B
  3
TSTACKALIGN
350
7DE1B343D9DFB08
  3
TSTACKSIZE
350
7DE1B343D9DFB09
  3
UCSBASE
350
7DE1B343D9DFB20
  3
UCSORGBACK
350
7DE1B343D9DFB26
  3
UCSORGBOTTOM
350
7DE1B343D9DFB22
  3
UCSORGFRONT
350
7DE1B343D9DFB25
  3
UCSORGLEFT
350
7DE1B343D9DFB23
  3
UCSORGRIGHT
350
7DE1B343D9DFB24
  3
UCSORGTOP
350
7DE1B343D9DFB21
  3
UCSORTHOREF
350
7DE1B343D9DFB1E
  3
UCSORTHOVIEW
350
7DE1B343D9DFB1F
  3
VERSIONGUID
350
7DE1B343D9DFB13
  0
DICTIONARY
  5
7DE1B343D9DFB04
102
{ACAD_REACTORS
330
7DE1B343D9DFABB
102
}
330
7DE1B343D9DFABB
100
AcDbDictionary
  3
DIMASSOC
350
7DE1B343D9DFB05
  0
XRECORD
  5
7DE1B343D9DFB2A
102
{ACAD_REACTORS
330
7DE1B343D9DFB29
102
}
330
7DE1B343D9DFB29
100
AcDbXrecord
340
7DE1B343D9DFAC7
  0
XRECORD
  5
7DE1B343D9DFB28
102
{ACAD_REACTORS
330
7DE1B343D9DFB27
102
}
330
7DE1B343D9DFB27
100
AcDbXrecord
340
7DE1B343D9DFAC4
  0
MLINESTYLE
  5
7DE1B343D9DFACA
102
{ACAD_REACTORS
330
7DE1B343D9DFABD
102
}
330
7DE1B343D9DFABD
100
AcDbMlineStyle
  2
STANDARD
 70
     0
  3

 62
     0
 51
90.0
 52
90.0
 71
     2
 49
0.5
 62
   256
  6
BYLAYER
 49
-0.5
 62
   256
  6
BYLAYER
  0
ACDBPLACEHOLDER
  5
7DE1B343D9DFAFB
102
{ACAD_REACTORS
330
7DE1B343D9DFAFA
102
}
330
7DE1B343D9DFAFA
100
AcDbPlaceHolder
280
     0
  0
XRECORD
  5
7DE1B343D9DFB11
102
{ACAD_REACTORS
330
7DE1B343D9DFB07
102
}
330
7DE1B343D9DFB07
100
AcDbXrecord
 90
        0
  0
XRECORD
  5
7DE1B343D9DFB12
102
{ACAD_REACTORS
330
7DE1B343D9DFB07
102
}
330
7DE1B343D9DFB07
100
AcDbXrecord
  1
{D991A340-8DB5-11D6-88E6-0090279574E7}
  0
XRECORD
  5
7DE1B343D9DFB0A
102
{ACAD_REACTORS
330
7DE1B343D9DFB07
102
}
330
7DE1B343D9DFB07
100
AcDbXrecord
  1

  0
XRECORD
  5
7DE1B343D9DFB10
102
{ACAD_REACTORS
330
7DE1B343D9DFB07
102
}
330
7DE1B343D9DFB07
100
AcDbXrecord
 90
        0
  0
XRECORD
  5
7DE1B343D9DFB0C
102
{ACAD_REACTORS
330
7DE1B343D9DFB07
102
}
330
7DE1B343D9DFB07
100
AcDbXrecord
340
7DE1B343D9DFAFC
  0
XRECORD
  5
7DE1B343D9DFB0F
102
{ACAD_REACTORS
330
7DE1B343D9DFB07
102
}
330
7DE1B343D9DFB07
100
AcDbXrecord
 90
    14877
  0
XRECORD
  5
7DE1B343D9DFB0D
102
{ACAD_REACTORS
330
7DE1B343D9DFB07
102
}
330
7DE1B343D9DFB07
100
AcDbXrecord
340
7DE1B343D9DFAFD
  0
XRECORD
  5
7DE1B343D9DFB0E
102
{ACAD_REACTORS
330
7DE1B343D9DFB07
102
}
330
7DE1B343D9DFB07
100
AcDbXrecord
340
7DE1B343D9DFAFA
  0
XRECORD
  5
7DE1B343D9DFB14
102
{ACAD_REACTORS
330
7DE1B343D9DFB07
102
}
330
7DE1B343D9DFB07
100
AcDbXrecord
 40
0.0
  0
XRECORD
  5
7DE1B343D9DFB17
102
{ACAD_REACTORS
330
7DE1B343D9DFB07
102
}
330
7DE1B343D9DFB07
100
AcDbXrecord
340
0
  0
XRECORD
  5
7DE1B343D9DFB1D
102
{ACAD_REACTORS
330
7DE1B343D9DFB07
102
}
330
7DE1B343D9DFB07
100
AcDbXrecord
 10
0.0
 20
0.0
 30
0.0
  0
XRECORD
  5
7DE1B343D9DFB19
102
{ACAD_REACTORS
330
7DE1B343D9DFB07
102
}
330
7DE1B343D9DFB07
100
AcDbXrecord
 10
0.0
 20
0.0
 30
0.0
  0
XRECORD
  5
7DE1B343D9DFB1C
102
{ACAD_REACTORS
330
7DE1B343D9DFB07
102
}
330
7DE1B343D9DFB07
100
AcDbXrecord
 10
0.0
 20
0.0
 30
0.0
  0
XRECORD
  5
7DE1B343D9DFB1A
102
{ACAD_REACTORS
330
7DE1B343D9DFB07
102
}
330
7DE1B343D9DFB07
100
AcDbXrecord
 10
0.0
 20
0.0
 30
0.0
  0
XRECORD
  5
7DE1B343D9DFB1B
102
{ACAD_REACTORS
330
7DE1B343D9DFB07
102
}
330
7DE1B343D9DFB07
100
AcDbXrecord
 10
0.0
 20
0.0
 30
0.0
  0
XRECORD
  5
7DE1B343D9DFB18
102
{ACAD_REACTORS
330
7DE1B343D9DFB07
102
}
330
7DE1B343D9DFB07
100
AcDbXrecord
 10
0.0
 20
0.0
 30
0.0
  0
XRECORD
  5
7DE1B343D9DFB15
102
{ACAD_REACTORS
330
7DE1B343D9DFB07
102
}
330
7DE1B343D9DFB07
100
AcDbXrecord
340
0
  0
XRECORD
  5
7DE1B343D9DFB16
102
{ACAD_REACTORS
330
7DE1B343D9DFB07
102
}
330
7DE1B343D9DFB07
100
AcDbXrecord
 70
     0
  0
XRECORD
  5
7DE1B343D9DFB0B
102
{ACAD_REACTORS
330
7DE1B343D9DFB07
102
}
330
7DE1B343D9DFB07
100
AcDbXrecord
  1

  0
XRECORD
  5
7DE1B343D9DFB08
102
{ACAD_REACTORS
330
7DE1B343D9DFB07
102
}
330
7DE1B343D9DFB07
100
AcDbXrecord
 90
        1
  0
XRECORD
  5
7DE1B343D9DFB09
102
{ACAD_REACTORS
330
7DE1B343D9DFB07
102
}
330
7DE1B343D9DFB07
100
AcDbXrecord
 90
       70
  0
XRECORD
  5
7DE1B343D9DFB20
102
{ACAD_REACTORS
330
7DE1B343D9DFB07
102
}
330
7DE1B343D9DFB07
100
AcDbXrecord
340
0
  0
XRECORD
  5
7DE1B343D9DFB26
102
{ACAD_REACTORS
330
7DE1B343D9DFB07
102
}
330
7DE1B343D9DFB07
100
AcDbXrecord
 10
0.0
 20
0.0
 30
0.0
  0
XRECORD
  5
7DE1B343D9DFB22
102
{ACAD_REACTORS
330
7DE1B343D9DFB07
102
}
330
7DE1B343D9DFB07
100
AcDbXrecord
 10
0.0
 20
0.0
 30
0.0
  0
XRECORD
  5
7DE1B343D9DFB25
102
{ACAD_REACTORS
330
7DE1B343D9DFB07
102
}
330
7DE1B343D9DFB07
100
AcDbXrecord
 10
0.0
 20
0.0
 30
0.0
  0
XRECORD
  5
7DE1B343D9DFB23
102
{ACAD_REACTORS
330
7DE1B343D9DFB07
102
}
330
7DE1B343D9DFB07
100
AcDbXrecord
 10
0.0
 20
0.0
 30
0.0
  0
XRECORD
  5
7DE1B343D9DFB24
102
{ACAD_REACTORS
330
7DE1B343D9DFB07
102
}
330
7DE1B343D9DFB07
100
AcDbXrecord
 10
0.0
 20
0.0
 30
0.0
  0
XRECORD
  5
7DE1B343D9DFB21
102
{ACAD_REACTORS
330
7DE1B343D9DFB07
102
}
330
7DE1B343D9DFB07
100
AcDbXrecord
 10
0.0
 20
0.0
 30
0.0
  0
XRECORD
  5
7DE1B343D9DFB1E
102
{ACAD_REACTORS
330
7DE1B343D9DFB07
102
}
330
7DE1B343D9DFB07
100
AcDbXrecord
340
0
  0
XRECORD
  5
7DE1B343D9DFB1F
102
{ACAD_REACTORS
330
7DE1B343D9DFB07
102
}
330
7DE1B343D9DFB07
100
AcDbXrecord
 70
     0
  0
XRECORD
  5
7DE1B343D9DFB13
102
{ACAD_REACTORS
330
7DE1B343D9DFB07
102
}
330
7DE1B343D9DFB07
100
AcDbXrecord
  1
{D991A342-8DB5-11D6-88E6-0090279574E7}
  0
DICTIONARYVAR
  5
7DE1B343D9DFB05
102
{ACAD_REACTORS
330
7DE1B343D9DFB04
102
}
330
7DE1B343D9DFB04
100
DictionaryVariables
280
     0
  1
1
  0
ENDSEC
  0
EOF
