  0
SECTION
  2
HEADER
  9
$ACADVER
  1
AC1014
  9
$ACADMAINTVER
 70
     9
  9
$DWGCODEPAGE
  3
ANSI_1252
  9
$INSBASE
 10
0.0
 20
0.0
 30
0.0
  9
$EXTMIN
 10
2.149099032812929
 20
2.867679585246806
 30
0.0
  9
$EXTMAX
 10
5.634318354560065
 20
5.57652111837222
 30
0.0
  9
$LIMMIN
 10
0.0
 20
0.0
  9
$LIMMAX
 10
8.5
 20
11.0
  9
$ORTHOMODE
 70
     1
  9
$REGENMODE
 70
     0
  9
$FILLMODE
 70
     1
  9
$QTEXTMODE
 70
     0
  9
$MIRRTEXT
 70
     0
  9
$DRAGMODE
 70
     2
  9
$LTSCALE
 40
1.0
  9
$OSMODE
 70
    39
  9
$ATTMODE
 70
     1
  9
$TEXTSIZE
 40
0.125
  9
$TRACEWID
 40
0.05
  9
$TEXTSTYLE
  7
ROMANS
  9
$CLAYER
  8
0
  9
$CELTYPE
  6
BYLAYER
  9
$CECOLOR
 62
   256
  9
$CELTSCALE
 40
1.0
  9
$DELOBJ
 70
     1
  9
$DISPSILH
 70
     1
  9
$DIMSCALE
 40
1.0
  9
$DIMASZ
 40
0.125
  9
$DIMEXO
 40
0.125
  9
$DIMDLI
 40
0.375
  9
$DIMRND
 40
0.0
  9
$DIMDLE
 40
0.0
  9
$DIMEXE
 40
0.125
  9
$DIMTP
 40
0.0
  9
$DIMTM
 40
0.04
  9
$DIMTXT
 40
0.125
  9
$DIMCEN
 40
-0.125
  9
$DIMTSZ
 40
0.0
  9
$DIMTOL
 70
     1
  9
$DIMLIM
 70
     0
  9
$DIMTIH
 70
     1
  9
$DIMTOH
 70
     1
  9
$DIMSE1
 70
     0
  9
$DIMSE2
 70
     0
  9
$DIMTAD
 70
     0
  9
$DIMZIN
 70
     4
  9
$DIMBLK
  1

  9
$DIMASO
 70
     1
  9
$DIMSHO
 70
     1
  9
$DIMPOST
  1

  9
$DIMAPOST
  1

  9
$DIMALT
 70
     0
  9
$DIMALTD
 70
     2
  9
$DIMALTF
 40
25.4
  9
$DIMLFAC
 40
1.0
  9
$DIMTOFL
 70
     0
  9
$DIMTVP
 40
0.0
  9
$DIMTIX
 70
     0
  9
$DIMSOXD
 70
     0
  9
$DIMSAH
 70
     0
  9
$DIMBLK1
  1

  9
$DIMBLK2
  1

  9
$DIMSTYLE
  2
STANDARD
  9
$DIMCLRD
 70
     0
  9
$DIMCLRE
 70
     0
  9
$DIMCLRT
 70
     0
  9
$DIMTFAC
 40
1.0
  9
$DIMGAP
 40
0.09
  9
$DIMJUST
 70
     0
  9
$DIMSD1
 70
     0
  9
$DIMSD2
 70
     0
  9
$DIMTOLJ
 70
     1
  9
$DIMTZIN
 70
     0
  9
$DIMALTZ
 70
     0
  9
$DIMALTTZ
 70
     0
  9
$DIMFIT
 70
     3
  9
$DIMUPT
 70
     0
  9
$DIMUNIT
 70
     2
  9
$DIMDEC
 70
     3
  9
$DIMTDEC
 70
     4
  9
$DIMALTU
 70
     2
  9
$DIMALTTD
 70
     2
  9
$DIMTXSTY
  7
ROMANS
  9
$DIMAUNIT
 70
     0
  9
$LUNITS
 70
     2
  9
$LUPREC
 70
     3
  9
$SKETCHINC
 40
0.1
  9
$FILLETRAD
 40
0.0
  9
$AUNITS
 70
     0
  9
$AUPREC
 70
     0
  9
$MENU
  1
AUTOMSTR
  9
$ELEVATION
 40
0.0
  9
$PELEVATION
 40
0.0
  9
$THICKNESS
 40
0.0
  9
$LIMCHECK
 70
     0
  9
$BLIPMODE
 70
     0
  9
$CHAMFERA
 40
0.0
  9
$CHAMFERB
 40
0.0
  9
$CHAMFERC
 40
0.0
  9
$CHAMFERD
 40
0.0
  9
$SKPOLY
 70
     0
  9
$TDCREATE
 40
2448210.576022106
  9
$TDUPDATE
 40
2452458.304530231
  9
$TDINDWG
 40
0.0458455093
  9
$TDUSRTIMER
 40
0.0458455093
  9
$USRTIMER
 70
     1
  9
$ANGBASE
 50
0.0
  9
$ANGDIR
 70
     0
  9
$PDMODE
 70
     0
  9
$PDSIZE
 40
0.0
  9
$PLINEWID
 40
0.0
  9
$COORDS
 70
     2
  9
$SPLFRAME
 70
     0
  9
$SPLINETYPE
 70
     6
  9
$SPLINESEGS
 70
     8
  9
$ATTDIA
 70
     0
  9
$ATTREQ
 70
     1
  9
$HANDLING
 70
 22529
  9
$HANDSEED
  5
51F
  9
$SURFTAB1
 70
     6
  9
$SURFTAB2
 70
     6
  9
$SURFTYPE
 70
     6
  9
$SURFU
 70
     6
  9
$SURFV
 70
     6
  9
$UCSNAME
  2

  9
$UCSORG
 10
0.0
 20
0.0
 30
0.0
  9
$UCSXDIR
 10
1.0
 20
0.0
 30
0.0
  9
$UCSYDIR
 10
0.0
 20
1.0
 30
0.0
  9
$PUCSNAME
  2

  9
$PUCSORG
 10
0.0
 20
0.0
 30
0.0
  9
$PUCSXDIR
 10
1.0
 20
0.0
 30
0.0
  9
$PUCSYDIR
 10
0.0
 20
1.0
 30
0.0
  9
$USERI1
 70
     0
  9
$USERI2
 70
     0
  9
$USERI3
 70
     0
  9
$USERI4
 70
     0
  9
$USERI5
 70
     0
  9
$USERR1
 40
0.0
  9
$USERR2
 40
0.0
  9
$USERR3
 40
0.0
  9
$USERR4
 40
0.0
  9
$USERR5
 40
0.0
  9
$WORLDVIEW
 70
     1
  9
$SHADEDGE
 70
     3
  9
$SHADEDIF
 70
    70
  9
$TILEMODE
 70
     1
  9
$MAXACTVP
 70
    16
  9
$PINSBASE
 10
0.0
 20
0.0
 30
0.0
  9
$PLIMCHECK
 70
     0
  9
$PEXTMIN
 10
1.000000000000000E+20
 20
1.000000000000000E+20
 30
1.000000000000000E+20
  9
$PEXTMAX
 10
-1.000000000000000E+20
 20
-1.000000000000000E+20
 30
-1.000000000000000E+20
  9
$PLIMMIN
 10
0.0
 20
0.0
  9
$PLIMMAX
 10
12.0
 20
9.0
  9
$UNITMODE
 70
     0
  9
$VISRETAIN
 70
     0
  9
$PLINEGEN
 70
     1
  9
$PSLTSCALE
 70
     0
  9
$TREEDEPTH
 70
  3020
  9
$PICKSTYLE
 70
     1
  9
$CMLSTYLE
  2
STANDARD
  9
$CMLJUST
 70
     0
  9
$CMLSCALE
 40
1.0
  9
$PROXYGRAPHICS
 70
     1
  9
$MEASUREMENT
 70
     0
  0
ENDSEC
  0
SECTION
  2
CLASSES
  0
CLASS
  1
LWPOLYLINE
  2
AcDbPolyline
  3
AutoCAD 2000
 90
        0
280
     0
281
     1
  0
CLASS
  1
OLE2FRAME
  2
AcDbOle2Frame
  3
AutoCAD 2000
 90
        0
280
     0
281
     1
  0
CLASS
  1
ACDBDICTIONARYWDFLT
  2
AcDbDictionaryWithDefault
  3
AutoCAD 2000
 90
        0
280
     0
281
     0
  0
CLASS
  1
ACDBPLACEHOLDER
  2
AcDbPlaceHolder
  3
AutoCAD 2000
 90
        0
280
     0
281
     0
  0
CLASS
  1
LAYOUT
  2
AcDbLayout
  3
AutoCAD 2000
 90
        0
280
     0
281
     0
  0
CLASS
  1
DICTIONARYVAR
  2
AcDbDictionaryVar
  3
AutoCAD 2000
 90
        0
280
     0
281
     0
  0
CLASS
  1
LONG_TRANSACTION
  2
AcDbLongTransaction
  3
AutoCAD 2000
 90
        0
280
     0
281
     0
  0
CLASS
  1
LWPOLYLINE
  2
AcDbPolyline
  3
AutoCAD 2000
 90
        0
280
     0
281
     1
  0
CLASS
  1
HATCH
  2
AcDbHatch
  3
AutoCAD 2000
 90
        0
280
     0
281
     1
  0
CLASS
  1
XRECORD
  2
AcDbXrecord
  3
AutoCAD 2000
 90
        0
280
     0
281
     0
  0
ENDSEC
  0
SECTION
  2
TABLES
  0
TABLE
  2
VPORT
  5
8
330
0
100
AcDbSymbolTable
 70
     2
  0
VPORT
  5
4FA
330
8
100
AcDbSymbolTableRecord
100
AcDbViewportTableRecord
  2
*ACTIVE
 70
     0
 10
0.0
 20
0.0
 11
1.0
 21
1.0
 12
7.583906667299366
 22
4.221991525028997
 13
0.0
 23
0.0
 14
0.015625
 24
0.015625
 15
0.0
 25
0.0
 16
0.0
 26
0.0
 36
1.0
 17
0.0
 27
0.0
 37
0.0
 40
2.733730135997813
 41
4.320930232558139
 42
50.0
 43
0.0
 44
0.0
 50
0.0
 51
0.0
 71
     0
 72
  2000
 73
     1
 74
     1
 75
     0
 76
     0
 77
     0
 78
     0
  0
ENDTAB
  0
TABLE
  2
LTYPE
  5
5
330
0
100
AcDbSymbolTable
 70
     1
  0
LTYPE
  5
12
330
5
100
AcDbSymbolTableRecord
100
AcDbLinetypeTableRecord
  2
BYBLOCK
 70
     0
  3

 72
    65
 73
     0
 40
0.0
  0
LTYPE
  5
13
330
5
100
AcDbSymbolTableRecord
100
AcDbLinetypeTableRecord
  2
BYLAYER
 70
     0
  3

 72
    65
 73
     0
 40
0.0
  0
LTYPE
  5
14
330
5
100
AcDbSymbolTableRecord
100
AcDbLinetypeTableRecord
  2
CONTINUOUS
 70
     0
  3
Solid line
 72
    65
 73
     0
 40
0.0
  0
ENDTAB
  0
TABLE
  2
LAYER
  5
2
330
0
100
AcDbSymbolTable
 70
     2
  0
LAYER
  5
F
330
2
100
AcDbSymbolTableRecord
100
AcDbLayerTableRecord
  2
0
 70
     0
 62
     7
  6
CONTINUOUS
  0
LAYER
  5
31
330
2
100
AcDbSymbolTableRecord
100
AcDbLayerTableRecord
  2
TEXT
 70
     0
 62
     3
  6
CONTINUOUS
  0
ENDTAB
  0
TABLE
  2
STYLE
  5
3
330
0
100
AcDbSymbolTable
 70
     3
  0
STYLE
  5
10
330
3
100
AcDbSymbolTableRecord
100
AcDbTextStyleTableRecord
  2
STANDARD
 70
     0
 40
0.0
 41
1.0
 50
0.0
 71
     0
 42
0.125
  3
txt
  4

  0
STYLE
  5
3E6
330
3
100
AcDbSymbolTableRecord
100
AcDbTextStyleTableRecord
  2
ITALICC
 70
     0
 40
0.0
 41
1.0
 50
0.0
 71
     0
 42
0.125
  3
italicc
  4

  0
STYLE
  5
4F6
330
3
100
AcDbSymbolTableRecord
100
AcDbTextStyleTableRecord
  2
ROMANS
 70
     0
 40
0.0
 41
1.0
 50
0.0
 71
     0
 42
0.125
  3
romans.shx
  4

  0
ENDTAB
  0
TABLE
  2
VIEW
  5
6
330
0
100
AcDbSymbolTable
 70
     0
  0
ENDTAB
  0
TABLE
  2
UCS
  5
7
330
0
100
AcDbSymbolTable
 70
     0
  0
ENDTAB
  0
TABLE
  2
APPID
  5
9
330
0
100
AcDbSymbolTable
 70
     1
  0
APPID
  5
11
330
9
100
AcDbSymbolTableRecord
100
AcDbRegAppTableRecord
  2
ACAD
 70
     0
  0
ENDTAB
  0
TABLE
  2
DIMSTYLE
  5
A
330
0
100
AcDbSymbolTable
 70
     1
  0
DIMSTYLE
105
3D6
330
A
100
AcDbSymbolTableRecord
100
AcDbDimStyleTableRecord
  2
STANDARD
 70
     0
  3

  4

  5

  6

  7

 40
1.0
 41
0.18
 42
0.0625
 43
0.38
 44
0.18
 45
0.0
 46
0.0
 47
0.0
 48
0.0
140
0.18
141
0.09
142
0.0
143
25.4
144
1.0
145
0.0
146
1.0
147
0.09
 71
     0
 72
     0
 73
     1
 74
     1
 75
     0
 76
     0
 77
     0
 78
     0
170
     0
171
     2
172
     0
173
     0
174
     0
175
     0
176
     0
177
     0
178
     0
270
     2
271
     4
272
     4
273
     2
274
     2
340
10
275
     0
280
     0
281
     0
282
     0
283
     1
284
     0
285
     0
286
     0
287
     3
288
     0
  0
ENDTAB
  0
TABLE
  2
BLOCK_RECORD
  5
1
330
0
100
AcDbSymbolTable
 70
     0
  0
BLOCK_RECORD
  5
18
102
{ACAD_XDICTIONARY
360
51D
102
}
330
1
100
AcDbSymbolTableRecord
100
AcDbBlockTableRecord
  2
*MODEL_SPACE
  0
BLOCK_RECORD
  5
15
102
{ACAD_XDICTIONARY
360
51B
102
}
330
1
100
AcDbSymbolTableRecord
100
AcDbBlockTableRecord
  2
*PAPER_SPACE
  0
ENDTAB
  0
ENDSEC
  0
SECTION
  2
BLOCKS
  0
BLOCK
  5
3B
330
18
100
AcDbEntity
  8
0
100
AcDbBlockBegin
  2
*MODEL_SPACE
 70
     0
 10
0.0
 20
0.0
 30
0.0
  3
*MODEL_SPACE
  1

  0
ENDBLK
  5
3C
330
18
100
AcDbEntity
  8
0
100
AcDbBlockEnd
  0
BLOCK
  5
39
330
15
100
AcDbEntity
 67
     1
  8
0
100
AcDbBlockBegin
  2
*PAPER_SPACE
 70
     0
 10
0.0
 20
0.0
 30
0.0
  3
*PAPER_SPACE
  1

  0
ENDBLK
  5
3A
330
15
100
AcDbEntity
 67
     1
  8
0
100
AcDbBlockEnd
  0
ENDSEC
  0
SECTION
  2
ENTITIES
  0
LWPOLYLINE
  5
209
330
18
100
AcDbEntity
  8
0
100
AcDbPolyline
 90
       22
 70
     1
 43
0.0
 10
4.729095995012571
 20
5.194607855881352
 10
4.729095995012571
 20
4.958403542490017
 10
4.57224690672305
 20
4.07652111837222
 10
3.261945083302095
 20
4.07652111837222
 10
3.105095995012572
 20
4.95840354249002
 10
3.105095995012571
 20
5.194607855881347
 10
3.170880080077302
 20
5.562802361840655
 10
3.094095995012572
 20
5.57652111837222
 10
3.027095995012572
 20
5.20152111837222
 10
3.027095995012572
 20
4.95152111837222
 10
3.182720995012572
 20
4.07652111837222
 10
2.912095995012572
 20
4.07652111837222
 10
2.912095995012572
 20
3.60777111837222
 42
0.4142135623730951
 10
2.943345995012572
 20
3.57652111837222
 10
4.890845995012572
 20
3.57652111837222
 42
0.4142135623730951
 10
4.922095995012572
 20
3.60777111837222
 10
4.922095995012572
 20
4.07652111837222
 10
4.651470995012572
 20
4.07652111837222
 10
4.807095995012572
 20
4.951521118372219
 10
4.807095995012572
 20
5.20152111837222
 10
4.740095995012572
 20
5.57652111837222
 10
4.663311909947842
 20
5.562802361840654
  0
TEXT
  5
46C
330
18
100
AcDbEntity
  8
TEXT
100
AcDbText
 10
3.139104421563883
 20
3.325698189329388
 30
0.0
 40
0.125
  1
PART #110273
  7
ITALICC
 72
     1
 11
3.892080612040072
 21
3.325698189329388
 31
0.0
100
AcDbText
  0
LINE
  5
46D
330
18
100
AcDbEntity
  8
TEXT
100
AcDbLine
 10
3.859814110992135
 20
3.081344503309554
 30
0.0
 11
3.936462092284693
 21
3.081344503309554
 31
0.0
  0
LINE
  5
46E
330
18
100
AcDbEntity
  8
TEXT
100
AcDbLine
 10
3.931982204958193
 20
3.14562119796632
 30
0.0
 11
3.864482487308676
 21
3.14562119796632
 31
0.0
  0
LWPOLYLINE
  5
46F
330
18
100
AcDbEntity
  8
TEXT
100
AcDbPolyline
 90
        5
 70
     0
 43
0.0001332181640625
 10
2.22270206845746
 20
3.022394396208507
 10
2.236023884863709
 20
3.022394396208507
 10
2.236023884863709
 20
3.059029391325696
 10
2.272658879980899
 20
3.059029391325696
 10
2.272658879980899
 20
3.072351207731943
  0
LWPOLYLINE
  5
470
330
18
100
AcDbEntity
  8
TEXT
100
AcDbPolyline
 90
        3
 70
     0
 43
0.0006660908203125
 10
2.262667517676208
 20
3.118977565153822
 10
2.176075711035583
 20
3.118977565153822
 10
2.176075711035583
 20
3.032385758513195
  0
LWPOLYLINE
  5
471
330
18
100
AcDbEntity
  8
TEXT
100
AcDbPolyline
 90
        3
 70
     0
 43
0.0006660908203125
 10
2.262667517676208
 20
3.145621197966323
 10
2.149432078223086
 20
3.145621197966323
 10
2.149432078223086
 20
3.032385758513195
  0
LWPOLYLINE
  5
472
330
18
100
AcDbEntity
  8
TEXT
100
AcDbPolyline
 90
        5
 70
     0
 43
0.0001332181640625
 10
2.272658879980899
 20
2.952454860075696
 10
2.272658879980899
 20
2.965776676481946
 10
2.236023884863711
 20
2.965776676481946
 10
2.236023884863711
 20
3.002411671599133
 10
2.22270206845746
 20
3.002411671599133
  0
LWPOLYLINE
  5
473
330
18
100
AcDbEntity
  8
TEXT
100
AcDbPolyline
 90
        3
 70
     0
 43
0.0006660908203125
 10
2.176075711035583
 20
2.992420309294447
 10
2.176075711035583
 20
2.905828502653821
 10
2.262667517676208
 20
2.905828502653821
  0
LWPOLYLINE
  5
474
330
18
100
AcDbEntity
  8
TEXT
100
AcDbPolyline
 90
        3
 70
     0
 43
0.0006660908203125
 10
2.149432078223086
 20
2.992420309294447
 10
2.149432078223086
 20
2.87918486984132
 10
2.262667517676208
 20
2.87918486984132
  0
LWPOLYLINE
  5
475
330
18
100
AcDbEntity
  8
TEXT
100
AcDbPolyline
 90
        2
 70
     0
 43
0.0001332181640625
 10
2.176075711035583
 20
2.992420309294447
 10
2.236023884863711
 20
3.002411671599133
  0
LWPOLYLINE
  5
476
330
18
100
AcDbEntity
  8
TEXT
100
AcDbPolyline
 90
        2
 70
     0
 43
0.0001332181640625
 10
2.22270206845746
 20
3.002411671599133
 10
2.149432078223086
 20
2.992420309294447
  0
LWPOLYLINE
  5
477
330
18
100
AcDbEntity
  8
TEXT
100
AcDbPolyline
 90
        2
 70
     0
 43
0.0006660908203125
 10
2.176075711035583
 20
2.992420309294447
 10
2.149432078223086
 20
2.992420309294447
  0
LWPOLYLINE
  5
478
330
18
100
AcDbEntity
  8
TEXT
100
AcDbPolyline
 90
        2
 70
     0
 43
0.0001332181640625
 10
2.176075711035583
 20
2.905828502653821
 10
2.236023884863711
 20
2.965776676481946
  0
LWPOLYLINE
  5
479
330
18
100
AcDbEntity
  8
TEXT
100
AcDbPolyline
 90
        2
 70
     0
 43
0.0006660908203125
 10
2.176075711035583
 20
3.032385758513195
 10
2.149432078223086
 20
3.032385758513195
  0
LWPOLYLINE
  5
47A
330
18
100
AcDbEntity
  8
TEXT
100
AcDbPolyline
 90
        2
 70
     0
 43
0.0001332181640625
 10
2.149432078223086
 20
3.032385758513195
 10
2.22270206845746
 20
3.022394396208507
  0
LWPOLYLINE
  5
47B
330
18
100
AcDbEntity
  8
TEXT
100
AcDbPolyline
 90
        2
 70
     0
 43
0.0001332181640625
 10
2.176075711035583
 20
3.032385758513195
 10
2.236023884863709
 20
3.022394396208507
  0
LWPOLYLINE
  5
47C
330
18
100
AcDbEntity
  8
TEXT
100
AcDbPolyline
 90
        2
 70
     0
 43
0.0001332181640625
 10
2.176075711035583
 20
3.118977565153822
 10
2.236023884863709
 20
3.059029391325696
  0
LWPOLYLINE
  5
47D
330
18
100
AcDbEntity
  8
TEXT
100
AcDbPolyline
 90
        5
 70
     0
 43
0.0001332181640625
 10
2.342598416113709
 20
3.002411671599133
 10
2.329276599707461
 20
3.002411671599133
 10
2.329276599707461
 20
2.965776676481946
 10
2.292641604590271
 20
2.965776676481946
 10
2.292641604590271
 20
2.952454860075696
  0
LWPOLYLINE
  5
47E
330
18
100
AcDbEntity
  8
TEXT
100
AcDbPolyline
 90
        2
 70
     0
 43
0.0001332181640625
 10
2.389224773535584
 20
2.992420309294447
 10
2.329276599707461
 20
3.002411671599133
  0
LWPOLYLINE
  5
47F
330
18
100
AcDbEntity
  8
TEXT
100
AcDbPolyline
 90
        2
 70
     0
 43
0.0001332181640625
 10
2.415868406348085
 20
2.992420309294447
 10
2.342598416113709
 20
3.002411671599133
  0
LWPOLYLINE
  5
480
330
18
100
AcDbEntity
  8
TEXT
100
AcDbPolyline
 90
        3
 70
     0
 43
0.0006660908203125
 10
2.30263296689496
 20
2.87918486984132
 10
2.415868406348085
 20
2.87918486984132
 10
2.415868406348085
 20
2.992420309294447
  0
LWPOLYLINE
  5
481
330
18
100
AcDbEntity
  8
TEXT
100
AcDbPolyline
 90
        3
 70
     0
 43
0.0006660908203125
 10
2.30263296689496
 20
2.905828502653821
 10
2.389224773535584
 20
2.905828502653821
 10
2.389224773535584
 20
2.992420309294447
  0
LWPOLYLINE
  5
482
330
18
100
AcDbEntity
  8
TEXT
100
AcDbPolyline
 90
        2
 70
     0
 43
0.0001332181640625
 10
2.389224773535584
 20
2.905828502653821
 10
2.329276599707461
 20
2.965776676481946
  0
LWPOLYLINE
  5
483
330
18
100
AcDbEntity
  8
TEXT
100
AcDbPolyline
 90
        2
 70
     0
 43
0.0006660908203125
 10
2.30263296689496
 20
2.905828502653821
 10
2.30263296689496
 20
2.87918486984132
  0
LWPOLYLINE
  5
484
330
18
100
AcDbEntity
  8
TEXT
100
AcDbPolyline
 90
        2
 70
     0
 43
0.0001332181640625
 10
2.292641604590271
 20
2.952454860075696
 10
2.30263296689496
 20
2.87918486984132
  0
LWPOLYLINE
  5
485
330
18
100
AcDbEntity
  8
TEXT
100
AcDbPolyline
 90
        2
 70
     0
 43
0.0001332181640625
 10
2.30263296689496
 20
2.905828502653821
 10
2.292641604590271
 20
2.965776676481946
  0
LWPOLYLINE
  5
486
330
18
100
AcDbEntity
  8
TEXT
100
AcDbPolyline
 90
        2
 70
     0
 43
0.0001332181640625
 10
2.262667517676208
 20
2.87918486984132
 10
2.272658879980899
 20
2.952454860075696
  0
LWPOLYLINE
  5
487
330
18
100
AcDbEntity
  8
TEXT
100
AcDbPolyline
 90
        2
 70
     0
 43
0.0001332181640625
 10
2.262667517676208
 20
2.905828502653821
 10
2.272658879980899
 20
2.965776676481946
  0
LWPOLYLINE
  5
488
330
18
100
AcDbEntity
  8
TEXT
100
AcDbPolyline
 90
        2
 70
     0
 43
0.0006660908203125
 10
2.262667517676208
 20
2.905828502653821
 10
2.262667517676208
 20
2.87918486984132
  0
LWPOLYLINE
  5
489
330
18
100
AcDbEntity
  8
TEXT
100
AcDbPolyline
 90
        2
 70
     0
 43
0.0006660908203125
 10
2.389224773535584
 20
2.992420309294447
 10
2.415868406348085
 20
2.992420309294447
  0
LWPOLYLINE
  5
48A
330
18
100
AcDbEntity
  8
TEXT
100
AcDbPolyline
 90
        2
 70
     0
 43
0.0001332181640625
 10
2.389224773535584
 20
3.118977565153822
 10
2.329276599707461
 20
3.059029391325696
  0
LWPOLYLINE
  5
48B
330
18
100
AcDbEntity
  8
TEXT
100
AcDbPolyline
 90
        2
 70
     0
 43
0.0001332181640625
 10
2.389224773535584
 20
3.032385758513195
 10
2.329276599707461
 20
3.022394396208507
  0
LWPOLYLINE
  5
48C
330
18
100
AcDbEntity
  8
TEXT
100
AcDbPolyline
 90
        2
 70
     0
 43
0.0001332181640625
 10
2.342598416113709
 20
3.022394396208507
 10
2.415868406348085
 20
3.032385758513195
  0
LWPOLYLINE
  5
48D
330
18
100
AcDbEntity
  8
TEXT
100
AcDbPolyline
 90
        3
 70
     0
 43
0.0006660908203125
 10
2.389224773535584
 20
3.032385758513195
 10
2.389224773535584
 20
3.118977565153822
 10
2.30263296689496
 20
3.118977565153822
  0
LWPOLYLINE
  5
48E
330
18
100
AcDbEntity
  8
TEXT
100
AcDbPolyline
 90
        3
 70
     0
 43
0.0006660908203125
 10
2.415868406348085
 20
3.032385758513195
 10
2.415868406348085
 20
3.145621197966323
 10
2.30263296689496
 20
3.145621197966323
  0
LWPOLYLINE
  5
48F
330
18
100
AcDbEntity
  8
TEXT
100
AcDbPolyline
 90
        2
 70
     0
 43
0.0001332181640625
 10
2.30263296689496
 20
3.145621197966323
 10
2.292641604590271
 20
3.072351207731943
  0
LWPOLYLINE
  5
490
330
18
100
AcDbEntity
  8
TEXT
100
AcDbPolyline
 90
        2
 70
     0
 43
0.0001332181640625
 10
2.30263296689496
 20
3.118977565153822
 10
2.292641604590271
 20
3.059029391325696
  0
LWPOLYLINE
  5
491
330
18
100
AcDbEntity
  8
TEXT
100
AcDbPolyline
 90
        2
 70
     0
 43
0.0006660908203125
 10
2.30263296689496
 20
3.118977565153822
 10
2.30263296689496
 20
3.145621197966323
  0
LWPOLYLINE
  5
492
330
18
100
AcDbEntity
  8
TEXT
100
AcDbPolyline
 90
        5
 70
     0
 43
0.0001332181640625
 10
2.292641604590271
 20
3.072351207731943
 10
2.292641604590271
 20
3.059029391325696
 10
2.329276599707461
 20
3.059029391325696
 10
2.329276599707461
 20
3.022394396208507
 10
2.342598416113709
 20
3.022394396208507
  0
LWPOLYLINE
  5
493
330
18
100
AcDbEntity
  8
TEXT
100
AcDbPolyline
 90
        2
 70
     0
 43
0.0001332181640625
 10
2.262667517676208
 20
3.118977565153822
 10
2.272658879980899
 20
3.059029391325696
  0
LWPOLYLINE
  5
494
330
18
100
AcDbEntity
  8
TEXT
100
AcDbPolyline
 90
        2
 70
     0
 43
0.0001332181640625
 10
2.272658879980899
 20
3.072351207731943
 10
2.262667517676208
 20
3.145621197966323
  0
LWPOLYLINE
  5
495
330
18
100
AcDbEntity
  8
TEXT
100
AcDbPolyline
 90
        2
 70
     0
 43
0.0006660908203125
 10
2.262667517676208
 20
3.118977565153822
 10
2.262667517676208
 20
3.145621197966323
  0
LWPOLYLINE
  5
496
330
18
100
AcDbEntity
  8
TEXT
100
AcDbPolyline
 90
        2
 70
     0
 43
0.0006660908203125
 10
2.389224773535584
 20
3.032385758513195
 10
2.415868406348085
 20
3.032385758513195
  0
LWPOLYLINE
  5
497
330
18
100
AcDbEntity
  8
TEXT
100
AcDbPolyline
 90
        2
 70
     0
 43
0.0
 10
3.134648327096716
 20
2.930699507192737
 42
0.3318488747599744
 10
3.203767619662029
 20
2.879148164977809
 42
-6.868794160588311
  0
LINE
  5
498
330
18
100
AcDbEntity
  8
TEXT
100
AcDbLine
 10
3.202628046165833
 20
3.21363267570513
 30
0.0
 11
3.135819333599468
 21
3.21363267570513
 31
0.0
  0
LINE
  5
499
330
18
100
AcDbEntity
  8
TEXT
100
AcDbLine
 10
2.856476965980374
 20
3.14562119796632
 30
0.0
 11
2.680745213081863
 21
3.14562119796632
 31
0.0
  0
ARC
  5
49A
330
18
100
AcDbEntity
  8
TEXT
100
AcDbCircle
 10
2.751582679440412
 20
2.962343973338366
 30
0.0
 40
0.0831958083605586
100
AcDbArc
 50
270.0
 51
90.0
  0
LINE
  5
49B
330
18
100
AcDbEntity
  8
TEXT
100
AcDbLine
 10
2.685982543196111
 20
3.081344503309554
 30
0.0
 11
2.852888197225081
 21
3.081344503309554
 31
0.0
  0
LINE
  5
49C
330
18
100
AcDbEntity
  8
TEXT
100
AcDbLine
 10
2.756523053346692
 20
2.947505171311248
 30
0.0
 11
2.598657753635357
 21
2.947505171311248
 31
0.0
  0
LINE
  5
49D
330
18
100
AcDbEntity
  8
TEXT
100
AcDbLine
 10
2.598657753635359
 20
2.879148164977809
 30
0.0
 11
2.751582679440412
 21
2.879148164977809
 31
0.0
  0
ARC
  5
49E
330
18
100
AcDbEntity
  8
TEXT
100
AcDbCircle
 10
2.680745213081863
 20
3.063533738519818
 30
0.0
 40
0.0820874594465043
100
AcDbArc
 50
90.0
 51
270.0
  0
LINE
  5
49F
330
18
100
AcDbEntity
  8
TEXT
100
AcDbLine
 10
2.598657753635357
 20
2.947505171311248
 30
0.0
 11
2.598657753635359
 21
2.879148164977809
 31
0.0
  0
LINE
  5
4A0
330
18
100
AcDbEntity
  8
TEXT
100
AcDbLine
 10
2.680745213081863
 20
2.981446279073312
 30
0.0
 11
2.756523053346692
 21
2.981446279073312
 31
0.0
  0
ARC
  5
4A1
330
18
100
AcDbEntity
  8
TEXT
100
AcDbCircle
 10
2.756523053346692
 20
2.964475725192282
 30
0.0
 40
0.0169705538810321
100
AcDbArc
 50
270.0
 51
90.0
  0
LINE
  5
4A2
330
18
100
AcDbEntity
  8
TEXT
100
AcDbLine
 10
2.751582679440412
 20
3.045539781698926
 30
0.0
 11
2.685982543196111
 21
3.045539781698926
 31
0.0
  0
ARC
  5
4A3
330
18
100
AcDbEntity
  8
TEXT
100
AcDbCircle
 10
2.685982543196111
 20
3.063442142504242
 30
0.0
 40
0.017902360805315
100
AcDbArc
 50
90.0
 51
270.0
  0
LINE
  5
4A4
330
18
100
AcDbEntity
  8
TEXT
100
AcDbLine
 10
3.046948858000226
 20
3.044749201853199
 30
0.0
 11
2.988318536968288
 21
3.14562119796632
 31
0.0
  0
LINE
  5
4A5
330
18
100
AcDbEntity
  8
TEXT
100
AcDbLine
 10
2.906774804705187
 20
2.879148164977809
 30
0.0
 11
3.003415055780181
 21
2.879418804076091
 31
0.0
  0
LWPOLYLINE
  5
4A6
330
18
100
AcDbEntity
  8
TEXT
100
AcDbPolyline
 90
        6
 70
     1
 43
0.0
 10
2.949298608280337
 20
3.081344503309554
 10
2.918982014060129
 20
3.081344503309554
 10
2.918982014060129
 20
2.95823350525466
 42
0.407328721240804
 10
2.930525665221605
 20
2.946414590578274
 10
2.991147364266336
 20
2.946414590578274
 10
3.008612704673654
 20
2.979226819621753
  0
LINE
  5
4A7
330
18
100
AcDbEntity
  8
TEXT
100
AcDbLine
 10
2.852888197225081
 20
3.081344503309554
 30
0.0
 11
2.852888197225081
 21
2.938940556315858
 31
0.0
  0
ARC
  5
4A8
330
18
100
AcDbEntity
  8
TEXT
100
AcDbCircle
 10
2.913004215198834
 20
2.938940556315858
 30
0.0
 40
0.0601160179737537
100
AcDbArc
 50
180.0000000000003
 51
264.0521544866073
  0
LINE
  5
4A9
330
18
100
AcDbEntity
  8
TEXT
100
AcDbLine
 10
2.916519570824381
 20
3.180009115560458
 30
0.0
 11
2.856476965980374
 21
3.180009115560458
 31
0.0
  0
LINE
  5
4AA
330
18
100
AcDbEntity
  8
TEXT
100
AcDbLine
 10
2.856476965980374
 20
3.180009115560458
 30
0.0
 11
2.856476965980374
 21
3.14562119796632
 31
0.0
  0
LINE
  5
4AB
330
18
100
AcDbEntity
  8
TEXT
100
AcDbLine
 10
2.916519570824381
 20
3.14562119796632
 30
0.0
 11
2.916519570824381
 21
3.180009115560458
 31
0.0
  0
LINE
  5
4AC
330
18
100
AcDbEntity
  8
TEXT
100
AcDbLine
 10
2.988318536968288
 20
3.14562119796632
 30
0.0
 11
2.916519570824381
 21
3.14562119796632
 31
0.0
  0
LINE
  5
4AD
330
18
100
AcDbEntity
  8
TEXT
100
AcDbLine
 10
3.037348621003272
 20
2.899106671082821
 30
0.0
 11
3.134648327096717
 21
3.06345688201809
 31
0.0
  0
LINE
  5
4AE
330
18
100
AcDbEntity
  8
TEXT
100
AcDbLine
 10
3.134648327096717
 20
3.06345688201809
 30
0.0
 11
3.134648327096717
 21
2.930699507192733
 31
0.0
  0
ARC
  5
4AF
330
18
100
AcDbEntity
  8
TEXT
100
AcDbCircle
 10
3.003305061091058
 20
2.918695887251504
 30
0.0
 40
0.0392772371940762
100
AcDbArc
 50
270.1604552698595
 51
330.0831797321295
  0
LINE
  5
4B0
330
18
100
AcDbEntity
  8
TEXT
100
AcDbLine
 10
3.105697420806092
 20
3.14562119796632
 30
0.0
 11
3.046948858000226
 21
3.044749201853199
 31
0.0
  0
LINE
  5
4B1
330
18
100
AcDbEntity
  8
TEXT
100
AcDbLine
 10
3.135819333599468
 20
3.21363267570513
 30
0.0
 11
3.135819333599468
 21
3.14562119796632
 31
0.0
  0
LINE
  5
4B2
330
18
100
AcDbEntity
  8
TEXT
100
AcDbLine
 10
3.135819333599468
 20
3.14562119796632
 30
0.0
 11
3.105697420806092
 21
3.14562119796632
 31
0.0
  0
LWPOLYLINE
  5
4B3
330
18
100
AcDbEntity
  8
TEXT
100
AcDbPolyline
 90
        4
 70
     0
 43
0.0
 10
3.487905455219626
 20
3.073790714143444
 10
3.487905455219626
 20
2.879148164977809
 10
3.556383738507484
 20
2.879148164977809
 10
3.556383738507484
 20
2.922639109928247
 42
-1.714843617202739
  0
LWPOLYLINE
  5
4B4
330
18
100
AcDbEntity
  8
TEXT
100
AcDbPolyline
 90
        2
 70
     0
 43
0.0
 10
3.523039805763836
 20
3.145621197966323
 42
-0.3277054968067132
 10
3.558821496477001
 20
3.117298652196679
 42
6.667889725900311
  0
LWPOLYLINE
  5
4B5
330
18
100
AcDbEntity
  8
TEXT
100
AcDbPolyline
 90
        2
 70
     0
 43
0.0
 10
3.351606233184609
 20
3.081344503309554
 42
-0.4142135623731017
 10
3.359160022350723
 20
3.073790714143444
 42
-0.9999999999999998
  0
LINE
  5
4B6
330
18
100
AcDbEntity
  8
TEXT
100
AcDbLine
 10
3.36895795623463
 20
3.14562119796632
 30
0.0
 11
3.234939900303493
 21
3.14562119796632
 31
0.0
  0
LINE
  5
4B7
330
18
100
AcDbEntity
  8
TEXT
100
AcDbLine
 10
3.301770953361462
 20
2.879148164977809
 30
0.0
 11
3.301770953361462
 21
3.081344503309554
 31
0.0
  0
LINE
  5
4B8
330
18
100
AcDbEntity
  8
TEXT
100
AcDbLine
 10
3.234939900303493
 20
3.14562119796632
 30
0.0
 11
3.234939900303493
 21
2.944756991233911
 31
0.0
  0
LINE
  5
4B9
330
18
100
AcDbEntity
  8
TEXT
100
AcDbLine
 10
3.202628046165833
 20
2.961536003080808
 30
0.0
 11
3.202628046165833
 21
3.21363267570513
 31
0.0
  0
LINE
  5
4BA
330
18
100
AcDbEntity
  8
TEXT
100
AcDbLine
 10
3.203767619662028
 20
2.879148164977809
 30
0.0
 11
3.301770953361462
 21
2.879148164977809
 31
0.0
  0
LINE
  5
4BB
330
18
100
AcDbEntity
  8
TEXT
100
AcDbLine
 10
3.234939900303493
 20
2.944756991233911
 30
0.0
 11
3.217946263418892
 21
2.944756991233911
 31
0.0
  0
ARC
  5
4BC
330
18
100
AcDbEntity
  8
TEXT
100
AcDbCircle
 10
3.217946263418891
 20
2.960138797477337
 30
0.0
 40
0.0153818062434269
100
AcDbArc
 50
174.7883570302258
 51
270.0
  0
LINE
  5
4BD
330
18
100
AcDbEntity
  8
TEXT
100
AcDbLine
 10
3.301770953361462
 20
3.081344503309554
 30
0.0
 11
3.35160623318461
 21
3.081344503309554
 31
0.0
  0
LINE
  5
4BE
330
18
100
AcDbEntity
  8
TEXT
100
AcDbLine
 10
3.359160022350724
 20
3.073790714143444
 30
0.0
 11
3.359160022350724
 21
2.879148164977809
 31
0.0
  0
LINE
  5
4BF
330
18
100
AcDbEntity
  8
TEXT
100
AcDbLine
 10
3.426218069132564
 20
2.879148164977809
 30
0.0
 11
3.426218069132564
 21
3.081344503309554
 31
0.0
  0
LINE
  5
4C0
330
18
100
AcDbEntity
  8
TEXT
100
AcDbLine
 10
3.359160022350724
 20
2.879148164977809
 30
0.0
 11
3.426218069132564
 21
2.879148164977809
 31
0.0
  0
LWPOLYLINE
  5
4C1
330
18
100
AcDbEntity
  8
TEXT
100
AcDbPolyline
 90
        3
 70
     0
 43
0.0
 10
3.523039805763836
 20
3.145621197966323
 10
3.404739646947792
 20
3.145621197966323
 10
3.404739646947792
 20
3.118453701205427
 42
-1.960274751411753
  0
LINE
  5
4C2
330
18
100
AcDbEntity
  8
TEXT
100
AcDbLine
 10
3.426218069132564
 20
3.081344503309554
 30
0.0
 11
3.480351666053514
 21
3.081344503309554
 31
0.0
  0
LWPOLYLINE
  5
4C3
330
18
100
AcDbEntity
  8
TEXT
100
AcDbPolyline
 90
        2
 70
     0
 43
0.0
 10
3.368957956234631
 20
3.145621197966323
 42
-0.3328679258950098
 10
3.404739646947792
 20
3.118453701205427
 42
6.772930709997214
  0
LWPOLYLINE
  5
4C4
330
18
100
AcDbEntity
  8
TEXT
100
AcDbPolyline
 90
        2
 70
     0
 43
0.0
 10
3.480351666053513
 20
3.081344503309554
 42
-0.4142135623731017
 10
3.487905455219626
 20
3.073790714143444
 42
-0.9999999999999998
  0
ARC
  5
4C5
330
18
100
AcDbEntity
  8
TEXT
100
AcDbCircle
 10
3.691626465916993
 20
3.104037630845417
 30
0.0
 40
0.0416329381542859
100
AcDbArc
 50
26.56974201007528
 51
87.20939649401342
  0
LWPOLYLINE
  5
4C6
330
18
100
AcDbEntity
  8
TEXT
100
AcDbPolyline
 90
        2
 70
     0
 43
0.0
 10
3.59945967137512
 20
2.879148164977809
 10
3.733477089006496
 20
2.879148164977809
 42
0.9999999999999998
  0
LWPOLYLINE
  5
4C7
330
18
100
AcDbEntity
  8
TEXT
100
AcDbPolyline
 90
        4
 70
     1
 43
0.0
 10
3.713354623936604
 20
2.982112142961834
 10
3.624694305276745
 20
2.982112142961834
 42
0.9999999999999998
 10
3.624694305276745
 20
2.939713602457973
 10
3.713354623936604
 20
2.939713602457973
 42
1.0
  0
LWPOLYLINE
  5
4C8
330
18
100
AcDbEntity
  8
TEXT
100
AcDbPolyline
 90
        2
 70
     0
 43
0.0
 10
3.556383738507484
 20
2.922639109928247
 42
0.2901071551932823
 10
3.59945967137512
 20
2.879148164977809
 42
5.328517124445801
  0
LINE
  5
4C9
330
18
100
AcDbEntity
  8
TEXT
100
AcDbLine
 10
3.693653405694061
 20
3.14562119796632
 30
0.0
 11
3.558821496477002
 21
3.14562119796632
 31
0.0
  0
LINE
  5
4CA
330
18
100
AcDbEntity
  8
TEXT
100
AcDbLine
 10
3.618135592870321
 20
3.044069529847422
 30
0.0
 11
3.700423582653704
 21
3.044069529847422
 31
0.0
  0
LINE
  5
4CB
330
18
100
AcDbEntity
  8
TEXT
100
AcDbLine
 10
3.664622507349583
 20
3.081344503309554
 30
0.0
 11
3.557416233962293
 21
3.081344503309554
 31
0.0
  0
LINE
  5
4CC
330
18
100
AcDbEntity
  8
TEXT
100
AcDbLine
 10
3.558821496477002
 20
3.14562119796632
 30
0.0
 11
3.558821496477002
 21
3.117298652196676
 31
0.0
  0
ARC
  5
4CD
330
18
100
AcDbEntity
  8
TEXT
100
AcDbCircle
 10
3.61813559287032
 20
2.976383948703303
 30
0.0
 40
0.0676855811441166
100
AcDbArc
 50
90.0
 51
153.7768192527749
  0
LINE
  5
4CE
330
18
100
AcDbEntity
  8
TEXT
100
AcDbLine
 10
3.557416233962293
 20
3.081344503309554
 30
0.0
 11
3.557416233962293
 21
3.006292097235347
 31
0.0
  0
LINE
  5
4CF
330
18
100
AcDbEntity
  8
TEXT
100
AcDbLine
 10
3.700423582653704
 20
3.044069529847422
 30
0.0
 11
3.69015882224014
 21
3.065320069420116
 31
0.0
  0
ARC
  5
4D0
330
18
100
AcDbEntity
  8
TEXT
100
AcDbCircle
 10
3.664622507349582
 20
3.052985128309557
 30
0.0
 40
0.028359375
100
AcDbArc
 50
25.78218179591245
 51
90.0
  0
LINE
  5
4D1
330
18
100
AcDbEntity
  8
TEXT
100
AcDbLine
 10
3.834908235709476
 20
2.879148164977809
 30
0.0
 11
3.834908235709471
 21
3.056438670409277
 31
0.0
  0
LWPOLYLINE
  5
4D2
330
18
100
AcDbEntity
  8
TEXT
100
AcDbPolyline
 90
        2
 70
     0
 43
0.0
 10
3.776553021874141
 20
2.879148164977809
 10
3.834908235709475
 20
2.879148164977809
  0
LWPOLYLINE
  5
4D3
330
18
100
AcDbEntity
  8
TEXT
100
AcDbPolyline
 90
        2
 70
     0
 43
0.0
 10
3.776553021874141
 20
2.922639109928247
 42
-0.2901071551932486
 10
3.733477089006496
 20
2.879148164977809
 42
-5.328517124445184
  0
LWPOLYLINE
  5
4D4
330
18
100
AcDbEntity
  8
TEXT
100
AcDbPolyline
 90
        2
 70
     0
 43
0.0
 10
3.776553021874141
 20
2.922639109928247
 10
3.776553021874141
 20
2.879148164977809
  0
LINE
  5
4D5
330
18
100
AcDbEntity
  8
TEXT
100
AcDbLine
 10
3.836510250868603
 20
3.14562119796632
 30
0.0
 11
3.772613344569102
 21
3.14562119796632
 31
0.0
  0
LINE
  5
4D6
330
18
100
AcDbEntity
  8
TEXT
100
AcDbLine
 10
3.772613344569102
 20
3.14562119796632
 30
0.0
 11
3.772613344569102
 21
3.040409219412892
 31
0.0
  0
LINE
  5
4D7
330
18
100
AcDbEntity
  8
TEXT
100
AcDbLine
 10
3.772613344569102
 20
3.040409219412892
 30
0.0
 11
3.728862573387201
 21
3.122659495409037
 31
0.0
  0
ARC
  5
4D8
330
18
100
AcDbEntity
  8
TEXT
100
AcDbCircle
 10
3.859814110992134
 20
3.056438628026891
 30
0.0
 40
0.0249058752826653
100
AcDbArc
 50
89.99971217465335
 51
179.9999999999985
  0
ARC
  5
4D9
330
18
100
AcDbEntity
  8
TEXT
100
AcDbCircle
 10
3.867703067931712
 20
3.114375470684055
 30
0.0
 40
0.0314112657011332
100
AcDbArc
 50
95.88484768694724
 51
173.2388340632136
  0
LINE
  5
4DA
330
18
100
AcDbEntity
  8
TEXT
100
AcDbLine
 10
3.836510250868603
 20
3.118073548105445
 30
0.0
 11
3.836510250868603
 21
3.14562119796632
 31
0.0
  0
TEXT
  5
4DB
330
18
100
AcDbEntity
  8
TEXT
100
AcDbText
 10
4.305385770290394
 20
2.972033973623305
 30
0.0
 40
0.0522247191011236
  1
Minneapolis, MN 55432-0008
 41
1.11444212721585
 72
     5
 11
5.634318354560058
 21
2.972033973623305
 31
0.0
100
AcDbText
  0
TEXT
  5
4DC
330
18
100
AcDbEntity
  8
TEXT
100
AcDbText
 10
4.305385770290394
 20
3.065292400589597
 30
0.0
 40
0.0522247191011236
  1
6536 Main St. N.E. * P.O. Box 32008
 41
0.8388932496075369
 72
     5
 11
5.634318354560058
 21
3.065292400589597
 31
0.0
100
AcDbText
  0
TEXT
  5
4DD
330
18
100
AcDbEntity
  8
TEXT
100
AcDbText
 10
4.305385770290394
 20
3.158550827555889
 30
0.0
 40
0.0522247191011236
  1
Stylmark  Incorporated
 41
1.221428571428571
 72
     5
 11
5.634318354560058
 21
3.158550827555889
 31
0.0
100
AcDbText
  0
TEXT
  5
4DE
330
18
100
AcDbEntity
  8
TEXT
100
AcDbText
 10
4.305385770290394
 20
2.878775546657013
 30
0.0
 40
0.0522247191011236
  1
Phone  1-800-328-2495
 41
1.272321428571429
 72
     5
 11
5.634318354560058
 21
2.878775546657013
 31
0.0
100
AcDbText
  0
LINE
  5
4DF
330
18
100
AcDbEntity
  8
TEXT
100
AcDbLine
 10
4.057829958827379
 20
3.035727955025346
 30
0.0
 11
4.122387074793084
 21
3.14562119796632
 31
0.0
  0
LINE
  5
4E0
330
18
100
AcDbEntity
  8
TEXT
100
AcDbLine
 10
4.122387074793084
 20
3.14562119796632
 30
0.0
 11
4.047395242063458
 21
3.14562119796632
 31
0.0
  0
LINE
  5
4E1
330
18
100
AcDbEntity
  8
TEXT
100
AcDbLine
 10
4.076743809814783
 20
2.879148164977809
 30
0.0
 11
4.153322182190989
 21
2.879148164977809
 31
0.0
  0
LINE
  5
4E2
330
18
100
AcDbEntity
  8
TEXT
100
AcDbLine
 10
4.153322182190989
 20
2.879148164977809
 30
0.0
 11
4.057829958827379
 21
3.035727955025346
 31
0.0
  0
LINE
  5
4E3
330
18
100
AcDbEntity
  8
TEXT
100
AcDbLine
 10
4.000840276603319
 20
2.879148164977809
 30
0.0
 11
4.000840276603319
 21
3.010727733453989
 31
0.0
  0
LINE
  5
4E4
330
18
100
AcDbEntity
  8
TEXT
100
AcDbLine
 10
4.000840276603319
 20
3.010727733453989
 30
0.0
 11
4.076743809814783
 21
2.879148164977809
 31
0.0
  0
LINE
  5
4E5
330
18
100
AcDbEntity
  8
TEXT
100
AcDbLine
 10
3.936462092284693
 20
3.081344503309554
 30
0.0
 11
3.936462092284698
 21
2.879148164977809
 31
0.0
  0
LINE
  5
4E6
330
18
100
AcDbEntity
  8
TEXT
100
AcDbLine
 10
3.936462092284698
 20
2.879148164977809
 30
0.0
 11
4.000840276603319
 21
2.879148164977809
 31
0.0
  0
LINE
  5
4E7
330
18
100
AcDbEntity
  8
TEXT
100
AcDbLine
 10
4.000297083507471
 20
3.21108540373392
 30
0.0
 11
3.931982204958198
 21
3.21108540373392
 31
0.0
  0
LINE
  5
4E8
330
18
100
AcDbEntity
  8
TEXT
100
AcDbLine
 10
3.931982204958198
 20
3.21108540373392
 30
0.0
 11
3.931982204958193
 21
3.14562119796632
 31
0.0
  0
LINE
  5
4E9
330
18
100
AcDbEntity
  8
TEXT
100
AcDbLine
 10
4.047395242063456
 20
3.14562119796632
 30
0.0
 11
4.000297083507471
 21
3.069755871554781
 31
0.0
  0
LINE
  5
4EA
330
18
100
AcDbEntity
  8
TEXT
100
AcDbLine
 10
4.000297083507471
 20
3.069755871554781
 30
0.0
 11
4.000297083507471
 21
3.21108540373392
 31
0.0
  0
ENDSEC
  0
SECTION
  2
OBJECTS
  0
DICTIONARY
  5
C
330
0
100
AcDbDictionary
  3
ACAD_GROUP
350
D
  3
ACAD_LAYOUT
350
4EF
  3
ACAD_MLINESTYLE
350
E
  3
ACAD_PLOTSETTINGS
350
4F0
  3
ACAD_PLOTSTYLENAME
350
4ED
  3
ACDBHEADERROUNDTRIPXREC
350
4FB
  3
ACDBVARIABLEDICTIONARY
350
4F8
  0
DICTIONARY
  5
51D
330
18
100
AcDbDictionary
280
     1
  3
ACAD_LAYOUTSELFREF
360
51E
  0
DICTIONARY
  5
51B
330
15
100
AcDbDictionary
280
     1
  3
ACAD_LAYOUTSELFREF
360
51C
  0
DICTIONARY
  5
D
102
{ACAD_REACTORS
330
C
102
}
330
C
100
AcDbDictionary
  0
DICTIONARY
  5
4EF
102
{ACAD_REACTORS
330
C
102
}
330
C
100
AcDbDictionary
  0
DICTIONARY
  5
E
102
{ACAD_REACTORS
330
C
102
}
330
C
100
AcDbDictionary
  3
STANDARD
350
1B
  0
DICTIONARY
  5
4F0
102
{ACAD_REACTORS
330
C
102
}
330
C
100
AcDbDictionary
  0
ACDBDICTIONARYWDFLT
  5
4ED
102
{ACAD_REACTORS
330
C
102
}
330
C
100
AcDbDictionary
281
     1
  3
Normal
350
4EE
100
AcDbDictionaryWithDefault
340
4EE
  0
DICTIONARY
  5
4FB
102
{ACAD_REACTORS
330
C
102
}
330
C
100
AcDbDictionary
  3
CEPSNTYPE
350
505
  3
FINGERPRINTGUID
350
506
  3
HYPERLINKBASE
350
4FE
  3
INSUNITS
350
504
  3
LAYOUTDICT
350
500
  3
LWETCUNION
350
503
  3
PLOTSETDICT
350
501
  3
PLOTSTYLNAMDICT
350
502
  3
PSVPSCALE
350
508
  3
PUCSBASE
350
50B
  3
PUCSORGBACK
350
511
  3
PUCSORGBOTTOM
350
50D
  3
PUCSORGFRONT
350
510
  3
PUCSORGLEFT
350
50E
  3
PUCSORGRIGHT
350
50F
  3
PUCSORGTOP
350
50C
  3
PUCSORTHOREF
350
509
  3
PUCSORTHOVIEW
350
50A
  3
STYLESHEET
350
4FF
  3
TSTACKALIGN
350
4FC
  3
TSTACKSIZE
350
4FD
  3
UCSBASE
350
514
  3
UCSORGBACK
350
51A
  3
UCSORGBOTTOM
350
516
  3
UCSORGFRONT
350
519
  3
UCSORGLEFT
350
517
  3
UCSORGRIGHT
350
518
  3
UCSORGTOP
350
515
  3
UCSORTHOREF
350
512
  3
UCSORTHOVIEW
350
513
  3
VERSIONGUID
350
507
  0
DICTIONARY
  5
4F8
102
{ACAD_REACTORS
330
C
102
}
330
C
100
AcDbDictionary
  3
DIMASSOC
350
4F9
  0
XRECORD
  5
51E
102
{ACAD_REACTORS
330
51D
102
}
330
51D
100
AcDbXrecord
340
18
  0
XRECORD
  5
51C
102
{ACAD_REACTORS
330
51B
102
}
330
51B
100
AcDbXrecord
340
15
  0
MLINESTYLE
  5
1B
102
{ACAD_REACTORS
330
E
102
}
330
E
100
AcDbMlineStyle
  2
STANDARD
 70
     0
  3

 62
     0
 51
90.0
 52
90.0
 71
     2
 49
0.5
 62
   256
  6
BYLAYER
 49
-0.5
 62
   256
  6
BYLAYER
  0
ACDBPLACEHOLDER
  5
4EE
102
{ACAD_REACTORS
330
4ED
102
}
330
4ED
100
AcDbPlaceHolder
280
     0
  0
XRECORD
  5
505
102
{ACAD_REACTORS
330
4FB
102
}
330
4FB
100
AcDbXrecord
 90
        0
  0
XRECORD
  5
506
102
{ACAD_REACTORS
330
4FB
102
}
330
4FB
100
AcDbXrecord
  1
{CFD3D140-8DB5-11D6-88E6-0090279574E7}
  0
XRECORD
  5
4FE
102
{ACAD_REACTORS
330
4FB
102
}
330
4FB
100
AcDbXrecord
  1

  0
XRECORD
  5
504
102
{ACAD_REACTORS
330
4FB
102
}
330
4FB
100
AcDbXrecord
 90
        0
  0
XRECORD
  5
500
102
{ACAD_REACTORS
330
4FB
102
}
330
4FB
100
AcDbXrecord
340
4EF
  0
XRECORD
  5
503
102
{ACAD_REACTORS
330
4FB
102
}
330
4FB
100
AcDbXrecord
 90
    14877
  0
XRECORD
  5
501
102
{ACAD_REACTORS
330
4FB
102
}
330
4FB
100
AcDbXrecord
340
4F0
  0
XRECORD
  5
502
102
{ACAD_REACTORS
330
4FB
102
}
330
4FB
100
AcDbXrecord
340
4ED
  0
XRECORD
  5
508
102
{ACAD_REACTORS
330
4FB
102
}
330
4FB
100
AcDbXrecord
 40
0.0
  0
XRECORD
  5
50B
102
{ACAD_REACTORS
330
4FB
102
}
330
4FB
100
AcDbXrecord
340
0
  0
XRECORD
  5
511
102
{ACAD_REACTORS
330
4FB
102
}
330
4FB
100
AcDbXrecord
 10
0.0
 20
0.0
 30
0.0
  0
XRECORD
  5
50D
102
{ACAD_REACTORS
330
4FB
102
}
330
4FB
100
AcDbXrecord
 10
0.0
 20
0.0
 30
0.0
  0
XRECORD
  5
510
102
{ACAD_REACTORS
330
4FB
102
}
330
4FB
100
AcDbXrecord
 10
0.0
 20
0.0
 30
0.0
  0
XRECORD
  5
50E
102
{ACAD_REACTORS
330
4FB
102
}
330
4FB
100
AcDbXrecord
 10
0.0
 20
0.0
 30
0.0
  0
XRECORD
  5
50F
102
{ACAD_REACTORS
330
4FB
102
}
330
4FB
100
AcDbXrecord
 10
0.0
 20
0.0
 30
0.0
  0
XRECORD
  5
50C
102
{ACAD_REACTORS
330
4FB
102
}
330
4FB
100
AcDbXrecord
 10
0.0
 20
0.0
 30
0.0
  0
XRECORD
  5
509
102
{ACAD_REACTORS
330
4FB
102
}
330
4FB
100
AcDbXrecord
340
0
  0
XRECORD
  5
50A
102
{ACAD_REACTORS
330
4FB
102
}
330
4FB
100
AcDbXrecord
 70
     0
  0
XRECORD
  5
4FF
102
{ACAD_REACTORS
330
4FB
102
}
330
4FB
100
AcDbXrecord
  1

  0
XRECORD
  5
4FC
102
{ACAD_REACTORS
330
4FB
102
}
330
4FB
100
AcDbXrecord
 90
        1
  0
XRECORD
  5
4FD
102
{ACAD_REACTORS
330
4FB
102
}
330
4FB
100
AcDbXrecord
 90
       70
  0
XRECORD
  5
514
102
{ACAD_REACTORS
330
4FB
102
}
330
4FB
100
AcDbXrecord
340
0
  0
XRECORD
  5
51A
102
{ACAD_REACTORS
330
4FB
102
}
330
4FB
100
AcDbXrecord
 10
0.0
 20
0.0
 30
0.0
  0
XRECORD
  5
516
102
{ACAD_REACTORS
330
4FB
102
}
330
4FB
100
AcDbXrecord
 10
0.0
 20
0.0
 30
0.0
  0
XRECORD
  5
519
102
{ACAD_REACTORS
330
4FB
102
}
330
4FB
100
AcDbXrecord
 10
0.0
 20
0.0
 30
0.0
  0
XRECORD
  5
517
102
{ACAD_REACTORS
330
4FB
102
}
330
4FB
100
AcDbXrecord
 10
0.0
 20
0.0
 30
0.0
  0
XRECORD
  5
518
102
{ACAD_REACTORS
330
4FB
102
}
330
4FB
100
AcDbXrecord
 10
0.0
 20
0.0
 30
0.0
  0
XRECORD
  5
515
102
{ACAD_REACTORS
330
4FB
102
}
330
4FB
100
AcDbXrecord
 10
0.0
 20
0.0
 30
0.0
  0
XRECORD
  5
512
102
{ACAD_REACTORS
330
4FB
102
}
330
4FB
100
AcDbXrecord
340
0
  0
XRECORD
  5
513
102
{ACAD_REACTORS
330
4FB
102
}
330
4FB
100
AcDbXrecord
 70
     0
  0
XRECORD
  5
507
102
{ACAD_REACTORS
330
4FB
102
}
330
4FB
100
AcDbXrecord
  1
{CFD3D142-8DB5-11D6-88E6-0090279574E7}
  0
DICTIONARYVAR
  5
4F9
102
{ACAD_REACTORS
330
4F8
102
}
330
4F8
100
DictionaryVariables
280
     0
  1
1
  0
ENDSEC
  0
EOF
