  0
SECTION
  2
HEADER
  9
$ACADVER
  1
AC1014
  9
$ACADMAINTVER
 70
     9
  9
$DWGCODEPAGE
  3
ANSI_1252
  9
$INSBASE
 10
5.968546942251617
 20
6.497101927636902
 30
0.0
  9
$EXTMIN
 10
2.983231713237687
 20
5.209898139695603
 30
0.0
  9
$EXTMAX
 10
8.983231713237687
 20
6.795164841512386
 30
0.0
  9
$LIMMIN
 10
0.0
 20
0.0
  9
$LIMMAX
 10
18.0
 20
12.0
  9
$ORTHOMODE
 70
     1
  9
$REGENMODE
 70
     1
  9
$FILLMODE
 70
     1
  9
$QTEXTMODE
 70
     0
  9
$MIRRTEXT
 70
     0
  9
$DRAGMODE
 70
     2
  9
$LTSCALE
 40
1.0
  9
$OSMODE
 70
    39
  9
$ATTMODE
 70
     1
  9
$TEXTSIZE
 40
0.125
  9
$TRACEWID
 40
0.05
  9
$TEXTSTYLE
  7
ROMANS
  9
$CLAYER
  8
0
  9
$CELTYPE
  6
BYLAYER
  9
$CECOLOR
 62
   256
  9
$CELTSCALE
 40
1.0
  9
$DELOBJ
 70
     1
  9
$DISPSILH
 70
     1
  9
$DIMSCALE
 40
1.0
  9
$DIMASZ
 40
0.125
  9
$DIMEXO
 40
0.125
  9
$DIMDLI
 40
0.375
  9
$DIMRND
 40
0.0
  9
$DIMDLE
 40
0.0
  9
$DIMEXE
 40
0.125
  9
$DIMTP
 40
0.0
  9
$DIMTM
 40
0.0
  9
$DIMTXT
 40
0.125
  9
$DIMCEN
 40
-0.125
  9
$DIMTSZ
 40
0.0
  9
$DIMTOL
 70
     0
  9
$DIMLIM
 70
     0
  9
$DIMTIH
 70
     1
  9
$DIMTOH
 70
     1
  9
$DIMSE1
 70
     0
  9
$DIMSE2
 70
     0
  9
$DIMTAD
 70
     0
  9
$DIMZIN
 70
     4
  9
$DIMBLK
  1

  9
$DIMASO
 70
     1
  9
$DIMSHO
 70
     1
  9
$DIMPOST
  1

  9
$DIMAPOST
  1

  9
$DIMALT
 70
     0
  9
$DIMALTD
 70
     2
  9
$DIMALTF
 40
25.4
  9
$DIMLFAC
 40
1.0
  9
$DIMTOFL
 70
     0
  9
$DIMTVP
 40
0.0
  9
$DIMTIX
 70
     1
  9
$DIMSOXD
 70
     0
  9
$DIMSAH
 70
     0
  9
$DIMBLK1
  1

  9
$DIMBLK2
  1

  9
$DIMSTYLE
  2
STANDARD
  9
$DIMCLRD
 70
     0
  9
$DIMCLRE
 70
     0
  9
$DIMCLRT
 70
     0
  9
$DIMTFAC
 40
1.0
  9
$DIMGAP
 40
0.09
  9
$DIMJUST
 70
     0
  9
$DIMSD1
 70
     0
  9
$DIMSD2
 70
     0
  9
$DIMTOLJ
 70
     1
  9
$DIMTZIN
 70
     4
  9
$DIMALTZ
 70
     0
  9
$DIMALTTZ
 70
     0
  9
$DIMFIT
 70
     3
  9
$DIMUPT
 70
     0
  9
$DIMUNIT
 70
     2
  9
$DIMDEC
 70
     3
  9
$DIMTDEC
 70
     3
  9
$DIMALTU
 70
     2
  9
$DIMALTTD
 70
     2
  9
$DIMTXSTY
  7
ROMANS
  9
$DIMAUNIT
 70
     0
  9
$LUNITS
 70
     2
  9
$LUPREC
 70
     3
  9
$SKETCHINC
 40
0.1
  9
$FILLETRAD
 40
0.03125
  9
$AUNITS
 70
     0
  9
$AUPREC
 70
     0
  9
$MENU
  1
ACAD
  9
$ELEVATION
 40
0.0
  9
$PELEVATION
 40
0.0
  9
$THICKNESS
 40
0.0
  9
$LIMCHECK
 70
     0
  9
$BLIPMODE
 70
     0
  9
$CHAMFERA
 40
0.0
  9
$CHAMFERB
 40
0.0
  9
$CHAMFERC
 40
0.0
  9
$CHAMFERD
 40
0.0
  9
$SKPOLY
 70
     0
  9
$TDCREATE
 40
2448994.533240625
  9
$TDUPDATE
 40
2452458.304333529
  9
$TDINDWG
 40
0.0011037731
  9
$TDUSRTIMER
 40
0.0011037731
  9
$USRTIMER
 70
     1
  9
$ANGBASE
 50
0.0
  9
$ANGDIR
 70
     0
  9
$PDMODE
 70
     0
  9
$PDSIZE
 40
0.0
  9
$PLINEWID
 40
0.0
  9
$COORDS
 70
     2
  9
$SPLFRAME
 70
     0
  9
$SPLINETYPE
 70
     6
  9
$SPLINESEGS
 70
     8
  9
$ATTDIA
 70
     0
  9
$ATTREQ
 70
     1
  9
$HANDLING
 70
 22529
  9
$HANDSEED
  5
7DE1B343D9E1037
  9
$SURFTAB1
 70
     6
  9
$SURFTAB2
 70
     6
  9
$SURFTYPE
 70
     6
  9
$SURFU
 70
     6
  9
$SURFV
 70
     6
  9
$UCSNAME
  2

  9
$UCSORG
 10
0.0
 20
0.0
 30
0.0
  9
$UCSXDIR
 10
1.0
 20
0.0
 30
0.0
  9
$UCSYDIR
 10
0.0
 20
1.0
 30
0.0
  9
$PUCSNAME
  2

  9
$PUCSORG
 10
0.0
 20
0.0
 30
0.0
  9
$PUCSXDIR
 10
1.0
 20
0.0
 30
0.0
  9
$PUCSYDIR
 10
0.0
 20
1.0
 30
0.0
  9
$USERI1
 70
     0
  9
$USERI2
 70
     0
  9
$USERI3
 70
     0
  9
$USERI4
 70
     0
  9
$USERI5
 70
     0
  9
$USERR1
 40
0.0
  9
$USERR2
 40
0.0
  9
$USERR3
 40
0.0
  9
$USERR4
 40
0.0
  9
$USERR5
 40
0.0
  9
$WORLDVIEW
 70
     1
  9
$SHADEDGE
 70
     3
  9
$SHADEDIF
 70
    70
  9
$TILEMODE
 70
     1
  9
$MAXACTVP
 70
    16
  9
$PINSBASE
 10
0.0
 20
0.0
 30
0.0
  9
$PLIMCHECK
 70
     0
  9
$PEXTMIN
 10
1.000000000000000E+20
 20
1.000000000000000E+20
 30
1.000000000000000E+20
  9
$PEXTMAX
 10
-1.000000000000000E+20
 20
-1.000000000000000E+20
 30
-1.000000000000000E+20
  9
$PLIMMIN
 10
0.0
 20
0.0
  9
$PLIMMAX
 10
12.0
 20
9.0
  9
$UNITMODE
 70
     0
  9
$VISRETAIN
 70
     0
  9
$PLINEGEN
 70
     1
  9
$PSLTSCALE
 70
     0
  9
$TREEDEPTH
 70
  3020
  9
$PICKSTYLE
 70
     1
  9
$CMLSTYLE
  2
STANDARD
  9
$CMLJUST
 70
     0
  9
$CMLSCALE
 40
1.0
  9
$PROXYGRAPHICS
 70
     1
  9
$MEASUREMENT
 70
     0
  0
ENDSEC
  0
SECTION
  2
CLASSES
  0
CLASS
  1
LWPOLYLINE
  2
AcDbPolyline
  3
AutoCAD 2000
 90
        0
280
     0
281
     1
  0
CLASS
  1
ACDBDICTIONARYWDFLT
  2
AcDbDictionaryWithDefault
  3
AutoCAD 2000
 90
        0
280
     0
281
     0
  0
CLASS
  1
ACDBPLACEHOLDER
  2
AcDbPlaceHolder
  3
AutoCAD 2000
 90
        0
280
     0
281
     0
  0
CLASS
  1
LAYOUT
  2
AcDbLayout
  3
AutoCAD 2000
 90
        0
280
     0
281
     0
  0
CLASS
  1
DICTIONARYVAR
  2
AcDbDictionaryVar
  3
AutoCAD 2000
 90
        0
280
     0
281
     0
  0
CLASS
  1
LONG_TRANSACTION
  2
AcDbLongTransaction
  3
AutoCAD 2000
 90
        0
280
     0
281
     0
  0
CLASS
  1
LWPOLYLINE
  2
AcDbPolyline
  3
AutoCAD 2000
 90
        0
280
     0
281
     1
  0
CLASS
  1
HATCH
  2
AcDbHatch
  3
AutoCAD 2000
 90
        0
280
     0
281
     1
  0
CLASS
  1
XRECORD
  2
AcDbXrecord
  3
AutoCAD 2000
 90
        0
280
     0
281
     0
  0
ENDSEC
  0
SECTION
  2
TABLES
  0
TABLE
  2
VPORT
  5
7DE1B343D9E0FC3
330
0
100
AcDbSymbolTable
 70
     2
  0
VPORT
  5
7DE1B343D9E1012
330
7DE1B343D9E0FC3
100
AcDbSymbolTableRecord
100
AcDbViewportTableRecord
  2
*ACTIVE
 70
     0
 10
0.0
 20
0.0
 11
1.0
 21
1.0
 12
11.10560106968418
 22
6.002288846301716
 13
0.0
 23
0.0
 14
0.015625
 24
0.015625
 15
0.0
 25
0.0
 16
0.0
 26
0.0
 36
1.0
 17
0.0
 27
0.0
 37
0.0
 40
3.928778399104628
 41
4.320930232558139
 42
50.0
 43
0.0
 44
0.0
 50
0.0
 51
0.0
 71
     0
 72
  2000
 73
     1
 74
     0
 75
     0
 76
     0
 77
     0
 78
     0
  0
ENDTAB
  0
TABLE
  2
LTYPE
  5
7DE1B343D9E0FC0
330
0
100
AcDbSymbolTable
 70
     1
  0
LTYPE
  5
7DE1B343D9E0FCD
330
7DE1B343D9E0FC0
100
AcDbSymbolTableRecord
100
AcDbLinetypeTableRecord
  2
BYBLOCK
 70
     0
  3

 72
    65
 73
     0
 40
0.0
  0
LTYPE
  5
7DE1B343D9E0FCE
330
7DE1B343D9E0FC0
100
AcDbSymbolTableRecord
100
AcDbLinetypeTableRecord
  2
BYLAYER
 70
     0
  3

 72
    65
 73
     0
 40
0.0
  0
LTYPE
  5
7DE1B343D9E0FCF
330
7DE1B343D9E0FC0
100
AcDbSymbolTableRecord
100
AcDbLinetypeTableRecord
  2
CONTINUOUS
 70
     0
  3
Solid line
 72
    65
 73
     0
 40
0.0
  0
ENDTAB
  0
TABLE
  2
LAYER
  5
7DE1B343D9E0FBD
330
0
100
AcDbSymbolTable
 70
     3
  0
LAYER
  5
7DE1B343D9E0FCA
330
7DE1B343D9E0FBD
100
AcDbSymbolTableRecord
100
AcDbLayerTableRecord
  2
0
 70
     0
 62
     7
  6
CONTINUOUS
  0
LAYER
  5
7DE1B343D9E0FDA
330
7DE1B343D9E0FBD
100
AcDbSymbolTableRecord
100
AcDbLayerTableRecord
  2
TEXT
 70
     0
 62
     3
  6
CONTINUOUS
  0
LAYER
  5
7DE1B343D9E0FEA
330
7DE1B343D9E0FBD
100
AcDbSymbolTableRecord
100
AcDbLayerTableRecord
  2
ASHADE
 70
     4
 62
     7
  6
CONTINUOUS
  0
ENDTAB
  0
TABLE
  2
STYLE
  5
7DE1B343D9E0FBE
330
0
100
AcDbSymbolTable
 70
     4
  0
STYLE
  5
7DE1B343D9E0FCB
330
7DE1B343D9E0FBE
100
AcDbSymbolTableRecord
100
AcDbTextStyleTableRecord
  2
STANDARD
 70
     0
 40
0.0
 41
1.0
 50
0.0
 71
     0
 42
0.3125
  3
txt
  4

  0
STYLE
  5
7DE1B343D9E0FD7
330
7DE1B343D9E0FBE
100
AcDbSymbolTableRecord
100
AcDbTextStyleTableRecord
  2
ITALICC
 70
     0
 40
0.0
 41
1.0
 50
0.0
 71
     0
 42
0.125
  3
italicc
  4

  0
STYLE
  5
7DE1B343D9E0FE7
330
7DE1B343D9E0FBE
100
AcDbSymbolTableRecord
100
AcDbTextStyleTableRecord
  2
ASHADE
 70
     0
 40
0.2
 41
1.0
 50
0.0
 71
     0
 42
0.3125
  3
simplex
  4

  0
STYLE
  5
7DE1B343D9E1002
330
7DE1B343D9E0FBE
100
AcDbSymbolTableRecord
100
AcDbTextStyleTableRecord
  2
ROMANS
 70
     0
 40
0.0
 41
1.0
 50
0.0
 71
     0
 42
0.125
  3
romans.shx
  4

  0
ENDTAB
  0
TABLE
  2
VIEW
  5
7DE1B343D9E0FC1
330
0
100
AcDbSymbolTable
 70
     0
  0
ENDTAB
  0
TABLE
  2
UCS
  5
7DE1B343D9E0FC2
330
0
100
AcDbSymbolTable
 70
     0
  0
ENDTAB
  0
TABLE
  2
APPID
  5
7DE1B343D9E0FC4
330
0
100
AcDbSymbolTable
 70
     6
  0
APPID
  5
7DE1B343D9E0FCC
330
7DE1B343D9E0FC4
100
AcDbSymbolTableRecord
100
AcDbRegAppTableRecord
  2
ACAD
 70
     0
  0
APPID
  5
7DE1B343D9E0FE8
330
7DE1B343D9E0FC4
100
AcDbSymbolTableRecord
100
AcDbRegAppTableRecord
  2
AVE_RENDER
 70
     0
  0
APPID
  5
7DE1B343D9E0FE9
330
7DE1B343D9E0FC4
100
AcDbSymbolTableRecord
100
AcDbRegAppTableRecord
  2
AVE_ENTITY_MATERIAL
 70
     0
  0
APPID
  5
7DE1B343D9E0FF6
330
7DE1B343D9E0FC4
100
AcDbSymbolTableRecord
100
AcDbRegAppTableRecord
  2
AVE_FINISH
 70
     0
  0
APPID
  5
7DE1B343D9E0FF7
330
7DE1B343D9E0FC4
100
AcDbSymbolTableRecord
100
AcDbRegAppTableRecord
  2
AVE_MATERIAL
 70
     0
  0
APPID
  5
7DE1B343D9E0FF8
330
7DE1B343D9E0FC4
100
AcDbSymbolTableRecord
100
AcDbRegAppTableRecord
  2
AVE_GLOBAL
 70
     0
  0
ENDTAB
  0
TABLE
  2
DIMSTYLE
  5
7DE1B343D9E0FC5
330
0
100
AcDbSymbolTable
 70
     1
  0
DIMSTYLE
105
7DE1B343D9E0FDF
330
7DE1B343D9E0FC5
100
AcDbSymbolTableRecord
100
AcDbDimStyleTableRecord
  2
STANDARD
 70
     0
  3

  4

  5

  6

  7

 40
1.0
 41
0.125
 42
0.125
 43
0.375
 44
0.125
 45
0.0
 46
0.0
 47
0.0
 48
0.0
140
0.125
141
-0.125
142
0.0
143
25.4
144
1.0
145
0.0
146
1.0
147
0.09
 71
     0
 72
     0
 73
     1
 74
     1
 75
     0
 76
     0
 77
     0
 78
     4
170
     0
171
     2
172
     0
173
     0
174
     1
175
     0
176
     0
177
     0
178
     0
270
     2
271
     3
272
     3
273
     2
274
     2
340
7DE1B343D9E1002
275
     0
280
     0
281
     0
282
     0
283
     1
284
     4
285
     0
286
     0
287
     3
288
     0
  0
ENDTAB
  0
TABLE
  2
BLOCK_RECORD
  5
7DE1B343D9E0FBC
330
0
100
AcDbSymbolTable
 70
     2
  0
BLOCK_RECORD
  5
7DE1B343D9E0FD3
102
{ACAD_XDICTIONARY
360
7DE1B343D9E1035
102
}
330
7DE1B343D9E0FBC
100
AcDbSymbolTableRecord
100
AcDbBlockTableRecord
  2
*MODEL_SPACE
  0
BLOCK_RECORD
  5
7DE1B343D9E0FD0
102
{ACAD_XDICTIONARY
360
7DE1B343D9E1033
102
}
330
7DE1B343D9E0FBC
100
AcDbSymbolTableRecord
100
AcDbBlockTableRecord
  2
*PAPER_SPACE
  0
BLOCK_RECORD
  5
7DE1B343D9E0FEB
330
7DE1B343D9E0FBC
100
AcDbSymbolTableRecord
100
AcDbBlockTableRecord
  2
AVE_RENDER
  0
BLOCK_RECORD
  5
7DE1B343D9E0FF9
330
7DE1B343D9E0FBC
100
AcDbSymbolTableRecord
100
AcDbBlockTableRecord
  2
AVE_GLOBAL
  0
ENDTAB
  0
ENDSEC
  0
SECTION
  2
BLOCKS
  0
BLOCK
  5
7DE1B343D9E0FDD
330
7DE1B343D9E0FD3
100
AcDbEntity
  8
0
100
AcDbBlockBegin
  2
*MODEL_SPACE
 70
     0
 10
0.0
 20
0.0
 30
0.0
  3
*MODEL_SPACE
  1

  0
ENDBLK
  5
7DE1B343D9E0FDE
330
7DE1B343D9E0FD3
100
AcDbEntity
  8
0
100
AcDbBlockEnd
  0
BLOCK
  5
7DE1B343D9E0FDB
330
7DE1B343D9E0FD0
100
AcDbEntity
 67
     1
  8
0
100
AcDbBlockBegin
  2
*PAPER_SPACE
 70
     0
 10
0.0
 20
0.0
 30
0.0
  3
*PAPER_SPACE
  1

  0
ENDBLK
  5
7DE1B343D9E0FDC
330
7DE1B343D9E0FD0
100
AcDbEntity
 67
     1
  8
0
100
AcDbBlockEnd
  0
BLOCK
  5
7DE1B343D9E0FEC
330
7DE1B343D9E0FEB
100
AcDbEntity
  8
0
100
AcDbBlockBegin
  2
AVE_RENDER
 70
     0
 10
0.0
 20
0.0
 30
0.0
  3
AVE_RENDER
  1
AVE_RENDER
  0
ENDBLK
  5
7DE1B343D9E0FED
330
7DE1B343D9E0FEB
100
AcDbEntity
  8
0
100
AcDbBlockEnd
  0
BLOCK
  5
7DE1B343D9E0FFA
330
7DE1B343D9E0FF9
100
AcDbEntity
  8
0
100
AcDbBlockBegin
  2
AVE_GLOBAL
 70
     0
 10
0.0
 20
0.0
 30
0.0
  3
AVE_GLOBAL
  1
AVE_GLOBAL
  0
ENDBLK
  5
7DE1B343D9E0FFB
330
7DE1B343D9E0FF9
100
AcDbEntity
  8
0
100
AcDbBlockEnd
  0
ENDSEC
  0
SECTION
  2
ENTITIES
  0
LWPOLYLINE
  5
7DE1B343D9DFA11
330
7DE1B343D9E0FD3
100
AcDbEntity
  8
0
100
AcDbPolyline
 90
       22
 70
     1
 43
0.0
 10
8.408231713237688
 20
6.715164841512386
 10
8.903231713237689
 20
6.715164841512386
 10
8.903231713237689
 20
6.085164841512385
 42
1.0
 10
8.983231713237687
 20
6.085164841512385
 10
8.983231713237687
 20
6.795164841512386
 10
2.983231713237687
 20
6.795164841512386
 10
2.983231713237687
 20
6.085164841512385
 42
1.0
 10
3.063231713237687
 20
6.085164841512385
 10
3.063231713237687
 20
6.715164841512386
 10
3.558231713237688
 20
6.715164841512386
 10
3.558231713237688
 20
6.107664841512386
 10
3.67910512550116
 20
6.107664841512386
 42
0.2679491924311233
 10
3.706168419369424
 20
6.123289841512386
 10
3.733231713237687
 20
6.170164841512386
 10
3.608231713237687
 20
6.170164841512386
 10
3.608231713237687
 20
6.715164841512386
 10
8.358231713237687
 20
6.715164841512386
 10
8.358231713237687
 20
6.170164841512386
 10
8.233231713237687
 20
6.170164841512386
 10
8.260295007105952
 20
6.123289841512384
 42
0.2679491924311176
 10
8.287358300974215
 20
6.107664841512386
 10
8.408231713237688
 20
6.107664841512386
  0
TEXT
  5
7DE1B343D9E0E7E
330
7DE1B343D9E0FD3
100
AcDbEntity
  8
TEXT
100
AcDbText
 10
5.230255522761496
 20
5.667916743778183
 30
0.0
 40
0.125
  1
PART #110269
  7
ITALICC
 72
     1
 11
5.983231713237687
 21
5.667916743778183
 31
0.0
100
AcDbText
  0
TEXT
  5
7DE1B343D9E0E7F
330
7DE1B343D9E0FD3
100
AcDbEntity
  8
TEXT
100
AcDbText
 10
6.396536871488008
 20
5.220994101105809
 30
0.0
 40
0.0522247191011236
  1
Phone  1-800-328-2495
 41
1.272321428571429
 72
     5
 11
7.725469455757671
 21
5.220994101105809
 31
0.0
100
AcDbText
  0
TEXT
  5
7DE1B343D9E0E80
330
7DE1B343D9E0FD3
100
AcDbEntity
  8
TEXT
100
AcDbText
 10
6.396536871488008
 20
5.500769382004685
 30
0.0
 40
0.0522247191011236
  1
Stylmark  Incorporated
 41
1.221428571428573
 72
     5
 11
7.725469455757671
 21
5.500769382004685
 31
0.0
100
AcDbText
  0
TEXT
  5
7DE1B343D9E0E81
330
7DE1B343D9E0FD3
100
AcDbEntity
  8
TEXT
100
AcDbText
 10
6.396536871488008
 20
5.407510955038393
 30
0.0
 40
0.0522247191011236
  1
6536 Main St. N.E. * P.O. Box 32008
 41
0.8388932496075366
 72
     5
 11
7.725469455757671
 21
5.407510955038393
 31
0.0
100
AcDbText
  0
TEXT
  5
7DE1B343D9E0E82
330
7DE1B343D9E0FD3
100
AcDbEntity
  8
TEXT
100
AcDbText
 10
6.396536871488008
 20
5.314252528072101
 30
0.0
 40
0.0522247191011236
  1
Minneapolis, MN 55432-0008
 41
1.11444212721585
 72
     5
 11
7.725469455757671
 21
5.314252528072101
 31
0.0
100
AcDbText
  0
LWPOLYLINE
  5
7DE1B343D9E0E83
330
7DE1B343D9E0FD3
100
AcDbEntity
  8
TEXT
100
AcDbPolyline
 90
        3
 70
     0
 43
0.0006660908203125
 10
4.2405831794207
 20
5.334638863743244
 10
4.2405831794207
 20
5.221403424290116
 10
4.353818618873822
 20
5.221403424290116
  0
LWPOLYLINE
  5
7DE1B343D9E0E88
330
7DE1B343D9E0FD3
100
AcDbEntity
  8
TEXT
100
AcDbPolyline
 90
        3
 70
     0
 43
0.0006660908203125
 10
4.267226812233197
 20
5.334638863743244
 10
4.267226812233197
 20
5.248047057102617
 10
4.353818618873822
 20
5.248047057102617
  0
LWPOLYLINE
  5
7DE1B343D9E0E8D
330
7DE1B343D9E0FD3
100
AcDbEntity
  8
TEXT
100
AcDbPolyline
 90
        2
 70
     0
 43
0.0001332181640625
 10
4.313853169655074
 20
5.344630226047929
 10
4.2405831794207
 20
5.334638863743244
  0
LWPOLYLINE
  5
7DE1B343D9E0E91
330
7DE1B343D9E0FD3
100
AcDbEntity
  8
TEXT
100
AcDbPolyline
 90
        2
 70
     0
 43
0.0001332181640625
 10
4.267226812233197
 20
5.334638863743244
 10
4.327174986061325
 20
5.344630226047929
  0
LWPOLYLINE
  5
7DE1B343D9E0E95
330
7DE1B343D9E0FD3
100
AcDbEntity
  8
TEXT
100
AcDbPolyline
 90
        2
 70
     0
 43
0.0001332181640625
 10
4.267226812233197
 20
5.248047057102617
 10
4.327174986061325
 20
5.307995230930742
  0
LWPOLYLINE
  5
7DE1B343D9E0E99
330
7DE1B343D9E0FD3
100
AcDbEntity
  8
TEXT
100
AcDbPolyline
 90
        3
 70
     0
 43
0.0006660908203125
 10
4.353818618873822
 20
5.487839752415119
 10
4.2405831794207
 20
5.487839752415119
 10
4.2405831794207
 20
5.374604312961992
  0
LWPOLYLINE
  5
7DE1B343D9E0E9E
330
7DE1B343D9E0FD3
100
AcDbEntity
  8
TEXT
100
AcDbPolyline
 90
        3
 70
     0
 43
0.0006660908203125
 10
4.353818618873822
 20
5.461196119602618
 10
4.267226812233197
 20
5.461196119602618
 10
4.267226812233197
 20
5.374604312961992
  0
LWPOLYLINE
  5
7DE1B343D9E0EA3
330
7DE1B343D9E0FD3
100
AcDbEntity
  8
TEXT
100
AcDbPolyline
 90
        2
 70
     0
 43
0.0001332181640625
 10
4.267226812233197
 20
5.461196119602618
 10
4.327174986061323
 20
5.401247945774493
  0
LWPOLYLINE
  5
7DE1B343D9E0EA7
330
7DE1B343D9E0FD3
100
AcDbEntity
  8
TEXT
100
AcDbPolyline
 90
        2
 70
     0
 43
0.0001332181640625
 10
4.267226812233197
 20
5.374604312961992
 10
4.327174986061323
 20
5.364612950657303
  0
LWPOLYLINE
  5
7DE1B343D9E0EAB
330
7DE1B343D9E0FD3
100
AcDbEntity
  8
TEXT
100
AcDbPolyline
 90
        2
 70
     0
 43
0.0001332181640625
 10
4.2405831794207
 20
5.374604312961992
 10
4.313853169655074
 20
5.364612950657303
  0
LWPOLYLINE
  5
7DE1B343D9E0EAF
330
7DE1B343D9E0FD3
100
AcDbEntity
  8
TEXT
100
AcDbPolyline
 90
        2
 70
     0
 43
0.0006660908203125
 10
4.267226812233197
 20
5.334638863743244
 10
4.2405831794207
 20
5.334638863743244
  0
LWPOLYLINE
  5
7DE1B343D9E0EB3
330
7DE1B343D9E0FD3
100
AcDbEntity
  8
TEXT
100
AcDbPolyline
 90
        2
 70
     0
 43
0.0006660908203125
 10
4.267226812233197
 20
5.374604312961992
 10
4.2405831794207
 20
5.374604312961992
  0
LINE
  5
7DE1B343D9E0EB7
330
7DE1B343D9E0FD3
100
AcDbEntity
  8
TEXT
100
AcDbLine
 10
5.755773608547197
 20
5.42356305775835
 30
0.0
 11
5.648567335159908
 21
5.42356305775835
 31
0.0
  0
LINE
  5
7DE1B343D9E0EB8
330
7DE1B343D9E0FD3
100
AcDbEntity
  8
TEXT
100
AcDbLine
 10
5.784804506891676
 20
5.487839752415116
 30
0.0
 11
5.649972597674617
 21
5.487839752415116
 31
0.0
  0
ARC
  5
7DE1B343D9E0EB9
330
7DE1B343D9E0FD3
100
AcDbEntity
  8
TEXT
100
AcDbCircle
 10
5.709286694067934
 20
5.318602503152099
 30
0.0
 40
0.0676855811441166
100
AcDbArc
 50
90.0
 51
153.7768192527749
  0
LWPOLYLINE
  5
7DE1B343D9E0EBA
330
7DE1B343D9E0FD3
100
AcDbEntity
  8
TEXT
100
AcDbPolyline
 90
        2
 70
     0
 43
0.0
 10
5.647534839705098
 20
5.264857664377043
 42
0.2901071551932823
 10
5.690610772572734
 20
5.221366719426605
 42
5.328517124445801
  0
ARC
  5
7DE1B343D9E0EBE
330
7DE1B343D9E0FD3
100
AcDbEntity
  8
TEXT
100
AcDbCircle
 10
5.004155316396448
 20
5.281159110764654
 30
0.0
 40
0.0601160179737537
100
AcDbArc
 50
180.0000000000003
 51
264.0521544866073
  0
LINE
  5
7DE1B343D9E0EBF
330
7DE1B343D9E0FD3
100
AcDbEntity
  8
TEXT
100
AcDbLine
 10
5.007670672021996
 20
5.522227670009254
 30
0.0
 11
4.947628067177989
 21
5.522227670009254
 31
0.0
  0
ARC
  5
7DE1B343D9E0EC0
330
7DE1B343D9E0FD3
100
AcDbEntity
  8
TEXT
100
AcDbCircle
 10
4.771896314279477
 20
5.405752292968614
 30
0.0
 40
0.0820874594465043
100
AcDbArc
 50
90.0
 51
270.0
  0
LWPOLYLINE
  5
7DE1B343D9E0EC1
330
7DE1B343D9E0FD3
100
AcDbEntity
  8
TEXT
100
AcDbPolyline
 90
        2
 70
     0
 43
0.0001332181640625
 10
4.363809981178513
 20
5.41456976218074
 10
4.353818618873822
 20
5.487839752415119
  0
LWPOLYLINE
  5
7DE1B343D9E0EC5
330
7DE1B343D9E0FD3
100
AcDbEntity
  8
TEXT
100
AcDbPolyline
 90
        2
 70
     0
 43
0.0001332181640625
 10
4.353818618873822
 20
5.461196119602618
 10
4.363809981178513
 20
5.401247945774493
  0
LWPOLYLINE
  5
7DE1B343D9E0EC9
330
7DE1B343D9E0FD3
100
AcDbEntity
  8
TEXT
100
AcDbPolyline
 90
        3
 70
     0
 43
0.0006660908203125
 10
4.5070195075457
 20
5.374604312961992
 10
4.5070195075457
 20
5.487839752415119
 10
4.393784068092574
 20
5.487839752415119
  0
LWPOLYLINE
  5
7DE1B343D9E0ECE
330
7DE1B343D9E0FD3
100
AcDbEntity
  8
TEXT
100
AcDbPolyline
 90
        3
 70
     0
 43
0.0006660908203125
 10
4.480375874733199
 20
5.374604312961992
 10
4.480375874733199
 20
5.461196119602618
 10
4.393784068092574
 20
5.461196119602618
  0
LWPOLYLINE
  5
7DE1B343D9E0ED3
330
7DE1B343D9E0FD3
100
AcDbEntity
  8
TEXT
100
AcDbPolyline
 90
        2
 70
     0
 43
0.0001332181640625
 10
4.480375874733199
 20
5.461196119602618
 10
4.420427700905075
 20
5.401247945774493
  0
LWPOLYLINE
  5
7DE1B343D9E0ED7
330
7DE1B343D9E0FD3
100
AcDbEntity
  8
TEXT
100
AcDbPolyline
 90
        2
 70
     0
 43
0.0001332181640625
 10
4.393784068092574
 20
5.461196119602618
 10
4.383792705787885
 20
5.401247945774493
  0
LWPOLYLINE
  5
7DE1B343D9E0EDB
330
7DE1B343D9E0FD3
100
AcDbEntity
  8
TEXT
100
AcDbPolyline
 90
        2
 70
     0
 43
0.0001332181640625
 10
4.393784068092574
 20
5.487839752415119
 10
4.383792705787885
 20
5.41456976218074
  0
LWPOLYLINE
  5
7DE1B343D9E0EDF
330
7DE1B343D9E0FD3
100
AcDbEntity
  8
TEXT
100
AcDbPolyline
 90
        2
 70
     0
 43
0.0001332181640625
 10
4.433749517311324
 20
5.364612950657303
 10
4.5070195075457
 20
5.374604312961992
  0
LWPOLYLINE
  5
7DE1B343D9E0EE3
330
7DE1B343D9E0FD3
100
AcDbEntity
  8
TEXT
100
AcDbPolyline
 90
        2
 70
     0
 43
0.0001332181640625
 10
4.480375874733199
 20
5.374604312961992
 10
4.420427700905075
 20
5.364612950657303
  0
LWPOLYLINE
  5
7DE1B343D9E0EE7
330
7DE1B343D9E0FD3
100
AcDbEntity
  8
TEXT
100
AcDbPolyline
 90
        2
 70
     0
 43
0.0001332181640625
 10
4.5070195075457
 20
5.334638863743244
 10
4.433749517311324
 20
5.344630226047929
  0
LWPOLYLINE
  5
7DE1B343D9E0EEB
330
7DE1B343D9E0FD3
100
AcDbEntity
  8
TEXT
100
AcDbPolyline
 90
        2
 70
     0
 43
0.0001332181640625
 10
4.480375874733199
 20
5.334638863743244
 10
4.420427700905075
 20
5.344630226047929
  0
LWPOLYLINE
  5
7DE1B343D9E0EEF
330
7DE1B343D9E0FD3
100
AcDbEntity
  8
TEXT
100
AcDbPolyline
 90
        2
 70
     0
 43
0.0001332181640625
 10
4.480375874733199
 20
5.248047057102617
 10
4.420427700905075
 20
5.307995230930742
  0
LWPOLYLINE
  5
7DE1B343D9E0EF3
330
7DE1B343D9E0FD3
100
AcDbEntity
  8
TEXT
100
AcDbPolyline
 90
        3
 70
     0
 43
0.0006660908203125
 10
4.393784068092574
 20
5.248047057102617
 10
4.480375874733199
 20
5.248047057102617
 10
4.480375874733199
 20
5.334638863743244
  0
LWPOLYLINE
  5
7DE1B343D9E0EF8
330
7DE1B343D9E0FD3
100
AcDbEntity
  8
TEXT
100
AcDbPolyline
 90
        3
 70
     0
 43
0.0006660908203125
 10
4.393784068092574
 20
5.221403424290116
 10
4.5070195075457
 20
5.221403424290116
 10
4.5070195075457
 20
5.334638863743244
  0
LWPOLYLINE
  5
7DE1B343D9E0EFD
330
7DE1B343D9E0FD3
100
AcDbEntity
  8
TEXT
100
AcDbPolyline
 90
        5
 70
     0
 43
0.0001332181640625
 10
4.363809981178513
 20
5.294673414524492
 10
4.363809981178513
 20
5.307995230930742
 10
4.327174986061325
 20
5.307995230930742
 10
4.327174986061325
 20
5.344630226047929
 10
4.313853169655074
 20
5.344630226047929
  0
LWPOLYLINE
  5
7DE1B343D9E0F04
330
7DE1B343D9E0FD3
100
AcDbEntity
  8
TEXT
100
AcDbPolyline
 90
        2
 70
     0
 43
0.0006660908203125
 10
4.353818618873822
 20
5.248047057102617
 10
4.353818618873822
 20
5.221403424290116
  0
LWPOLYLINE
  5
7DE1B343D9E0F08
330
7DE1B343D9E0FD3
100
AcDbEntity
  8
TEXT
100
AcDbPolyline
 90
        2
 70
     0
 43
0.0001332181640625
 10
4.353818618873822
 20
5.248047057102617
 10
4.363809981178513
 20
5.307995230930742
  0
LWPOLYLINE
  5
7DE1B343D9E0F0C
330
7DE1B343D9E0FD3
100
AcDbEntity
  8
TEXT
100
AcDbPolyline
 90
        2
 70
     0
 43
0.0001332181640625
 10
4.353818618873822
 20
5.221403424290116
 10
4.363809981178513
 20
5.294673414524492
  0
LWPOLYLINE
  5
7DE1B343D9E0F10
330
7DE1B343D9E0FD3
100
AcDbEntity
  8
TEXT
100
AcDbPolyline
 90
        5
 70
     0
 43
0.0001332181640625
 10
4.313853169655074
 20
5.364612950657303
 10
4.327174986061323
 20
5.364612950657303
 10
4.327174986061323
 20
5.401247945774493
 10
4.363809981178513
 20
5.401247945774493
 10
4.363809981178513
 20
5.41456976218074
  0
LWPOLYLINE
  5
7DE1B343D9E0F17
330
7DE1B343D9E0FD3
100
AcDbEntity
  8
TEXT
100
AcDbPolyline
 90
        5
 70
     0
 43
0.0001332181640625
 10
4.383792705787885
 20
5.41456976218074
 10
4.383792705787885
 20
5.401247945774493
 10
4.420427700905075
 20
5.401247945774493
 10
4.420427700905075
 20
5.364612950657303
 10
4.433749517311324
 20
5.364612950657303
  0
LWPOLYLINE
  5
7DE1B343D9E0F1E
330
7DE1B343D9E0FD3
100
AcDbEntity
  8
TEXT
100
AcDbPolyline
 90
        2
 70
     0
 43
0.0001332181640625
 10
4.393784068092574
 20
5.248047057102617
 10
4.383792705787885
 20
5.307995230930742
  0
LWPOLYLINE
  5
7DE1B343D9E0F22
330
7DE1B343D9E0FD3
100
AcDbEntity
  8
TEXT
100
AcDbPolyline
 90
        2
 70
     0
 43
0.0001332181640625
 10
4.383792705787885
 20
5.294673414524492
 10
4.393784068092574
 20
5.221403424290116
  0
LWPOLYLINE
  5
7DE1B343D9E0F26
330
7DE1B343D9E0FD3
100
AcDbEntity
  8
TEXT
100
AcDbPolyline
 90
        2
 70
     0
 43
0.0006660908203125
 10
4.393784068092574
 20
5.248047057102617
 10
4.393784068092574
 20
5.221403424290116
  0
LWPOLYLINE
  5
7DE1B343D9E0F2A
330
7DE1B343D9E0FD3
100
AcDbEntity
  8
TEXT
100
AcDbPolyline
 90
        5
 70
     0
 43
0.0001332181640625
 10
4.433749517311324
 20
5.344630226047929
 10
4.420427700905075
 20
5.344630226047929
 10
4.420427700905075
 20
5.307995230930742
 10
4.383792705787885
 20
5.307995230930742
 10
4.383792705787885
 20
5.294673414524492
  0
LWPOLYLINE
  5
7DE1B343D9E0F31
330
7DE1B343D9E0FD3
100
AcDbEntity
  8
TEXT
100
AcDbPolyline
 90
        2
 70
     0
 43
0.0006660908203125
 10
4.480375874733199
 20
5.374604312961992
 10
4.5070195075457
 20
5.374604312961992
  0
LWPOLYLINE
  5
7DE1B343D9E0F35
330
7DE1B343D9E0FD3
100
AcDbEntity
  8
TEXT
100
AcDbPolyline
 90
        2
 70
     0
 43
0.0006660908203125
 10
4.480375874733199
 20
5.334638863743244
 10
4.5070195075457
 20
5.334638863743244
  0
LINE
  5
7DE1B343D9E0F39
330
7DE1B343D9E0FD3
100
AcDbEntity
  8
TEXT
100
AcDbLine
 10
4.777133644393725
 20
5.42356305775835
 30
0.0
 11
4.944039298422696
 21
5.42356305775835
 31
0.0
  0
LINE
  5
7DE1B343D9E0F3A
330
7DE1B343D9E0FD3
100
AcDbEntity
  8
TEXT
100
AcDbLine
 10
4.842733780638026
 20
5.387758336147722
 30
0.0
 11
4.777133644393725
 21
5.387758336147722
 31
0.0
  0
LINE
  5
7DE1B343D9E0F3B
330
7DE1B343D9E0FD3
100
AcDbEntity
  8
TEXT
100
AcDbLine
 10
4.689808854832973
 20
5.221366719426605
 30
0.0
 11
4.842733780638026
 21
5.221366719426605
 31
0.0
  0
LINE
  5
7DE1B343D9E0F3C
330
7DE1B343D9E0FD3
100
AcDbEntity
  8
TEXT
100
AcDbLine
 10
4.847674154544305
 20
5.289723725760044
 30
0.0
 11
4.689808854832971
 21
5.289723725760044
 31
0.0
  0
LINE
  5
7DE1B343D9E0F3D
330
7DE1B343D9E0FD3
100
AcDbEntity
  8
TEXT
100
AcDbLine
 10
4.771896314279477
 20
5.323664833522109
 30
0.0
 11
4.847674154544305
 21
5.323664833522109
 31
0.0
  0
ARC
  5
7DE1B343D9E0F3E
330
7DE1B343D9E0FD3
100
AcDbEntity
  8
TEXT
100
AcDbCircle
 10
4.777133644393726
 20
5.405660696953038
 30
0.0
 40
0.017902360805315
100
AcDbArc
 50
90.0
 51
270.0
  0
LINE
  5
7DE1B343D9E0F3F
330
7DE1B343D9E0FD3
100
AcDbEntity
  8
TEXT
100
AcDbLine
 10
4.689808854832971
 20
5.289723725760044
 30
0.0
 11
4.689808854832973
 21
5.221366719426605
 31
0.0
  0
LINE
  5
7DE1B343D9E0F40
330
7DE1B343D9E0FD3
100
AcDbEntity
  8
TEXT
100
AcDbLine
 10
4.944039298422696
 20
5.42356305775835
 30
0.0
 11
4.944039298422696
 21
5.281159110764654
 31
0.0
  0
ARC
  5
7DE1B343D9E0F41
330
7DE1B343D9E0FD3
100
AcDbEntity
  8
TEXT
100
AcDbCircle
 10
4.842733780638027
 20
5.304562527787162
 30
0.0
 40
0.0831958083605586
100
AcDbArc
 50
270.0
 51
90.0
  0
ARC
  5
7DE1B343D9E0F42
330
7DE1B343D9E0FD3
100
AcDbEntity
  8
TEXT
100
AcDbCircle
 10
4.847674154544306
 20
5.306694279641078
 30
0.0
 40
0.0169705538810321
100
AcDbArc
 50
270.0
 51
90.0
  0
LWPOLYLINE
  5
7DE1B343D9E0F43
330
7DE1B343D9E0FD3
100
AcDbEntity
  8
TEXT
100
AcDbPolyline
 90
        2
 70
     0
 43
0.0006660908203125
 10
4.353818618873822
 20
5.461196119602618
 10
4.353818618873822
 20
5.487839752415119
  0
LWPOLYLINE
  5
7DE1B343D9E0F47
330
7DE1B343D9E0FD3
100
AcDbEntity
  8
TEXT
100
AcDbPolyline
 90
        2
 70
     0
 43
0.0006660908203125
 10
4.393784068092574
 20
5.461196119602618
 10
4.393784068092574
 20
5.487839752415119
  0
LINE
  5
7DE1B343D9E0F4B
330
7DE1B343D9E0FD3
100
AcDbEntity
  8
TEXT
100
AcDbLine
 10
4.947628067177989
 20
5.487839752415116
 30
0.0
 11
4.771896314279477
 21
5.487839752415116
 31
0.0
  0
LINE
  5
7DE1B343D9E0F4C
330
7DE1B343D9E0FD3
100
AcDbEntity
  8
TEXT
100
AcDbLine
 10
4.947628067177989
 20
5.522227670009254
 30
0.0
 11
4.947628067177989
 21
5.487839752415116
 31
0.0
  0
LINE
  5
7DE1B343D9E0F4D
330
7DE1B343D9E0FD3
100
AcDbEntity
  8
TEXT
100
AcDbLine
 10
5.138099959197841
 20
5.386967756301995
 30
0.0
 11
5.079469638165903
 21
5.487839752415116
 31
0.0
  0
LINE
  5
7DE1B343D9E0F4E
330
7DE1B343D9E0FD3
100
AcDbEntity
  8
TEXT
100
AcDbLine
 10
5.196848522003707
 20
5.487839752415116
 30
0.0
 11
5.138099959197841
 21
5.386967756301995
 31
0.0
  0
LINE
  5
7DE1B343D9E0F4F
330
7DE1B343D9E0FD3
100
AcDbEntity
  8
TEXT
100
AcDbLine
 10
5.293779147363448
 20
5.303754557529604
 30
0.0
 11
5.293779147363448
 21
5.555851230153926
 31
0.0
  0
LINE
  5
7DE1B343D9E0F50
330
7DE1B343D9E0FD3
100
AcDbEntity
  8
TEXT
100
AcDbLine
 10
5.326091001501108
 20
5.487839752415116
 30
0.0
 11
5.326091001501108
 21
5.286975545682707
 31
0.0
  0
LINE
  5
7DE1B343D9E0F51
330
7DE1B343D9E0FD3
100
AcDbEntity
  8
TEXT
100
AcDbLine
 10
5.326091001501108
 20
5.286975545682707
 30
0.0
 11
5.309097364616507
 21
5.286975545682707
 31
0.0
  0
LINE
  5
7DE1B343D9E0F52
330
7DE1B343D9E0FD3
100
AcDbEntity
  8
TEXT
100
AcDbLine
 10
5.294918720859643
 20
5.221366719426605
 30
0.0
 11
5.392922054559077
 21
5.221366719426605
 31
0.0
  0
LINE
  5
7DE1B343D9E0F53
330
7DE1B343D9E0FD3
100
AcDbEntity
  8
TEXT
100
AcDbLine
 10
5.128499722200887
 20
5.241325225531618
 30
0.0
 11
5.225799428294331
 21
5.405675436466886
 31
0.0
  0
ARC
  5
7DE1B343D9E0F54
330
7DE1B343D9E0FD3
100
AcDbEntity
  8
TEXT
100
AcDbCircle
 10
5.094456162288673
 20
5.2609144417003
 30
0.0
 40
0.0392772371940762
100
AcDbArc
 50
270.1604552698595
 51
330.0831797321295
  0
LINE
  5
7DE1B343D9E0F55
330
7DE1B343D9E0FD3
100
AcDbEntity
  8
TEXT
100
AcDbLine
 10
4.997925905902802
 20
5.221366719426605
 30
0.0
 11
5.094566156977796
 21
5.221637358524887
 31
0.0
  0
LWPOLYLINE
  5
7DE1B343D9E0F56
330
7DE1B343D9E0FD3
100
AcDbEntity
  8
TEXT
100
AcDbPolyline
 90
        6
 70
     1
 43
0.0
 10
5.040449709477951
 20
5.42356305775835
 10
5.010133115257743
 20
5.42356305775835
 10
5.010133115257743
 20
5.300452059703456
 42
0.407328721240804
 10
5.021676766419219
 20
5.28863314502707
 10
5.08229846546395
 20
5.28863314502707
 10
5.099763805871268
 20
5.321445374070549
  0
LINE
  5
7DE1B343D9E0F5E
330
7DE1B343D9E0FD3
100
AcDbEntity
  8
TEXT
100
AcDbLine
 10
5.225799428294331
 20
5.405675436466886
 30
0.0
 11
5.225799428294331
 21
5.272918061641529
 31
0.0
  0
ARC
  5
7DE1B343D9E0F5F
330
7DE1B343D9E0FD3
100
AcDbEntity
  8
TEXT
100
AcDbCircle
 10
5.309097364616505
 20
5.302357351926133
 30
0.0
 40
0.0153818062434269
100
AcDbArc
 50
174.7883570302258
 51
270.0
  0
LWPOLYLINE
  5
7DE1B343D9E0F60
330
7DE1B343D9E0FD3
100
AcDbEntity
  8
TEXT
100
AcDbPolyline
 90
        2
 70
     0
 43
0.0
 10
5.22579942829433
 20
5.272918061641533
 42
0.3318488747599744
 10
5.294918720859643
 20
5.221366719426605
 42
-6.868794160588311
  0
LINE
  5
7DE1B343D9E0F64
330
7DE1B343D9E0FD3
100
AcDbEntity
  8
TEXT
100
AcDbLine
 10
5.450311123548338
 20
5.221366719426605
 30
0.0
 11
5.517369170330178
 21
5.221366719426605
 31
0.0
  0
LINE
  5
7DE1B343D9E0F65
330
7DE1B343D9E0FD3
100
AcDbEntity
  8
TEXT
100
AcDbLine
 10
5.450311123548338
 20
5.41600926859224
 30
0.0
 11
5.450311123548338
 21
5.221366719426605
 31
0.0
  0
LINE
  5
7DE1B343D9E0F66
330
7DE1B343D9E0FD3
100
AcDbEntity
  8
TEXT
100
AcDbLine
 10
5.392922054559077
 20
5.42356305775835
 30
0.0
 11
5.442757334382225
 21
5.42356305775835
 31
0.0
  0
LINE
  5
7DE1B343D9E0F67
330
7DE1B343D9E0FD3
100
AcDbEntity
  8
TEXT
100
AcDbLine
 10
5.392922054559077
 20
5.221366719426605
 30
0.0
 11
5.392922054559077
 21
5.42356305775835
 31
0.0
  0
LWPOLYLINE
  5
7DE1B343D9E0F68
330
7DE1B343D9E0FD3
100
AcDbEntity
  8
TEXT
100
AcDbPolyline
 90
        2
 70
     0
 43
0.0
 10
5.442757334382223
 20
5.42356305775835
 42
-0.4142135623731017
 10
5.450311123548337
 20
5.41600926859224
 42
-0.9999999999999998
  0
LINE
  5
7DE1B343D9E0F6C
330
7DE1B343D9E0FD3
100
AcDbEntity
  8
TEXT
100
AcDbLine
 10
5.648567335159908
 20
5.42356305775835
 30
0.0
 11
5.648567335159908
 21
5.348510651684144
 31
0.0
  0
LINE
  5
7DE1B343D9E0F6D
330
7DE1B343D9E0FD3
100
AcDbEntity
  8
TEXT
100
AcDbLine
 10
5.517369170330178
 20
5.42356305775835
 30
0.0
 11
5.571502767251129
 21
5.42356305775835
 31
0.0
  0
LINE
  5
7DE1B343D9E0F6E
330
7DE1B343D9E0FD3
100
AcDbEntity
  8
TEXT
100
AcDbLine
 10
5.517369170330178
 20
5.221366719426605
 30
0.0
 11
5.517369170330178
 21
5.42356305775835
 31
0.0
  0
LWPOLYLINE
  5
7DE1B343D9E0F6F
330
7DE1B343D9E0FD3
100
AcDbEntity
  8
TEXT
100
AcDbPolyline
 90
        2
 70
     0
 43
0.0
 10
5.571502767251127
 20
5.42356305775835
 42
-0.4142135623731017
 10
5.57905655641724
 20
5.41600926859224
 42
-0.9999999999999998
  0
LWPOLYLINE
  5
7DE1B343D9E0F73
330
7DE1B343D9E0FD3
100
AcDbEntity
  8
TEXT
100
AcDbPolyline
 90
        4
 70
     0
 43
0.0
 10
5.57905655641724
 20
5.41600926859224
 10
5.57905655641724
 20
5.221366719426605
 10
5.647534839705098
 20
5.221366719426605
 10
5.647534839705098
 20
5.264857664377043
 42
-1.714843617202739
  0
LINE
  5
7DE1B343D9E0F79
330
7DE1B343D9E0FD3
100
AcDbEntity
  8
TEXT
100
AcDbLine
 10
5.007670672021996
 20
5.487839752415116
 30
0.0
 11
5.007670672021996
 21
5.522227670009254
 31
0.0
  0
LINE
  5
7DE1B343D9E0F7A
330
7DE1B343D9E0FD3
100
AcDbEntity
  8
TEXT
100
AcDbLine
 10
5.079469638165903
 20
5.487839752415116
 30
0.0
 11
5.007670672021996
 21
5.487839752415116
 31
0.0
  0
LINE
  5
7DE1B343D9E0F7B
330
7DE1B343D9E0FD3
100
AcDbEntity
  8
TEXT
100
AcDbLine
 10
5.226970434797083
 20
5.487839752415116
 30
0.0
 11
5.196848522003707
 21
5.487839752415116
 31
0.0
  0
LINE
  5
7DE1B343D9E0F7C
330
7DE1B343D9E0FD3
100
AcDbEntity
  8
TEXT
100
AcDbLine
 10
5.226970434797083
 20
5.555851230153926
 30
0.0
 11
5.226970434797083
 21
5.487839752415116
 31
0.0
  0
LINE
  5
7DE1B343D9E0F7D
330
7DE1B343D9E0FD3
100
AcDbEntity
  8
TEXT
100
AcDbLine
 10
5.293779147363448
 20
5.555851230153926
 30
0.0
 11
5.226970434797083
 21
5.555851230153926
 31
0.0
  0
LWPOLYLINE
  5
7DE1B343D9E0F7E
330
7DE1B343D9E0FD3
100
AcDbEntity
  8
TEXT
100
AcDbPolyline
 90
        3
 70
     0
 43
0.0
 10
5.61419090696145
 20
5.487839752415119
 10
5.495890748145406
 20
5.487839752415119
 10
5.495890748145406
 20
5.460672255654223
 42
-1.960274751411753
  0
LINE
  5
7DE1B343D9E0F83
330
7DE1B343D9E0FD3
100
AcDbEntity
  8
TEXT
100
AcDbLine
 10
5.460109057432244
 20
5.487839752415116
 30
0.0
 11
5.326091001501108
 21
5.487839752415116
 31
0.0
  0
LWPOLYLINE
  5
7DE1B343D9E0F84
330
7DE1B343D9E0FD3
100
AcDbEntity
  8
TEXT
100
AcDbPolyline
 90
        2
 70
     0
 43
0.0
 10
5.460109057432244
 20
5.487839752415119
 42
-0.3328679258950098
 10
5.495890748145406
 20
5.460672255654223
 42
6.772930709997214
  0
LINE
  5
7DE1B343D9E0F88
330
7DE1B343D9E0FD3
100
AcDbEntity
  8
TEXT
100
AcDbLine
 10
5.649972597674617
 20
5.487839752415116
 30
0.0
 11
5.649972597674617
 21
5.459517206645472
 31
0.0
  0
LWPOLYLINE
  5
7DE1B343D9E0F89
330
7DE1B343D9E0FD3
100
AcDbEntity
  8
TEXT
100
AcDbPolyline
 90
        2
 70
     0
 43
0.0
 10
5.61419090696145
 20
5.487839752415119
 42
-0.3277054968067132
 10
5.649972597674615
 20
5.459517206645475
 42
6.667889725900311
  0
LINE
  5
7DE1B343D9E0F8D
330
7DE1B343D9E0FD3
100
AcDbEntity
  8
TEXT
100
AcDbLine
 10
5.863764445766717
 20
5.382627773861688
 30
0.0
 11
5.820013674584815
 21
5.464878049857833
 31
0.0
  0
LINE
  5
7DE1B343D9E0F8E
330
7DE1B343D9E0FD3
100
AcDbEntity
  8
TEXT
100
AcDbLine
 10
5.863764445766717
 20
5.487839752415116
 30
0.0
 11
5.863764445766717
 21
5.382627773861688
 31
0.0
  0
LINE
  5
7DE1B343D9E0F8F
330
7DE1B343D9E0FD3
100
AcDbEntity
  8
TEXT
100
AcDbLine
 10
6.091448184705086
 20
5.411974426003578
 30
0.0
 11
6.091448184705086
 21
5.553303958182716
 31
0.0
  0
LINE
  5
7DE1B343D9E0F90
330
7DE1B343D9E0FD3
100
AcDbEntity
  8
TEXT
100
AcDbLine
 10
6.13854634326107
 20
5.487839752415116
 30
0.0
 11
6.091448184705086
 21
5.411974426003578
 31
0.0
  0
LINE
  5
7DE1B343D9E0F91
330
7DE1B343D9E0FD3
100
AcDbEntity
  8
TEXT
100
AcDbLine
 10
6.148981060024993
 20
5.377946509474142
 30
0.0
 11
6.213538175990699
 21
5.487839752415116
 31
0.0
  0
LINE
  5
7DE1B343D9E0F92
330
7DE1B343D9E0FD3
100
AcDbEntity
  8
TEXT
100
AcDbLine
 10
6.027613193482313
 20
5.221366719426605
 30
0.0
 11
6.091991377800933
 21
5.221366719426605
 31
0.0
  0
LWPOLYLINE
  5
7DE1B343D9E0F93
330
7DE1B343D9E0FD3
100
AcDbEntity
  8
TEXT
100
AcDbPolyline
 90
        2
 70
     0
 43
0.0
 10
5.867704123071755
 20
5.264857664377043
 42
-0.2901071551932486
 10
5.82462819020411
 20
5.221366719426605
 42
-5.328517124445184
  0
ARC
  5
7DE1B343D9E0F97
330
7DE1B343D9E0FD3
100
AcDbEntity
  8
TEXT
100
AcDbCircle
 10
5.755773608547196
 20
5.395203682758353
 30
0.0
 40
0.028359375
100
AcDbArc
 50
25.78218179591245
 51
90.0
  0
LINE
  5
7DE1B343D9E0F98
330
7DE1B343D9E0FD3
100
AcDbEntity
  8
TEXT
100
AcDbLine
 10
5.791574683851319
 20
5.386288084296218
 30
0.0
 11
5.781309923437754
 21
5.407538623868912
 31
0.0
  0
LINE
  5
7DE1B343D9E0F99
330
7DE1B343D9E0FD3
100
AcDbEntity
  8
TEXT
100
AcDbLine
 10
5.709286694067936
 20
5.386288084296218
 30
0.0
 11
5.791574683851319
 21
5.386288084296218
 31
0.0
  0
LWPOLYLINE
  5
7DE1B343D9E0F9A
330
7DE1B343D9E0FD3
100
AcDbEntity
  8
TEXT
100
AcDbPolyline
 90
        4
 70
     1
 43
0.0
 10
5.804505725134218
 20
5.32433069741063
 10
5.715845406474359
 20
5.32433069741063
 42
0.9999999999999998
 10
5.715845406474359
 20
5.281932156906769
 10
5.804505725134218
 20
5.281932156906769
 42
1.0
  0
LWPOLYLINE
  5
7DE1B343D9E0FA0
330
7DE1B343D9E0FD3
100
AcDbEntity
  8
TEXT
100
AcDbPolyline
 90
        2
 70
     0
 43
0.0
 10
5.690610772572734
 20
5.221366719426605
 10
5.82462819020411
 20
5.221366719426605
 42
0.9999999999999998
  0
LINE
  5
7DE1B343D9E0FA4
330
7DE1B343D9E0FD3
100
AcDbEntity
  8
TEXT
100
AcDbLine
 10
5.95096521218975
 20
5.42356305775835
 30
0.0
 11
6.027613193482308
 21
5.42356305775835
 31
0.0
  0
LINE
  5
7DE1B343D9E0FA5
330
7DE1B343D9E0FD3
100
AcDbEntity
  8
TEXT
100
AcDbLine
 10
6.027613193482308
 20
5.42356305775835
 30
0.0
 11
6.027613193482313
 21
5.221366719426605
 31
0.0
  0
ARC
  5
7DE1B343D9E0FA6
330
7DE1B343D9E0FD3
100
AcDbEntity
  8
TEXT
100
AcDbCircle
 10
5.950965212189748
 20
5.398657182475687
 30
0.0
 40
0.0249058752826653
100
AcDbArc
 50
89.99971217465335
 51
179.9999999999985
  0
LINE
  5
7DE1B343D9E0FA7
330
7DE1B343D9E0FD3
100
AcDbEntity
  8
TEXT
100
AcDbLine
 10
5.926059336907091
 20
5.221366719426605
 30
0.0
 11
5.926059336907085
 21
5.398657224858073
 31
0.0
  0
LWPOLYLINE
  5
7DE1B343D9E0FA8
330
7DE1B343D9E0FD3
100
AcDbEntity
  8
TEXT
100
AcDbPolyline
 90
        2
 70
     0
 43
0.0
 10
5.867704123071755
 20
5.221366719426605
 10
5.926059336907089
 20
5.221366719426605
  0
LWPOLYLINE
  5
7DE1B343D9E0FAC
330
7DE1B343D9E0FD3
100
AcDbEntity
  8
TEXT
100
AcDbPolyline
 90
        2
 70
     0
 43
0.0
 10
5.867704123071755
 20
5.264857664377043
 10
5.867704123071755
 20
5.221366719426605
  0
LINE
  5
7DE1B343D9E0FB0
330
7DE1B343D9E0FD3
100
AcDbEntity
  8
TEXT
100
AcDbLine
 10
6.244473283388604
 20
5.221366719426605
 30
0.0
 11
6.148981060024993
 21
5.377946509474142
 31
0.0
  0
LINE
  5
7DE1B343D9E0FB1
330
7DE1B343D9E0FD3
100
AcDbEntity
  8
TEXT
100
AcDbLine
 10
6.167894911012398
 20
5.221366719426605
 30
0.0
 11
6.244473283388604
 21
5.221366719426605
 31
0.0
  0
LINE
  5
7DE1B343D9E0FB2
330
7DE1B343D9E0FD3
100
AcDbEntity
  8
TEXT
100
AcDbLine
 10
6.091991377800933
 20
5.352946287902785
 30
0.0
 11
6.167894911012398
 21
5.221366719426605
 31
0.0
  0
LINE
  5
7DE1B343D9E0FB3
330
7DE1B343D9E0FD3
100
AcDbEntity
  8
TEXT
100
AcDbLine
 10
6.091991377800933
 20
5.221366719426605
 30
0.0
 11
6.091991377800933
 21
5.352946287902785
 31
0.0
  0
LINE
  5
7DE1B343D9E0FB4
330
7DE1B343D9E0FD3
100
AcDbEntity
  8
TEXT
100
AcDbLine
 10
6.091448184705086
 20
5.553303958182716
 30
0.0
 11
6.023133306155813
 21
5.553303958182716
 31
0.0
  0
ARC
  5
7DE1B343D9E0FB5
330
7DE1B343D9E0FD3
100
AcDbEntity
  8
TEXT
100
AcDbCircle
 10
5.782777567114607
 20
5.446256185294213
 30
0.0
 40
0.0416329381542859
100
AcDbArc
 50
26.56974201007528
 51
87.20939649401342
  0
LINE
  5
7DE1B343D9E0FB6
330
7DE1B343D9E0FD3
100
AcDbEntity
  8
TEXT
100
AcDbLine
 10
5.927661352066218
 20
5.487839752415116
 30
0.0
 11
5.863764445766717
 21
5.487839752415116
 31
0.0
  0
LINE
  5
7DE1B343D9E0FB7
330
7DE1B343D9E0FD3
100
AcDbEntity
  8
TEXT
100
AcDbLine
 10
5.927661352066218
 20
5.460292102554241
 30
0.0
 11
5.927661352066218
 21
5.487839752415116
 31
0.0
  0
ARC
  5
7DE1B343D9E0FB8
330
7DE1B343D9E0FD3
100
AcDbEntity
  8
TEXT
100
AcDbCircle
 10
5.958854169129326
 20
5.456594025132851
 30
0.0
 40
0.0314112657011332
100
AcDbArc
 50
95.88484768694724
 51
173.2388340632136
  0
LINE
  5
7DE1B343D9E0FB9
330
7DE1B343D9E0FD3
100
AcDbEntity
  8
TEXT
100
AcDbLine
 10
6.023133306155807
 20
5.487839752415116
 30
0.0
 11
5.955633588506291
 21
5.487839752415116
 31
0.0
  0
LINE
  5
7DE1B343D9E0FBA
330
7DE1B343D9E0FD3
100
AcDbEntity
  8
TEXT
100
AcDbLine
 10
6.023133306155813
 20
5.553303958182716
 30
0.0
 11
6.023133306155807
 21
5.487839752415116
 31
0.0
  0
LINE
  5
7DE1B343D9E0FBB
330
7DE1B343D9E0FD3
100
AcDbEntity
  8
TEXT
100
AcDbLine
 10
6.213538175990699
 20
5.487839752415116
 30
0.0
 11
6.138546343261072
 21
5.487839752415116
 31
0.0
  0
INSERT
  5
7DE1B343D9E0FEE
330
7DE1B343D9E0FD3
100
AcDbEntity
  8
ASHADE
 62
     1
100
AcDbBlockReference
  2
AVE_RENDER
 10
0.0
 20
0.0
 30
0.0
1001
AVE_RENDER
1002
{
1070
     6
1000
Pref
1070
    30
1070
    20
1070
     1
1070
     0
1000

1070
    10
1070
     1
1070
    30
1040
1.0
1070
     1
1040
0.3
1040
0.7
1040
0.0
1040
10.0
1010
-1.0
1020
-1.0
1030
-1.0
1040
0.3
1070
    49
1070
     0
1070
     0
1010
1.0
1020
1.0
1030
1.0
1040
45.0
1070
     1
1070
     0
1000
WCS
1040
0.0
1002
}
  0
INSERT
  5
7DE1B343D9E0FEF
330
7DE1B343D9E0FD3
100
AcDbEntity
  8
ASHADE
 62
     3
100
AcDbBlockReference
  2
AVE_RENDER
 10
0.0
 20
0.0
 30
0.0
1001
AVE_RENDER
1002
{
1070
     0
1000
Full Opt
1070
     0
1070
     1
1070
     1
1070
     1
1070
     0
1070
     0
1070
     0
1070
     1
1070
     1
1040
0.0001
1040
0.0001
1002
}
  0
INSERT
  5
7DE1B343D9E0FF0
330
7DE1B343D9E0FD3
100
AcDbEntity
  8
ASHADE
 62
     4
100
AcDbBlockReference
  2
AVE_RENDER
 10
0.0
 20
0.0
 30
0.0
1001
AVE_RENDER
1002
{
1070
     0
1000
Quick Opt
1070
     0
1070
     1
1070
     1
1070
     1
1070
     0
1070
     0
1070
     1
1002
}
  0
INSERT
  5
7DE1B343D9E0FF1
330
7DE1B343D9E0FD3
100
AcDbEntity
  8
ASHADE
 62
     5
100
AcDbBlockReference
  2
AVE_RENDER
 10
0.0
 20
0.0
 30
0.0
1001
AVE_RENDER
1002
{
1070
     1
1000
Scanl Opt
1070
     2
1070
     0
1070
     2
1040
2.0
1040
4.0
1070
     0
1070
     1
1070
     0
1040
0.03
1002
}
  0
INSERT
  5
7DE1B343D9E0FF2
330
7DE1B343D9E0FD3
100
AcDbEntity
  8
ASHADE
 62
     6
100
AcDbBlockReference
  2
AVE_RENDER
 10
0.0
 20
0.0
 30
0.0
1001
AVE_RENDER
1002
{
1070
     2
1000
Raytr Opt
1070
     2
1070
     0
1070
     2
1040
2.0
1040
4.0
1070
     0
1070
     1
1070
     1
1040
0.03
1070
     3
1040
0.03
1002
}
  0
INSERT
  5
7DE1B343D9E0FF3
330
7DE1B343D9E0FD3
100
AcDbEntity
  8
ASHADE
 62
     7
100
AcDbBlockReference
  2
AVE_RENDER
 10
0.0
 20
0.0
 30
0.0
1001
AVE_RENDER
1002
{
1070
     0
1000
RFile Opt
1070
     5
1070
   640
1070
   480
1070
 10000
1070
     3
1070
    32
1070
    24
1070
     0
1070
     0
1070
     0
1070
     1
1070
     0
1070
     0
1070
     0
1002
}
  0
INSERT
  5
7DE1B343D9E0FF4
330
7DE1B343D9E0FD3
100
AcDbEntity
  8
ASHADE
 62
     8
100
AcDbBlockReference
  2
AVE_RENDER
 10
0.0
 20
0.0
 30
0.0
1001
AVE_RENDER
1002
{
1070
     0
1000
Fog Opt
1070
     0
1070
     0
1040
0.0
1040
1.0
1040
0.0
1040
1.0
1010
0.5
1020
0.5
1030
0.5
1002
}
  0
INSERT
  5
7DE1B343D9E0FF5
330
7DE1B343D9E0FD3
100
AcDbEntity
  8
ASHADE
 62
     9
100
AcDbBlockReference
  2
AVE_RENDER
 10
0.0
 20
0.0
 30
0.0
1001
AVE_RENDER
1002
{
1070
     0
1000
BG Opt
1070
     0
1070
     1
1010
0.0
1020
0.0
1030
0.0
1010
1.0
1020
0.0
1030
0.0
1010
0.0
1020
1.0
1030
0.0
1010
0.0
1020
0.0
1030
1.0
1040
0.5
1040
0.33
1040
0.0
1000

1070
     1
1000

1070
     1
1070
     1
1040
1.0
1040
1.0
1040
0.0
1040
0.0
1070
     0
1002
}
  0
INSERT
  5
7DE1B343D9E0FFC
330
7DE1B343D9E0FD3
100
AcDbEntity
  8
ASHADE
 62
     1
100
AcDbBlockReference
  2
AVE_GLOBAL
 10
0.0
 20
0.0
 30
0.0
1001
AVE_MATERIAL
1002
{
1000
*GLOBAL*
1000
1
1000
Global finish.
1002
{
1002
}
1002
{
1070
    63
1002
{
1002
{
1010
-1.0
1020
-1.0
1030
-1.0
1002
}
1040
0.1000000014901161
1000

1040
0.0
1002
{
1002
}
1040
0.0
1002
{
1002
}
1040
0.0
1002
}
1002
{
1002
{
1010
-1.0
1020
-1.0
1030
-1.0
1002
}
1040
0.6999999880790711
1000

1040
0.0
1002
{
1002
}
1040
0.0
1002
{
1002
}
1040
0.0
1002
}
1002
{
1002
{
1010
-1.0
1020
-1.0
1030
-1.0
1002
}
1040
0.2000000029802322
1000

1040
0.0
1002
{
1002
}
1040
0.0
1002
{
1002
}
1040
0.0
1002
}
1002
{
1070
     0
1002
{
1070
     1
1002
{
1040
1.0
1040
1.0
1000

1040
0.0
1002
{
1002
}
1040
0.0
1002
{
1002
}
1040
0.0
1002
}
1002
}
1040
1.0
1040
0.0
1040
0.0
1002
}
1002
{
1040
1.0
1040
1.0
1000

1040
0.0
1002
{
1002
}
1040
0.0
1002
{
1002
}
1040
0.0
1002
}
1002
{
1040
0.5
1040
1.0
1000

1040
0.0
1002
{
1002
}
1040
0.0
1002
{
1002
}
1040
0.0
1002
}
1002
{
1070
     0
1040
0.0
1002
{
1002
}
1040
1.0
1002
{
1002
}
1040
0.0
1002
}
1002
{
1040
0.0
1002
{
1002
{
1010
0.0
1020
0.0
1030
0.0
1002
}
1040
1.0
1000

1040
0.0
1002
{
1002
}
1040
0.0
1002
{
1002
}
1040
0.0
1002
}
1002
}
1002
{
1002
{
1070
     1
1002
{
1040
0.0
1040
1.0
1000

1040
0.0
1002
{
1002
}
1040
0.0
1002
{
1002
}
1040
0.0
1002
}
1002
}
1040
0.0
1002
{
1002
}
1010
1.0
1020
0.0
1030
0.0
1010
0.0
1020
1.0
1030
0.0
1010
0.0
1020
0.0
1030
1.0
1070
     0
1002
}
1002
{
1002
{
1040
1.0
1040
1.0
1002
{
1070
     1
1002
{
1040
1.0
1040
1.0
1000

1040
0.0
1002
{
1002
}
1040
0.0
1002
{
1002
}
1040
0.0
1002
}
1002
}
1002
}
1070
     0
1040
0.0
1002
{
1002
}
1002
}
1002
{
1002
}
1002
}
1002
{
1071
        3
1070
     3
1070
     0
1002
{
1070
     2
1070
     0
1070
     0
1040
0.0
1002
}
1070
     0
1070
     2
1002
{
1002
}
1002
}
1002
{
1040
8030.0
1040
190.3000030517578
1040
0.3050000071525574
1040
228.0
1040
545.0
1040
14.0
1040
17.39999961853027
1040
0.4560000002384186
1002
}
1002
}
  0
ENDSEC
  0
SECTION
  2
OBJECTS
  0
DICTIONARY
  5
7DE1B343D9E0FC7
330
0
100
AcDbDictionary
  3
ACAD_GROUP
350
7DE1B343D9E0FC8
  3
ACAD_LAYOUT
350
7DE1B343D9E1008
  3
ACAD_MLINESTYLE
350
7DE1B343D9E0FC9
  3
ACAD_PLOTSETTINGS
350
7DE1B343D9E1009
  3
ACAD_PLOTSTYLENAME
350
7DE1B343D9E1006
  3
ACDBHEADERROUNDTRIPXREC
350
7DE1B343D9E1013
  3
ACDBVARIABLEDICTIONARY
350
7DE1B343D9E1010
  0
DICTIONARY
  5
7DE1B343D9E1035
330
7DE1B343D9E0FD3
100
AcDbDictionary
280
     1
  3
ACAD_LAYOUTSELFREF
360
7DE1B343D9E1036
  0
DICTIONARY
  5
7DE1B343D9E1033
330
7DE1B343D9E0FD0
100
AcDbDictionary
280
     1
  3
ACAD_LAYOUTSELFREF
360
7DE1B343D9E1034
  0
DICTIONARY
  5
7DE1B343D9E0FC8
102
{ACAD_REACTORS
330
7DE1B343D9E0FC7
102
}
330
7DE1B343D9E0FC7
100
AcDbDictionary
  0
DICTIONARY
  5
7DE1B343D9E1008
102
{ACAD_REACTORS
330
7DE1B343D9E0FC7
102
}
330
7DE1B343D9E0FC7
100
AcDbDictionary
  0
DICTIONARY
  5
7DE1B343D9E0FC9
102
{ACAD_REACTORS
330
7DE1B343D9E0FC7
102
}
330
7DE1B343D9E0FC7
100
AcDbDictionary
  3
STANDARD
350
7DE1B343D9E0FD6
  0
DICTIONARY
  5
7DE1B343D9E1009
102
{ACAD_REACTORS
330
7DE1B343D9E0FC7
102
}
330
7DE1B343D9E0FC7
100
AcDbDictionary
  0
ACDBDICTIONARYWDFLT
  5
7DE1B343D9E1006
102
{ACAD_REACTORS
330
7DE1B343D9E0FC7
102
}
330
7DE1B343D9E0FC7
100
AcDbDictionary
281
     1
  3
Normal
350
7DE1B343D9E1007
100
AcDbDictionaryWithDefault
340
7DE1B343D9E1007
  0
DICTIONARY
  5
7DE1B343D9E1013
102
{ACAD_REACTORS
330
7DE1B343D9E0FC7
102
}
330
7DE1B343D9E0FC7
100
AcDbDictionary
  3
CEPSNTYPE
350
7DE1B343D9E101D
  3
FINGERPRINTGUID
350
7DE1B343D9E101E
  3
HYPERLINKBASE
350
7DE1B343D9E1016
  3
INSUNITS
350
7DE1B343D9E101C
  3
LAYOUTDICT
350
7DE1B343D9E1018
  3
LWETCUNION
350
7DE1B343D9E101B
  3
PLOTSETDICT
350
7DE1B343D9E1019
  3
PLOTSTYLNAMDICT
350
7DE1B343D9E101A
  3
PSVPSCALE
350
7DE1B343D9E1020
  3
PUCSBASE
350
7DE1B343D9E1023
  3
PUCSORGBACK
350
7DE1B343D9E1029
  3
PUCSORGBOTTOM
350
7DE1B343D9E1025
  3
PUCSORGFRONT
350
7DE1B343D9E1028
  3
PUCSORGLEFT
350
7DE1B343D9E1026
  3
PUCSORGRIGHT
350
7DE1B343D9E1027
  3
PUCSORGTOP
350
7DE1B343D9E1024
  3
PUCSORTHOREF
350
7DE1B343D9E1021
  3
PUCSORTHOVIEW
350
7DE1B343D9E1022
  3
STYLESHEET
350
7DE1B343D9E1017
  3
TSTACKALIGN
350
7DE1B343D9E1014
  3
TSTACKSIZE
350
7DE1B343D9E1015
  3
UCSBASE
350
7DE1B343D9E102C
  3
UCSORGBACK
350
7DE1B343D9E1032
  3
UCSORGBOTTOM
350
7DE1B343D9E102E
  3
UCSORGFRONT
350
7DE1B343D9E1031
  3
UCSORGLEFT
350
7DE1B343D9E102F
  3
UCSORGRIGHT
350
7DE1B343D9E1030
  3
UCSORGTOP
350
7DE1B343D9E102D
  3
UCSORTHOREF
350
7DE1B343D9E102A
  3
UCSORTHOVIEW
350
7DE1B343D9E102B
  3
VERSIONGUID
350
7DE1B343D9E101F
  0
DICTIONARY
  5
7DE1B343D9E1010
102
{ACAD_REACTORS
330
7DE1B343D9E0FC7
102
}
330
7DE1B343D9E0FC7
100
AcDbDictionary
  3
DIMASSOC
350
7DE1B343D9E1011
  0
XRECORD
  5
7DE1B343D9E1036
102
{ACAD_REACTORS
330
7DE1B343D9E1035
102
}
330
7DE1B343D9E1035
100
AcDbXrecord
340
7DE1B343D9E0FD3
  0
XRECORD
  5
7DE1B343D9E1034
102
{ACAD_REACTORS
330
7DE1B343D9E1033
102
}
330
7DE1B343D9E1033
100
AcDbXrecord
340
7DE1B343D9E0FD0
  0
MLINESTYLE
  5
7DE1B343D9E0FD6
102
{ACAD_REACTORS
330
7DE1B343D9E0FC9
102
}
330
7DE1B343D9E0FC9
100
AcDbMlineStyle
  2
STANDARD
 70
     0
  3

 62
     0
 51
90.0
 52
90.0
 71
     2
 49
0.5
 62
   256
  6
BYLAYER
 49
-0.5
 62
   256
  6
BYLAYER
  0
ACDBPLACEHOLDER
  5
7DE1B343D9E1007
102
{ACAD_REACTORS
330
7DE1B343D9E1006
102
}
330
7DE1B343D9E1006
100
AcDbPlaceHolder
280
     0
  0
XRECORD
  5
7DE1B343D9E101D
102
{ACAD_REACTORS
330
7DE1B343D9E1013
102
}
330
7DE1B343D9E1013
100
AcDbXrecord
 90
        0
  0
XRECORD
  5
7DE1B343D9E101E
102
{ACAD_REACTORS
330
7DE1B343D9E1013
102
}
330
7DE1B343D9E1013
100
AcDbXrecord
  1
{C6C8C830-8DB5-11D6-88E6-0090279574E7}
  0
XRECORD
  5
7DE1B343D9E1016
102
{ACAD_REACTORS
330
7DE1B343D9E1013
102
}
330
7DE1B343D9E1013
100
AcDbXrecord
  1

  0
XRECORD
  5
7DE1B343D9E101C
102
{ACAD_REACTORS
330
7DE1B343D9E1013
102
}
330
7DE1B343D9E1013
100
AcDbXrecord
 90
        0
  0
XRECORD
  5
7DE1B343D9E1018
102
{ACAD_REACTORS
330
7DE1B343D9E1013
102
}
330
7DE1B343D9E1013
100
AcDbXrecord
340
7DE1B343D9E1008
  0
XRECORD
  5
7DE1B343D9E101B
102
{ACAD_REACTORS
330
7DE1B343D9E1013
102
}
330
7DE1B343D9E1013
100
AcDbXrecord
 90
    14877
  0
XRECORD
  5
7DE1B343D9E1019
102
{ACAD_REACTORS
330
7DE1B343D9E1013
102
}
330
7DE1B343D9E1013
100
AcDbXrecord
340
7DE1B343D9E1009
  0
XRECORD
  5
7DE1B343D9E101A
102
{ACAD_REACTORS
330
7DE1B343D9E1013
102
}
330
7DE1B343D9E1013
100
AcDbXrecord
340
7DE1B343D9E1006
  0
XRECORD
  5
7DE1B343D9E1020
102
{ACAD_REACTORS
330
7DE1B343D9E1013
102
}
330
7DE1B343D9E1013
100
AcDbXrecord
 40
0.0
  0
XRECORD
  5
7DE1B343D9E1023
102
{ACAD_REACTORS
330
7DE1B343D9E1013
102
}
330
7DE1B343D9E1013
100
AcDbXrecord
340
0
  0
XRECORD
  5
7DE1B343D9E1029
102
{ACAD_REACTORS
330
7DE1B343D9E1013
102
}
330
7DE1B343D9E1013
100
AcDbXrecord
 10
0.0
 20
0.0
 30
0.0
  0
XRECORD
  5
7DE1B343D9E1025
102
{ACAD_REACTORS
330
7DE1B343D9E1013
102
}
330
7DE1B343D9E1013
100
AcDbXrecord
 10
0.0
 20
0.0
 30
0.0
  0
XRECORD
  5
7DE1B343D9E1028
102
{ACAD_REACTORS
330
7DE1B343D9E1013
102
}
330
7DE1B343D9E1013
100
AcDbXrecord
 10
0.0
 20
0.0
 30
0.0
  0
XRECORD
  5
7DE1B343D9E1026
102
{ACAD_REACTORS
330
7DE1B343D9E1013
102
}
330
7DE1B343D9E1013
100
AcDbXrecord
 10
0.0
 20
0.0
 30
0.0
  0
XRECORD
  5
7DE1B343D9E1027
102
{ACAD_REACTORS
330
7DE1B343D9E1013
102
}
330
7DE1B343D9E1013
100
AcDbXrecord
 10
0.0
 20
0.0
 30
0.0
  0
XRECORD
  5
7DE1B343D9E1024
102
{ACAD_REACTORS
330
7DE1B343D9E1013
102
}
330
7DE1B343D9E1013
100
AcDbXrecord
 10
0.0
 20
0.0
 30
0.0
  0
XRECORD
  5
7DE1B343D9E1021
102
{ACAD_REACTORS
330
7DE1B343D9E1013
102
}
330
7DE1B343D9E1013
100
AcDbXrecord
340
0
  0
XRECORD
  5
7DE1B343D9E1022
102
{ACAD_REACTORS
330
7DE1B343D9E1013
102
}
330
7DE1B343D9E1013
100
AcDbXrecord
 70
     0
  0
XRECORD
  5
7DE1B343D9E1017
102
{ACAD_REACTORS
330
7DE1B343D9E1013
102
}
330
7DE1B343D9E1013
100
AcDbXrecord
  1

  0
XRECORD
  5
7DE1B343D9E1014
102
{ACAD_REACTORS
330
7DE1B343D9E1013
102
}
330
7DE1B343D9E1013
100
AcDbXrecord
 90
        1
  0
XRECORD
  5
7DE1B343D9E1015
102
{ACAD_REACTORS
330
7DE1B343D9E1013
102
}
330
7DE1B343D9E1013
100
AcDbXrecord
 90
       70
  0
XRECORD
  5
7DE1B343D9E102C
102
{ACAD_REACTORS
330
7DE1B343D9E1013
102
}
330
7DE1B343D9E1013
100
AcDbXrecord
340
0
  0
XRECORD
  5
7DE1B343D9E1032
102
{ACAD_REACTORS
330
7DE1B343D9E1013
102
}
330
7DE1B343D9E1013
100
AcDbXrecord
 10
0.0
 20
0.0
 30
0.0
  0
XRECORD
  5
7DE1B343D9E102E
102
{ACAD_REACTORS
330
7DE1B343D9E1013
102
}
330
7DE1B343D9E1013
100
AcDbXrecord
 10
0.0
 20
0.0
 30
0.0
  0
XRECORD
  5
7DE1B343D9E1031
102
{ACAD_REACTORS
330
7DE1B343D9E1013
102
}
330
7DE1B343D9E1013
100
AcDbXrecord
 10
0.0
 20
0.0
 30
0.0
  0
XRECORD
  5
7DE1B343D9E102F
102
{ACAD_REACTORS
330
7DE1B343D9E1013
102
}
330
7DE1B343D9E1013
100
AcDbXrecord
 10
0.0
 20
0.0
 30
0.0
  0
XRECORD
  5
7DE1B343D9E1030
102
{ACAD_REACTORS
330
7DE1B343D9E1013
102
}
330
7DE1B343D9E1013
100
AcDbXrecord
 10
0.0
 20
0.0
 30
0.0
  0
XRECORD
  5
7DE1B343D9E102D
102
{ACAD_REACTORS
330
7DE1B343D9E1013
102
}
330
7DE1B343D9E1013
100
AcDbXrecord
 10
0.0
 20
0.0
 30
0.0
  0
XRECORD
  5
7DE1B343D9E102A
102
{ACAD_REACTORS
330
7DE1B343D9E1013
102
}
330
7DE1B343D9E1013
100
AcDbXrecord
340
0
  0
XRECORD
  5
7DE1B343D9E102B
102
{ACAD_REACTORS
330
7DE1B343D9E1013
102
}
330
7DE1B343D9E1013
100
AcDbXrecord
 70
     0
  0
XRECORD
  5
7DE1B343D9E101F
102
{ACAD_REACTORS
330
7DE1B343D9E1013
102
}
330
7DE1B343D9E1013
100
AcDbXrecord
  1
{C6C8C832-8DB5-11D6-88E6-0090279574E7}
  0
DICTIONARYVAR
  5
7DE1B343D9E1011
102
{ACAD_REACTORS
330
7DE1B343D9E1010
102
}
330
7DE1B343D9E1010
100
DictionaryVariables
280
     0
  1
1
  0
ENDSEC
  0
EOF
