  0
SECTION
  2
HEADER
  9
$ACADVER
  1
AC1014
  9
$ACADMAINTVER
 70
     9
  9
$DWGCODEPAGE
  3
ANSI_1252
  9
$INSBASE
 10
1.942073183559395
 20
1.587343306450631
 30
0.0
  9
$EXTMIN
 10
0.1849725324908286
 20
0.6445831562187157
 30
0.0
  9
$EXTMAX
 10
3.670191854237956
 20
1.801428205338183
 30
0.0
  9
$LIMMIN
 10
0.0
 20
0.0
  9
$LIMMAX
 10
18.0
 20
12.0
  9
$ORTHOMODE
 70
     1
  9
$REGENMODE
 70
     1
  9
$FILLMODE
 70
     1
  9
$QTEXTMODE
 70
     0
  9
$MIRRTEXT
 70
     0
  9
$DRAGMODE
 70
     2
  9
$LTSCALE
 40
1.0
  9
$OSMODE
 70
    39
  9
$ATTMODE
 70
     1
  9
$TEXTSIZE
 40
0.125
  9
$TRACEWID
 40
0.05
  9
$TEXTSTYLE
  7
ROMANS
  9
$CLAYER
  8
0
  9
$CELTYPE
  6
BYLAYER
  9
$CECOLOR
 62
   256
  9
$CELTSCALE
 40
1.0
  9
$DELOBJ
 70
     1
  9
$DISPSILH
 70
     1
  9
$DIMSCALE
 40
1.0
  9
$DIMASZ
 40
0.125
  9
$DIMEXO
 40
0.125
  9
$DIMDLI
 40
0.375
  9
$DIMRND
 40
0.0
  9
$DIMDLE
 40
0.0
  9
$DIMEXE
 40
0.125
  9
$DIMTP
 40
0.0
  9
$DIMTM
 40
0.0
  9
$DIMTXT
 40
0.125
  9
$DIMCEN
 40
-0.125
  9
$DIMTSZ
 40
0.0
  9
$DIMTOL
 70
     0
  9
$DIMLIM
 70
     0
  9
$DIMTIH
 70
     1
  9
$DIMTOH
 70
     1
  9
$DIMSE1
 70
     0
  9
$DIMSE2
 70
     0
  9
$DIMTAD
 70
     0
  9
$DIMZIN
 70
     4
  9
$DIMBLK
  1

  9
$DIMASO
 70
     1
  9
$DIMSHO
 70
     1
  9
$DIMPOST
  1

  9
$DIMAPOST
  1

  9
$DIMALT
 70
     0
  9
$DIMALTD
 70
     2
  9
$DIMALTF
 40
25.4
  9
$DIMLFAC
 40
1.0
  9
$DIMTOFL
 70
     0
  9
$DIMTVP
 40
0.0
  9
$DIMTIX
 70
     1
  9
$DIMSOXD
 70
     0
  9
$DIMSAH
 70
     0
  9
$DIMBLK1
  1

  9
$DIMBLK2
  1

  9
$DIMSTYLE
  2
STANDARD
  9
$DIMCLRD
 70
     0
  9
$DIMCLRE
 70
     0
  9
$DIMCLRT
 70
     0
  9
$DIMTFAC
 40
1.0
  9
$DIMGAP
 40
0.09
  9
$DIMJUST
 70
     0
  9
$DIMSD1
 70
     0
  9
$DIMSD2
 70
     0
  9
$DIMTOLJ
 70
     1
  9
$DIMTZIN
 70
     4
  9
$DIMALTZ
 70
     0
  9
$DIMALTTZ
 70
     0
  9
$DIMFIT
 70
     3
  9
$DIMUPT
 70
     0
  9
$DIMUNIT
 70
     2
  9
$DIMDEC
 70
     3
  9
$DIMTDEC
 70
     3
  9
$DIMALTU
 70
     2
  9
$DIMALTTD
 70
     2
  9
$DIMTXSTY
  7
ROMANS
  9
$DIMAUNIT
 70
     0
  9
$LUNITS
 70
     2
  9
$LUPREC
 70
     3
  9
$SKETCHINC
 40
0.1
  9
$FILLETRAD
 40
0.03125
  9
$AUNITS
 70
     0
  9
$AUPREC
 70
     0
  9
$MENU
  1
ACAD
  9
$ELEVATION
 40
0.0
  9
$PELEVATION
 40
0.0
  9
$THICKNESS
 40
0.0
  9
$LIMCHECK
 70
     0
  9
$BLIPMODE
 70
     0
  9
$CHAMFERA
 40
0.0
  9
$CHAMFERB
 40
0.0
  9
$CHAMFERC
 40
0.0
  9
$CHAMFERD
 40
0.0
  9
$SKPOLY
 70
     0
  9
$TDCREATE
 40
2448994.532337268
  9
$TDUPDATE
 40
2452458.304256226
  9
$TDINDWG
 40
0.0006081713
  9
$TDUSRTIMER
 40
0.0006081713
  9
$USRTIMER
 70
     1
  9
$ANGBASE
 50
0.0
  9
$ANGDIR
 70
     0
  9
$PDMODE
 70
     0
  9
$PDSIZE
 40
0.0
  9
$PLINEWID
 40
0.0
  9
$COORDS
 70
     2
  9
$SPLFRAME
 70
     0
  9
$SPLINETYPE
 70
     6
  9
$SPLINESEGS
 70
     8
  9
$ATTDIA
 70
     0
  9
$ATTREQ
 70
     1
  9
$HANDLING
 70
 22529
  9
$HANDSEED
  5
7DE1B343D9E0BF1
  9
$SURFTAB1
 70
     6
  9
$SURFTAB2
 70
     6
  9
$SURFTYPE
 70
     6
  9
$SURFU
 70
     6
  9
$SURFV
 70
     6
  9
$UCSNAME
  2

  9
$UCSORG
 10
0.0
 20
0.0
 30
0.0
  9
$UCSXDIR
 10
1.0
 20
0.0
 30
0.0
  9
$UCSYDIR
 10
0.0
 20
1.0
 30
0.0
  9
$PUCSNAME
  2

  9
$PUCSORG
 10
0.0
 20
0.0
 30
0.0
  9
$PUCSXDIR
 10
1.0
 20
0.0
 30
0.0
  9
$PUCSYDIR
 10
0.0
 20
1.0
 30
0.0
  9
$USERI1
 70
     0
  9
$USERI2
 70
     0
  9
$USERI3
 70
     0
  9
$USERI4
 70
     0
  9
$USERI5
 70
     0
  9
$USERR1
 40
0.0
  9
$USERR2
 40
0.0
  9
$USERR3
 40
0.0
  9
$USERR4
 40
0.0
  9
$USERR5
 40
0.0
  9
$WORLDVIEW
 70
     1
  9
$SHADEDGE
 70
     3
  9
$SHADEDIF
 70
    70
  9
$TILEMODE
 70
     1
  9
$MAXACTVP
 70
    16
  9
$PINSBASE
 10
0.8256622508159997
 20
50.00000000000001
 30
0.5762195067181592
  9
$PLIMCHECK
 70
     0
  9
$PEXTMIN
 10
1.000000000000000E+20
 20
1.000000000000000E+20
 30
1.000000000000000E+20
  9
$PEXTMAX
 10
-1.000000000000000E+20
 20
-1.000000000000000E+20
 30
-1.000000000000000E+20
  9
$PLIMMIN
 10
0.0
 20
0.0
  9
$PLIMMAX
 10
12.0
 20
9.0
  9
$UNITMODE
 70
     0
  9
$VISRETAIN
 70
     0
  9
$PLINEGEN
 70
     1
  9
$PSLTSCALE
 70
     0
  9
$TREEDEPTH
 70
  3020
  9
$PICKSTYLE
 70
     1
  9
$CMLSTYLE
  2
STANDARD
  9
$CMLJUST
 70
     0
  9
$CMLSCALE
 40
1.0
  9
$PROXYGRAPHICS
 70
     1
  9
$MEASUREMENT
 70
     0
  0
ENDSEC
  0
SECTION
  2
CLASSES
  0
CLASS
  1
LWPOLYLINE
  2
AcDbPolyline
  3
AutoCAD 2000
 90
        0
280
     0
281
     1
  0
CLASS
  1
ACDBDICTIONARYWDFLT
  2
AcDbDictionaryWithDefault
  3
AutoCAD 2000
 90
        0
280
     0
281
     0
  0
CLASS
  1
ACDBPLACEHOLDER
  2
AcDbPlaceHolder
  3
AutoCAD 2000
 90
        0
280
     0
281
     0
  0
CLASS
  1
LAYOUT
  2
AcDbLayout
  3
AutoCAD 2000
 90
        0
280
     0
281
     0
  0
CLASS
  1
DICTIONARYVAR
  2
AcDbDictionaryVar
  3
AutoCAD 2000
 90
        0
280
     0
281
     0
  0
CLASS
  1
LONG_TRANSACTION
  2
AcDbLongTransaction
  3
AutoCAD 2000
 90
        0
280
     0
281
     0
  0
CLASS
  1
LWPOLYLINE
  2
AcDbPolyline
  3
AutoCAD 2000
 90
        0
280
     0
281
     1
  0
CLASS
  1
HATCH
  2
AcDbHatch
  3
AutoCAD 2000
 90
        0
280
     0
281
     1
  0
CLASS
  1
XRECORD
  2
AcDbXrecord
  3
AutoCAD 2000
 90
        0
280
     0
281
     0
  0
ENDSEC
  0
SECTION
  2
TABLES
  0
TABLE
  2
VPORT
  5
7DE1B343D9E0B97
330
0
100
AcDbSymbolTable
 70
     2
  0
VPORT
  5
7DE1B343D9E0BCC
330
7DE1B343D9E0B97
100
AcDbSymbolTableRecord
100
AcDbViewportTableRecord
  2
*ACTIVE
 70
     0
 10
0.0
 20
0.0
 11
1.0
 21
1.0
 12
4.902715344783601
 22
1.223236106363167
 13
0.0
 23
0.0
 14
0.015625
 24
0.015625
 15
0.0
 25
0.0
 16
0.0
 26
0.0
 36
1.0
 17
0.0
 27
0.0
 37
0.0
 40
2.281748181188984
 41
4.320930232558139
 42
50.0
 43
0.0
 44
0.0
 50
0.0
 51
0.0
 71
     0
 72
  2000
 73
     1
 74
     0
 75
     0
 76
     0
 77
     0
 78
     0
  0
ENDTAB
  0
TABLE
  2
LTYPE
  5
7DE1B343D9E0B94
330
0
100
AcDbSymbolTable
 70
     1
  0
LTYPE
  5
7DE1B343D9E0BA1
330
7DE1B343D9E0B94
100
AcDbSymbolTableRecord
100
AcDbLinetypeTableRecord
  2
BYBLOCK
 70
     0
  3

 72
    65
 73
     0
 40
0.0
  0
LTYPE
  5
7DE1B343D9E0BA2
330
7DE1B343D9E0B94
100
AcDbSymbolTableRecord
100
AcDbLinetypeTableRecord
  2
BYLAYER
 70
     0
  3

 72
    65
 73
     0
 40
0.0
  0
LTYPE
  5
7DE1B343D9E0BA3
330
7DE1B343D9E0B94
100
AcDbSymbolTableRecord
100
AcDbLinetypeTableRecord
  2
CONTINUOUS
 70
     0
  3
Solid line
 72
    65
 73
     0
 40
0.0
  0
ENDTAB
  0
TABLE
  2
LAYER
  5
7DE1B343D9E0B91
330
0
100
AcDbSymbolTable
 70
     3
  0
LAYER
  5
7DE1B343D9E0B9E
330
7DE1B343D9E0B91
100
AcDbSymbolTableRecord
100
AcDbLayerTableRecord
  2
0
 70
     0
 62
     7
  6
CONTINUOUS
  0
LAYER
  5
7DE1B343D9E0BAE
330
7DE1B343D9E0B91
100
AcDbSymbolTableRecord
100
AcDbLayerTableRecord
  2
SCALE
 70
     0
 62
     7
  6
CONTINUOUS
  0
LAYER
  5
7DE1B343D9E0BAF
330
7DE1B343D9E0B91
100
AcDbSymbolTableRecord
100
AcDbLayerTableRecord
  2
TEXT
 70
     0
 62
     3
  6
CONTINUOUS
  0
ENDTAB
  0
TABLE
  2
STYLE
  5
7DE1B343D9E0B92
330
0
100
AcDbSymbolTable
 70
     3
  0
STYLE
  5
7DE1B343D9E0B9F
330
7DE1B343D9E0B92
100
AcDbSymbolTableRecord
100
AcDbTextStyleTableRecord
  2
STANDARD
 70
     0
 40
0.0
 41
1.0
 50
0.0
 71
     0
 42
0.3125
  3
txt
  4

  0
STYLE
  5
7DE1B343D9E0BAB
330
7DE1B343D9E0B92
100
AcDbSymbolTableRecord
100
AcDbTextStyleTableRecord
  2
ITALICC
 70
     0
 40
0.0
 41
1.0
 50
0.0
 71
     0
 42
0.125
  3
italicc
  4

  0
STYLE
  5
7DE1B343D9E0BBC
330
7DE1B343D9E0B92
100
AcDbSymbolTableRecord
100
AcDbTextStyleTableRecord
  2
ROMANS
 70
     0
 40
0.0
 41
1.0
 50
0.0
 71
     0
 42
0.125
  3
romans.shx
  4

  0
ENDTAB
  0
TABLE
  2
VIEW
  5
7DE1B343D9E0B95
330
0
100
AcDbSymbolTable
 70
     0
  0
ENDTAB
  0
TABLE
  2
UCS
  5
7DE1B343D9E0B96
330
0
100
AcDbSymbolTable
 70
     0
  0
ENDTAB
  0
TABLE
  2
APPID
  5
7DE1B343D9E0B98
330
0
100
AcDbSymbolTable
 70
     1
  0
APPID
  5
7DE1B343D9E0BA0
330
7DE1B343D9E0B98
100
AcDbSymbolTableRecord
100
AcDbRegAppTableRecord
  2
ACAD
 70
     0
  0
ENDTAB
  0
TABLE
  2
DIMSTYLE
  5
7DE1B343D9E0B99
330
0
100
AcDbSymbolTable
 70
     1
  0
DIMSTYLE
105
7DE1B343D9E0BB4
330
7DE1B343D9E0B99
100
AcDbSymbolTableRecord
100
AcDbDimStyleTableRecord
  2
STANDARD
 70
     0
  3

  4

  5

  6

  7

 40
1.0
 41
0.125
 42
0.125
 43
0.375
 44
0.125
 45
0.0
 46
0.0
 47
0.0
 48
0.0
140
0.125
141
-0.125
142
0.0
143
25.4
144
1.0
145
0.0
146
1.0
147
0.09
 71
     0
 72
     0
 73
     1
 74
     1
 75
     0
 76
     0
 77
     0
 78
     4
170
     0
171
     2
172
     0
173
     0
174
     1
175
     0
176
     0
177
     0
178
     0
270
     2
271
     3
272
     3
273
     2
274
     2
340
7DE1B343D9E0BBC
275
     0
280
     0
281
     0
282
     0
283
     1
284
     4
285
     0
286
     0
287
     3
288
     0
  0
ENDTAB
  0
TABLE
  2
BLOCK_RECORD
  5
7DE1B343D9E0B90
330
0
100
AcDbSymbolTable
 70
     0
  0
BLOCK_RECORD
  5
7DE1B343D9E0BA7
102
{ACAD_XDICTIONARY
360
7DE1B343D9E0BEF
102
}
330
7DE1B343D9E0B90
100
AcDbSymbolTableRecord
100
AcDbBlockTableRecord
  2
*MODEL_SPACE
  0
BLOCK_RECORD
  5
7DE1B343D9E0BA4
102
{ACAD_XDICTIONARY
360
7DE1B343D9E0BED
102
}
330
7DE1B343D9E0B90
100
AcDbSymbolTableRecord
100
AcDbBlockTableRecord
  2
*PAPER_SPACE
  0
ENDTAB
  0
ENDSEC
  0
SECTION
  2
BLOCKS
  0
BLOCK
  5
7DE1B343D9E0BB2
330
7DE1B343D9E0BA7
100
AcDbEntity
  8
0
100
AcDbBlockBegin
  2
*MODEL_SPACE
 70
     0
 10
0.0
 20
0.0
 30
0.0
  3
*MODEL_SPACE
  1

  0
ENDBLK
  5
7DE1B343D9E0BB3
330
7DE1B343D9E0BA7
100
AcDbEntity
  8
0
100
AcDbBlockEnd
  0
BLOCK
  5
7DE1B343D9E0BB0
330
7DE1B343D9E0BA4
100
AcDbEntity
 67
     1
  8
0
100
AcDbBlockBegin
  2
*PAPER_SPACE
 70
     0
 10
0.0
 20
0.0
 30
0.0
  3
*PAPER_SPACE
  1

  0
ENDBLK
  5
7DE1B343D9E0BB1
330
7DE1B343D9E0BA4
100
AcDbEntity
 67
     1
  8
0
100
AcDbBlockEnd
  0
ENDSEC
  0
SECTION
  2
ENTITIES
  0
LWPOLYLINE
  5
7DE1B343D9DF7BF
330
7DE1B343D9E0BA7
100
AcDbEntity
  8
SCALE
100
AcDbPolyline
 90
       22
 70
     1
 43
0.0
 10
2.014082152798136
 20
1.737357137526315
 42
0.4142135623730948
 10
1.982832152798136
 20
1.706107137526315
 10
1.982832152798136
 20
1.449928316820338
 10
2.013100773277026
 20
1.399552872798269
 42
-0.6021648687038392
 10
2.003967488056378
 20
1.38441827491804
 10
1.702832152798135
 20
1.401357137526317
 10
1.401696817539895
 20
1.384418274918041
 42
-0.6021648687038395
 10
1.392563532319248
 20
1.39955287279827
 10
1.438111329748672
 20
1.475357137526318
 10
1.563111329748647
 20
1.475357137526369
 42
0.1289233143051436
 10
1.573469122340243
 20
1.463357137526317
 10
1.873582152798134
 20
1.463357137526315
 42
0.4142135623730954
 10
1.904832152798134
 20
1.494607137526316
 10
1.904832152798135
 20
1.789357137526318
 42
-0.4142135623730943
 10
1.914832152798135
 20
1.799357137526317
 10
2.457332152798136
 20
1.799357137526317
 42
-0.4142135623730951
 10
2.467332152798136
 20
1.789357137526318
 10
2.467332152798136
 20
1.747357137526316
 42
-0.4142135623730951
 10
2.457332152798136
 20
1.737357137526316
 10
2.196082152798136
 20
1.737357137526316
 10
2.186082152798136
 20
1.747357137526316
 10
2.176082152798136
 20
1.737357137526316
  0
TEXT
  5
7DE1B343D9E0A52
330
7DE1B343D9E0BA7
100
AcDbEntity
  8
TEXT
100
AcDbText
 10
1.174977921241781
 20
1.102601760301297
 30
0.0
 40
0.125
  1
PART #110268
  7
ITALICC
 72
     1
 11
1.927954111717971
 21
1.102601760301297
 31
0.0
100
AcDbText
  0
TEXT
  5
7DE1B343D9E0A53
330
7DE1B343D9E0BA7
100
AcDbEntity
  8
TEXT
100
AcDbText
 10
2.341259269968292
 20
0.6556791176289221
 30
0.0
 40
0.0522247191011236
  1
Phone  1-800-328-2495
 41
1.272321428571429
 72
     5
 11
3.670191854237956
 21
0.6556791176289221
 31
0.0
100
AcDbText
  0
TEXT
  5
7DE1B343D9E0A54
330
7DE1B343D9E0BA7
100
AcDbEntity
  8
TEXT
100
AcDbText
 10
2.341259269968292
 20
0.9354543985277985
 30
0.0
 40
0.0522247191011236
  1
Stylmark  Incorporated
 41
1.221428571428573
 72
     5
 11
3.670191854237956
 21
0.9354543985277985
 31
0.0
100
AcDbText
  0
TEXT
  5
7DE1B343D9E0A55
330
7DE1B343D9E0BA7
100
AcDbEntity
  8
TEXT
100
AcDbText
 10
2.341259269968292
 20
0.8421959715615063
 30
0.0
 40
0.0522247191011236
  1
6536 Main St. N.E. * P.O. Box 32008
 41
0.8388932496075366
 72
     5
 11
3.670191854237956
 21
0.8421959715615063
 31
0.0
100
AcDbText
  0
TEXT
  5
7DE1B343D9E0A56
330
7DE1B343D9E0BA7
100
AcDbEntity
  8
TEXT
100
AcDbText
 10
2.341259269968292
 20
0.7489375445952142
 30
0.0
 40
0.0522247191011236
  1
Minneapolis, MN 55432-0008
 41
1.11444212721585
 72
     5
 11
3.670191854237956
 21
0.7489375445952142
 31
0.0
100
AcDbText
  0
LWPOLYLINE
  5
7DE1B343D9E0A57
330
7DE1B343D9E0BA7
100
AcDbEntity
  8
TEXT
100
AcDbPolyline
 90
        3
 70
     0
 43
0.0006660908203125
 10
0.1853055779009849
 20
0.7693238802663569
 10
0.1853055779009849
 20
0.6560884408132293
 10
0.2985410173541072
 20
0.6560884408132293
  0
LWPOLYLINE
  5
7DE1B343D9E0A5C
330
7DE1B343D9E0BA7
100
AcDbEntity
  8
TEXT
100
AcDbPolyline
 90
        3
 70
     0
 43
0.0006660908203125
 10
0.2119492107134824
 20
0.7693238802663569
 10
0.2119492107134824
 20
0.6827320736257303
 10
0.2985410173541072
 20
0.6827320736257303
  0
LWPOLYLINE
  5
7DE1B343D9E0A61
330
7DE1B343D9E0BA7
100
AcDbEntity
  8
TEXT
100
AcDbPolyline
 90
        2
 70
     0
 43
0.0001332181640625
 10
0.2585755681353592
 20
0.7793152425710421
 10
0.1853055779009849
 20
0.7693238802663569
  0
LWPOLYLINE
  5
7DE1B343D9E0A65
330
7DE1B343D9E0BA7
100
AcDbEntity
  8
TEXT
100
AcDbPolyline
 90
        2
 70
     0
 43
0.0001332181640625
 10
0.2119492107134824
 20
0.7693238802663569
 10
0.2718973845416097
 20
0.7793152425710421
  0
LWPOLYLINE
  5
7DE1B343D9E0A69
330
7DE1B343D9E0BA7
100
AcDbEntity
  8
TEXT
100
AcDbPolyline
 90
        2
 70
     0
 43
0.0001332181640625
 10
0.2119492107134824
 20
0.6827320736257303
 10
0.2718973845416097
 20
0.7426802474538559
  0
LWPOLYLINE
  5
7DE1B343D9E0A6D
330
7DE1B343D9E0BA7
100
AcDbEntity
  8
TEXT
100
AcDbPolyline
 90
        3
 70
     0
 43
0.0006660908203125
 10
0.2985410173541072
 20
0.9225247689382324
 10
0.1853055779009849
 20
0.9225247689382324
 10
0.1853055779009849
 20
0.8092893294851048
  0
LWPOLYLINE
  5
7DE1B343D9E0A72
330
7DE1B343D9E0BA7
100
AcDbEntity
  8
TEXT
100
AcDbPolyline
 90
        3
 70
     0
 43
0.0006660908203125
 10
0.2985410173541072
 20
0.8958811361257314
 10
0.2119492107134824
 20
0.8958811361257314
 10
0.2119492107134824
 20
0.8092893294851048
  0
LWPOLYLINE
  5
7DE1B343D9E0A77
330
7DE1B343D9E0BA7
100
AcDbEntity
  8
TEXT
100
AcDbPolyline
 90
        2
 70
     0
 43
0.0001332181640625
 10
0.2119492107134824
 20
0.8958811361257314
 10
0.2718973845416079
 20
0.8359329622976058
  0
LWPOLYLINE
  5
7DE1B343D9E0A7B
330
7DE1B343D9E0BA7
100
AcDbEntity
  8
TEXT
100
AcDbPolyline
 90
        2
 70
     0
 43
0.0001332181640625
 10
0.2119492107134824
 20
0.8092893294851048
 10
0.2718973845416079
 20
0.7992979671804161
  0
LWPOLYLINE
  5
7DE1B343D9E0A7F
330
7DE1B343D9E0BA7
100
AcDbEntity
  8
TEXT
100
AcDbPolyline
 90
        2
 70
     0
 43
0.0001332181640625
 10
0.1853055779009849
 20
0.8092893294851048
 10
0.2585755681353592
 20
0.7992979671804161
  0
LWPOLYLINE
  5
7DE1B343D9E0A83
330
7DE1B343D9E0BA7
100
AcDbEntity
  8
TEXT
100
AcDbPolyline
 90
        2
 70
     0
 43
0.0006660908203125
 10
0.2119492107134824
 20
0.7693238802663569
 10
0.1853055779009849
 20
0.7693238802663569
  0
LWPOLYLINE
  5
7DE1B343D9E0A87
330
7DE1B343D9E0BA7
100
AcDbEntity
  8
TEXT
100
AcDbPolyline
 90
        2
 70
     0
 43
0.0006660908203125
 10
0.2119492107134824
 20
0.8092893294851048
 10
0.1853055779009849
 20
0.8092893294851048
  0
LINE
  5
7DE1B343D9E0A8B
330
7DE1B343D9E0BA7
100
AcDbEntity
  8
TEXT
100
AcDbLine
 10
1.700496007027482
 20
0.8582480742814635
 30
0.0
 11
1.593289733640192
 21
0.8582480742814635
 31
0.0
  0
LINE
  5
7DE1B343D9E0A8C
330
7DE1B343D9E0BA7
100
AcDbEntity
  8
TEXT
100
AcDbLine
 10
1.72952690537196
 20
0.9225247689382289
 30
0.0
 11
1.594694996154901
 21
0.9225247689382289
 31
0.0
  0
ARC
  5
7DE1B343D9E0A8D
330
7DE1B343D9E0BA7
100
AcDbEntity
  8
TEXT
100
AcDbCircle
 10
1.654009092548218
 20
0.7532875196752127
 30
0.0
 40
0.0676855811441166
100
AcDbArc
 50
90.0
 51
153.7768192527749
  0
LWPOLYLINE
  5
7DE1B343D9E0A8E
330
7DE1B343D9E0BA7
100
AcDbEntity
  8
TEXT
100
AcDbPolyline
 90
        2
 70
     0
 43
0.0
 10
1.592257238185383
 20
0.6995426809001561
 42
0.2901071551932823
 10
1.635333171053018
 20
0.656051735949718
 42
5.328517124445801
  0
ARC
  5
7DE1B343D9E0A92
330
7DE1B343D9E0BA7
100
AcDbEntity
  8
TEXT
100
AcDbCircle
 10
0.9488777148767329
 20
0.7158441272877678
 30
0.0
 40
0.0601160179737537
100
AcDbArc
 50
180.0000000000003
 51
264.0521544866073
  0
LINE
  5
7DE1B343D9E0A93
330
7DE1B343D9E0BA7
100
AcDbEntity
  8
TEXT
100
AcDbLine
 10
0.9523930705022806
 20
0.9569126865323671
 30
0.0
 11
0.8923504656582736
 21
0.9569126865323671
 31
0.0
  0
ARC
  5
7DE1B343D9E0A94
330
7DE1B343D9E0BA7
100
AcDbEntity
  8
TEXT
100
AcDbCircle
 10
0.7166187127597623
 20
0.8404373094917271
 30
0.0
 40
0.0820874594465043
100
AcDbArc
 50
90.0
 51
270.0
  0
LWPOLYLINE
  5
7DE1B343D9E0A95
330
7DE1B343D9E0BA7
100
AcDbEntity
  8
TEXT
100
AcDbPolyline
 90
        2
 70
     0
 43
0.0001332181640625
 10
0.3085323796587978
 20
0.8492547787038528
 10
0.2985410173541072
 20
0.9225247689382324
  0
LWPOLYLINE
  5
7DE1B343D9E0A99
330
7DE1B343D9E0BA7
100
AcDbEntity
  8
TEXT
100
AcDbPolyline
 90
        2
 70
     0
 43
0.0001332181640625
 10
0.2985410173541072
 20
0.8958811361257314
 10
0.3085323796587978
 20
0.8359329622976058
  0
LWPOLYLINE
  5
7DE1B343D9E0A9D
330
7DE1B343D9E0BA7
100
AcDbEntity
  8
TEXT
100
AcDbPolyline
 90
        3
 70
     0
 43
0.0006660908203125
 10
0.4517419060259847
 20
0.8092893294851048
 10
0.4517419060259847
 20
0.9225247689382324
 10
0.3385064665728588
 20
0.9225247689382324
  0
LWPOLYLINE
  5
7DE1B343D9E0AA2
330
7DE1B343D9E0BA7
100
AcDbEntity
  8
TEXT
100
AcDbPolyline
 90
        3
 70
     0
 43
0.0006660908203125
 10
0.4250982732134836
 20
0.8092893294851048
 10
0.4250982732134836
 20
0.8958811361257314
 10
0.3385064665728588
 20
0.8958811361257314
  0
LWPOLYLINE
  5
7DE1B343D9E0AA7
330
7DE1B343D9E0BA7
100
AcDbEntity
  8
TEXT
100
AcDbPolyline
 90
        2
 70
     0
 43
0.0001332181640625
 10
0.4250982732134836
 20
0.8958811361257314
 10
0.3651500993853598
 20
0.8359329622976058
  0
LWPOLYLINE
  5
7DE1B343D9E0AAB
330
7DE1B343D9E0BA7
100
AcDbEntity
  8
TEXT
100
AcDbPolyline
 90
        2
 70
     0
 43
0.0001332181640625
 10
0.3385064665728588
 20
0.8958811361257314
 10
0.32851510426817
 20
0.8359329622976058
  0
LWPOLYLINE
  5
7DE1B343D9E0AAF
330
7DE1B343D9E0BA7
100
AcDbEntity
  8
TEXT
100
AcDbPolyline
 90
        2
 70
     0
 43
0.0001332181640625
 10
0.3385064665728588
 20
0.9225247689382324
 10
0.32851510426817
 20
0.8492547787038528
  0
LWPOLYLINE
  5
7DE1B343D9E0AB3
330
7DE1B343D9E0BA7
100
AcDbEntity
  8
TEXT
100
AcDbPolyline
 90
        2
 70
     0
 43
0.0001332181640625
 10
0.3784719157916085
 20
0.7992979671804161
 10
0.4517419060259847
 20
0.8092893294851048
  0
LWPOLYLINE
  5
7DE1B343D9E0AB7
330
7DE1B343D9E0BA7
100
AcDbEntity
  8
TEXT
100
AcDbPolyline
 90
        2
 70
     0
 43
0.0001332181640625
 10
0.4250982732134836
 20
0.8092893294851048
 10
0.3651500993853598
 20
0.7992979671804161
  0
LWPOLYLINE
  5
7DE1B343D9E0ABB
330
7DE1B343D9E0BA7
100
AcDbEntity
  8
TEXT
100
AcDbPolyline
 90
        2
 70
     0
 43
0.0001332181640625
 10
0.4517419060259847
 20
0.7693238802663569
 10
0.3784719157916085
 20
0.7793152425710421
  0
LWPOLYLINE
  5
7DE1B343D9E0ABF
330
7DE1B343D9E0BA7
100
AcDbEntity
  8
TEXT
100
AcDbPolyline
 90
        2
 70
     0
 43
0.0001332181640625
 10
0.4250982732134836
 20
0.7693238802663569
 10
0.3651500993853598
 20
0.7793152425710421
  0
LWPOLYLINE
  5
7DE1B343D9E0AC3
330
7DE1B343D9E0BA7
100
AcDbEntity
  8
TEXT
100
AcDbPolyline
 90
        2
 70
     0
 43
0.0001332181640625
 10
0.4250982732134836
 20
0.6827320736257303
 10
0.3651500993853598
 20
0.7426802474538559
  0
LWPOLYLINE
  5
7DE1B343D9E0AC7
330
7DE1B343D9E0BA7
100
AcDbEntity
  8
TEXT
100
AcDbPolyline
 90
        3
 70
     0
 43
0.0006660908203125
 10
0.3385064665728588
 20
0.6827320736257303
 10
0.4250982732134836
 20
0.6827320736257303
 10
0.4250982732134836
 20
0.7693238802663569
  0
LWPOLYLINE
  5
7DE1B343D9E0ACC
330
7DE1B343D9E0BA7
100
AcDbEntity
  8
TEXT
100
AcDbPolyline
 90
        3
 70
     0
 43
0.0006660908203125
 10
0.3385064665728588
 20
0.6560884408132293
 10
0.4517419060259847
 20
0.6560884408132293
 10
0.4517419060259847
 20
0.7693238802663569
  0
LWPOLYLINE
  5
7DE1B343D9E0AD1
330
7DE1B343D9E0BA7
100
AcDbEntity
  8
TEXT
100
AcDbPolyline
 90
        5
 70
     0
 43
0.0001332181640625
 10
0.3085323796587978
 20
0.7293584310476053
 10
0.3085323796587978
 20
0.7426802474538559
 10
0.2718973845416097
 20
0.7426802474538559
 10
0.2718973845416097
 20
0.7793152425710421
 10
0.2585755681353592
 20
0.7793152425710421
  0
LWPOLYLINE
  5
7DE1B343D9E0AD8
330
7DE1B343D9E0BA7
100
AcDbEntity
  8
TEXT
100
AcDbPolyline
 90
        2
 70
     0
 43
0.0006660908203125
 10
0.2985410173541072
 20
0.6827320736257303
 10
0.2985410173541072
 20
0.6560884408132293
  0
LWPOLYLINE
  5
7DE1B343D9E0ADC
330
7DE1B343D9E0BA7
100
AcDbEntity
  8
TEXT
100
AcDbPolyline
 90
        2
 70
     0
 43
0.0001332181640625
 10
0.2985410173541072
 20
0.6827320736257303
 10
0.3085323796587978
 20
0.7426802474538559
  0
LWPOLYLINE
  5
7DE1B343D9E0AE0
330
7DE1B343D9E0BA7
100
AcDbEntity
  8
TEXT
100
AcDbPolyline
 90
        2
 70
     0
 43
0.0001332181640625
 10
0.2985410173541072
 20
0.6560884408132293
 10
0.3085323796587978
 20
0.7293584310476053
  0
LWPOLYLINE
  5
7DE1B343D9E0AE4
330
7DE1B343D9E0BA7
100
AcDbEntity
  8
TEXT
100
AcDbPolyline
 90
        5
 70
     0
 43
0.0001332181640625
 10
0.2585755681353592
 20
0.7992979671804161
 10
0.2718973845416079
 20
0.7992979671804161
 10
0.2718973845416079
 20
0.8359329622976058
 10
0.3085323796587978
 20
0.8359329622976058
 10
0.3085323796587978
 20
0.8492547787038528
  0
LWPOLYLINE
  5
7DE1B343D9E0AEB
330
7DE1B343D9E0BA7
100
AcDbEntity
  8
TEXT
100
AcDbPolyline
 90
        5
 70
     0
 43
0.0001332181640625
 10
0.32851510426817
 20
0.8492547787038528
 10
0.32851510426817
 20
0.8359329622976058
 10
0.3651500993853598
 20
0.8359329622976058
 10
0.3651500993853598
 20
0.7992979671804161
 10
0.3784719157916085
 20
0.7992979671804161
  0
LWPOLYLINE
  5
7DE1B343D9E0AF2
330
7DE1B343D9E0BA7
100
AcDbEntity
  8
TEXT
100
AcDbPolyline
 90
        2
 70
     0
 43
0.0001332181640625
 10
0.3385064665728588
 20
0.6827320736257303
 10
0.32851510426817
 20
0.7426802474538559
  0
LWPOLYLINE
  5
7DE1B343D9E0AF6
330
7DE1B343D9E0BA7
100
AcDbEntity
  8
TEXT
100
AcDbPolyline
 90
        2
 70
     0
 43
0.0001332181640625
 10
0.32851510426817
 20
0.7293584310476053
 10
0.3385064665728588
 20
0.6560884408132293
  0
LWPOLYLINE
  5
7DE1B343D9E0AFA
330
7DE1B343D9E0BA7
100
AcDbEntity
  8
TEXT
100
AcDbPolyline
 90
        2
 70
     0
 43
0.0006660908203125
 10
0.3385064665728588
 20
0.6827320736257303
 10
0.3385064665728588
 20
0.6560884408132293
  0
LWPOLYLINE
  5
7DE1B343D9E0AFE
330
7DE1B343D9E0BA7
100
AcDbEntity
  8
TEXT
100
AcDbPolyline
 90
        5
 70
     0
 43
0.0001332181640625
 10
0.3784719157916085
 20
0.7793152425710421
 10
0.3651500993853598
 20
0.7793152425710421
 10
0.3651500993853598
 20
0.7426802474538559
 10
0.32851510426817
 20
0.7426802474538559
 10
0.32851510426817
 20
0.7293584310476053
  0
LWPOLYLINE
  5
7DE1B343D9E0B05
330
7DE1B343D9E0BA7
100
AcDbEntity
  8
TEXT
100
AcDbPolyline
 90
        2
 70
     0
 43
0.0006660908203125
 10
0.4250982732134836
 20
0.8092893294851048
 10
0.4517419060259847
 20
0.8092893294851048
  0
LWPOLYLINE
  5
7DE1B343D9E0B09
330
7DE1B343D9E0BA7
100
AcDbEntity
  8
TEXT
100
AcDbPolyline
 90
        2
 70
     0
 43
0.0006660908203125
 10
0.4250982732134836
 20
0.7693238802663569
 10
0.4517419060259847
 20
0.7693238802663569
  0
LINE
  5
7DE1B343D9E0B0D
330
7DE1B343D9E0BA7
100
AcDbEntity
  8
TEXT
100
AcDbLine
 10
0.7218560428740095
 20
0.8582480742814635
 30
0.0
 11
0.8887616969029807
 21
0.8582480742814635
 31
0.0
  0
LINE
  5
7DE1B343D9E0B0E
330
7DE1B343D9E0BA7
100
AcDbEntity
  8
TEXT
100
AcDbLine
 10
0.7874561791183106
 20
0.8224433526708356
 30
0.0
 11
0.7218560428740095
 21
0.8224433526708356
 31
0.0
  0
LINE
  5
7DE1B343D9E0B0F
330
7DE1B343D9E0BA7
100
AcDbEntity
  8
TEXT
100
AcDbLine
 10
0.6345312533132579
 20
0.656051735949718
 30
0.0
 11
0.7874561791183106
 21
0.656051735949718
 31
0.0
  0
LINE
  5
7DE1B343D9E0B10
330
7DE1B343D9E0BA7
100
AcDbEntity
  8
TEXT
100
AcDbLine
 10
0.7923965530245903
 20
0.7244087422831573
 30
0.0
 11
0.6345312533132561
 21
0.7244087422831573
 31
0.0
  0
LINE
  5
7DE1B343D9E0B11
330
7DE1B343D9E0BA7
100
AcDbEntity
  8
TEXT
100
AcDbLine
 10
0.7166187127597615
 20
0.7583498500452219
 30
0.0
 11
0.7923965530245903
 21
0.7583498500452219
 31
0.0
  0
ARC
  5
7DE1B343D9E0B12
330
7DE1B343D9E0BA7
100
AcDbEntity
  8
TEXT
100
AcDbCircle
 10
0.7218560428740104
 20
0.8403457134761513
 30
0.0
 40
0.017902360805315
100
AcDbArc
 50
90.0
 51
270.0
  0
LINE
  5
7DE1B343D9E0B13
330
7DE1B343D9E0BA7
100
AcDbEntity
  8
TEXT
100
AcDbLine
 10
0.6345312533132561
 20
0.7244087422831573
 30
0.0
 11
0.6345312533132579
 21
0.656051735949718
 31
0.0
  0
LINE
  5
7DE1B343D9E0B14
330
7DE1B343D9E0BA7
100
AcDbEntity
  8
TEXT
100
AcDbLine
 10
0.8887616969029807
 20
0.8582480742814635
 30
0.0
 11
0.8887616969029807
 21
0.7158441272877678
 31
0.0
  0
ARC
  5
7DE1B343D9E0B15
330
7DE1B343D9E0BA7
100
AcDbEntity
  8
TEXT
100
AcDbCircle
 10
0.7874561791183115
 20
0.7392475443102751
 30
0.0
 40
0.0831958083605586
100
AcDbArc
 50
270.0
 51
90.0
  0
ARC
  5
7DE1B343D9E0B16
330
7DE1B343D9E0BA7
100
AcDbEntity
  8
TEXT
100
AcDbCircle
 10
0.7923965530245911
 20
0.7413792961641914
 30
0.0
 40
0.0169705538810321
100
AcDbArc
 50
270.0
 51
90.0
  0
LWPOLYLINE
  5
7DE1B343D9E0B17
330
7DE1B343D9E0BA7
100
AcDbEntity
  8
TEXT
100
AcDbPolyline
 90
        2
 70
     0
 43
0.0006660908203125
 10
0.2985410173541072
 20
0.8958811361257314
 10
0.2985410173541072
 20
0.9225247689382324
  0
LWPOLYLINE
  5
7DE1B343D9E0B1B
330
7DE1B343D9E0BA7
100
AcDbEntity
  8
TEXT
100
AcDbPolyline
 90
        2
 70
     0
 43
0.0006660908203125
 10
0.3385064665728588
 20
0.8958811361257314
 10
0.3385064665728588
 20
0.9225247689382324
  0
LINE
  5
7DE1B343D9E0B1F
330
7DE1B343D9E0BA7
100
AcDbEntity
  8
TEXT
100
AcDbLine
 10
0.8923504656582736
 20
0.9225247689382289
 30
0.0
 11
0.7166187127597615
 21
0.9225247689382289
 31
0.0
  0
LINE
  5
7DE1B343D9E0B20
330
7DE1B343D9E0BA7
100
AcDbEntity
  8
TEXT
100
AcDbLine
 10
0.8923504656582736
 20
0.9569126865323671
 30
0.0
 11
0.8923504656582736
 21
0.9225247689382289
 31
0.0
  0
LINE
  5
7DE1B343D9E0B21
330
7DE1B343D9E0BA7
100
AcDbEntity
  8
TEXT
100
AcDbLine
 10
1.082822357678125
 20
0.8216527728251083
 30
0.0
 11
1.024192036646188
 21
0.9225247689382289
 31
0.0
  0
LINE
  5
7DE1B343D9E0B22
330
7DE1B343D9E0BA7
100
AcDbEntity
  8
TEXT
100
AcDbLine
 10
1.141570920483991
 20
0.9225247689382289
 30
0.0
 11
1.082822357678125
 21
0.8216527728251083
 31
0.0
  0
LINE
  5
7DE1B343D9E0B23
330
7DE1B343D9E0BA7
100
AcDbEntity
  8
TEXT
100
AcDbLine
 10
1.238501545843732
 20
0.7384395740527172
 30
0.0
 11
1.238501545843732
 21
0.9905362466770395
 31
0.0
  0
LINE
  5
7DE1B343D9E0B24
330
7DE1B343D9E0BA7
100
AcDbEntity
  8
TEXT
100
AcDbLine
 10
1.270813399981392
 20
0.9225247689382289
 30
0.0
 11
1.270813399981392
 21
0.7216605622058207
 31
0.0
  0
LINE
  5
7DE1B343D9E0B25
330
7DE1B343D9E0BA7
100
AcDbEntity
  8
TEXT
100
AcDbLine
 10
1.270813399981392
 20
0.7216605622058207
 30
0.0
 11
1.253819763096791
 21
0.7216605622058207
 31
0.0
  0
LINE
  5
7DE1B343D9E0B26
330
7DE1B343D9E0BA7
100
AcDbEntity
  8
TEXT
100
AcDbLine
 10
1.239641119339927
 20
0.656051735949718
 30
0.0
 11
1.337644453039362
 21
0.656051735949718
 31
0.0
  0
LINE
  5
7DE1B343D9E0B27
330
7DE1B343D9E0BA7
100
AcDbEntity
  8
TEXT
100
AcDbLine
 10
1.073222120681171
 20
0.6760102420547309
 30
0.0
 11
1.170521826774616
 21
0.840360452989999
 31
0.0
  0
ARC
  5
7DE1B343D9E0B28
330
7DE1B343D9E0BA7
100
AcDbEntity
  8
TEXT
100
AcDbCircle
 10
1.039178560768957
 20
0.6955994582234137
 30
0.0
 40
0.0392772371940762
100
AcDbArc
 50
270.1604552698595
 51
330.0831797321295
  0
LINE
  5
7DE1B343D9E0B29
330
7DE1B343D9E0BA7
100
AcDbEntity
  8
TEXT
100
AcDbLine
 10
0.9426483043830863
 20
0.656051735949718
 30
0.0
 11
1.03928855545808
 21
0.6563223750480003
 31
0.0
  0
LWPOLYLINE
  5
7DE1B343D9E0B2A
330
7DE1B343D9E0BA7
100
AcDbEntity
  8
TEXT
100
AcDbPolyline
 90
        6
 70
     1
 43
0.0
 10
0.9851721079582361
 20
0.8582480742814635
 10
0.9548555137380279
 20
0.8582480742814635
 10
0.9548555137380279
 20
0.7351370762265692
 42
0.407328721240804
 10
0.9663991648995043
 20
0.7233181615501831
 10
1.027020863944235
 20
0.7233181615501831
 10
1.044486204351553
 20
0.7561303905936623
  0
LINE
  5
7DE1B343D9E0B32
330
7DE1B343D9E0BA7
100
AcDbEntity
  8
TEXT
100
AcDbLine
 10
1.170521826774616
 20
0.840360452989999
 30
0.0
 11
1.170521826774616
 21
0.7076030781646427
 31
0.0
  0
ARC
  5
7DE1B343D9E0B33
330
7DE1B343D9E0BA7
100
AcDbEntity
  8
TEXT
100
AcDbCircle
 10
1.253819763096789
 20
0.7370423684492462
 30
0.0
 40
0.0153818062434269
100
AcDbArc
 50
174.7883570302258
 51
270.0
  0
LWPOLYLINE
  5
7DE1B343D9E0B34
330
7DE1B343D9E0BA7
100
AcDbEntity
  8
TEXT
100
AcDbPolyline
 90
        2
 70
     0
 43
0.0
 10
1.170521826774614
 20
0.7076030781646463
 42
0.3318488747599744
 10
1.239641119339927
 20
0.656051735949718
 42
-6.868794160588311
  0
LINE
  5
7DE1B343D9E0B38
330
7DE1B343D9E0BA7
100
AcDbEntity
  8
TEXT
100
AcDbLine
 10
1.395033522028623
 20
0.656051735949718
 30
0.0
 11
1.462091568810463
 21
0.656051735949718
 31
0.0
  0
LINE
  5
7DE1B343D9E0B39
330
7DE1B343D9E0BA7
100
AcDbEntity
  8
TEXT
100
AcDbLine
 10
1.395033522028623
 20
0.8506942851153535
 30
0.0
 11
1.395033522028623
 21
0.656051735949718
 31
0.0
  0
LINE
  5
7DE1B343D9E0B3A
330
7DE1B343D9E0BA7
100
AcDbEntity
  8
TEXT
100
AcDbLine
 10
1.337644453039362
 20
0.8582480742814635
 30
0.0
 11
1.387479732862509
 21
0.8582480742814635
 31
0.0
  0
LINE
  5
7DE1B343D9E0B3B
330
7DE1B343D9E0BA7
100
AcDbEntity
  8
TEXT
100
AcDbLine
 10
1.337644453039362
 20
0.656051735949718
 30
0.0
 11
1.337644453039362
 21
0.8582480742814635
 31
0.0
  0
LWPOLYLINE
  5
7DE1B343D9E0B3C
330
7DE1B343D9E0BA7
100
AcDbEntity
  8
TEXT
100
AcDbPolyline
 90
        2
 70
     0
 43
0.0
 10
1.387479732862507
 20
0.8582480742814635
 42
-0.4142135623731017
 10
1.395033522028621
 20
0.8506942851153535
 42
-0.9999999999999998
  0
LINE
  5
7DE1B343D9E0B40
330
7DE1B343D9E0BA7
100
AcDbEntity
  8
TEXT
100
AcDbLine
 10
1.593289733640192
 20
0.8582480742814635
 30
0.0
 11
1.593289733640192
 21
0.7831956682072569
 31
0.0
  0
LINE
  5
7DE1B343D9E0B41
330
7DE1B343D9E0BA7
100
AcDbEntity
  8
TEXT
100
AcDbLine
 10
1.462091568810463
 20
0.8582480742814635
 30
0.0
 11
1.516225165731413
 21
0.8582480742814635
 31
0.0
  0
LINE
  5
7DE1B343D9E0B42
330
7DE1B343D9E0BA7
100
AcDbEntity
  8
TEXT
100
AcDbLine
 10
1.462091568810463
 20
0.656051735949718
 30
0.0
 11
1.462091568810463
 21
0.8582480742814635
 31
0.0
  0
LWPOLYLINE
  5
7DE1B343D9E0B43
330
7DE1B343D9E0BA7
100
AcDbEntity
  8
TEXT
100
AcDbPolyline
 90
        2
 70
     0
 43
0.0
 10
1.516225165731411
 20
0.8582480742814635
 42
-0.4142135623731017
 10
1.523778954897525
 20
0.8506942851153535
 42
-0.9999999999999998
  0
LWPOLYLINE
  5
7DE1B343D9E0B47
330
7DE1B343D9E0BA7
100
AcDbEntity
  8
TEXT
100
AcDbPolyline
 90
        4
 70
     0
 43
0.0
 10
1.523778954897525
 20
0.8506942851153535
 10
1.523778954897525
 20
0.656051735949718
 10
1.592257238185383
 20
0.656051735949718
 10
1.592257238185383
 20
0.6995426809001561
 42
-1.714843617202739
  0
LINE
  5
7DE1B343D9E0B4D
330
7DE1B343D9E0BA7
100
AcDbEntity
  8
TEXT
100
AcDbLine
 10
0.9523930705022806
 20
0.9225247689382289
 30
0.0
 11
0.9523930705022806
 21
0.9569126865323671
 31
0.0
  0
LINE
  5
7DE1B343D9E0B4E
330
7DE1B343D9E0BA7
100
AcDbEntity
  8
TEXT
100
AcDbLine
 10
1.024192036646188
 20
0.9225247689382289
 30
0.0
 11
0.9523930705022806
 21
0.9225247689382289
 31
0.0
  0
LINE
  5
7DE1B343D9E0B4F
330
7DE1B343D9E0BA7
100
AcDbEntity
  8
TEXT
100
AcDbLine
 10
1.171692833277367
 20
0.9225247689382289
 30
0.0
 11
1.141570920483991
 21
0.9225247689382289
 31
0.0
  0
LINE
  5
7DE1B343D9E0B50
330
7DE1B343D9E0BA7
100
AcDbEntity
  8
TEXT
100
AcDbLine
 10
1.171692833277367
 20
0.9905362466770395
 30
0.0
 11
1.171692833277367
 21
0.9225247689382289
 31
0.0
  0
LINE
  5
7DE1B343D9E0B51
330
7DE1B343D9E0BA7
100
AcDbEntity
  8
TEXT
100
AcDbLine
 10
1.238501545843732
 20
0.9905362466770395
 30
0.0
 11
1.171692833277367
 21
0.9905362466770395
 31
0.0
  0
LWPOLYLINE
  5
7DE1B343D9E0B52
330
7DE1B343D9E0BA7
100
AcDbEntity
  8
TEXT
100
AcDbPolyline
 90
        3
 70
     0
 43
0.0
 10
1.558913305441735
 20
0.9225247689382324
 10
1.44061314662569
 20
0.9225247689382324
 10
1.44061314662569
 20
0.8953572721773365
 42
-1.960274751411753
  0
LINE
  5
7DE1B343D9E0B57
330
7DE1B343D9E0BA7
100
AcDbEntity
  8
TEXT
100
AcDbLine
 10
1.404831455912529
 20
0.9225247689382289
 30
0.0
 11
1.270813399981392
 21
0.9225247689382289
 31
0.0
  0
LWPOLYLINE
  5
7DE1B343D9E0B58
330
7DE1B343D9E0BA7
100
AcDbEntity
  8
TEXT
100
AcDbPolyline
 90
        2
 70
     0
 43
0.0
 10
1.404831455912529
 20
0.9225247689382324
 42
-0.3328679258950098
 10
1.44061314662569
 20
0.8953572721773365
 42
6.772930709997214
  0
LINE
  5
7DE1B343D9E0B5C
330
7DE1B343D9E0BA7
100
AcDbEntity
  8
TEXT
100
AcDbLine
 10
1.594694996154901
 20
0.9225247689382289
 30
0.0
 11
1.594694996154901
 21
0.894202223168585
 31
0.0
  0
LWPOLYLINE
  5
7DE1B343D9E0B5D
330
7DE1B343D9E0BA7
100
AcDbEntity
  8
TEXT
100
AcDbPolyline
 90
        2
 70
     0
 43
0.0
 10
1.558913305441735
 20
0.9225247689382324
 42
-0.3277054968067132
 10
1.594694996154899
 20
0.8942022231685886
 42
6.667889725900311
  0
LINE
  5
7DE1B343D9E0B61
330
7DE1B343D9E0BA7
100
AcDbEntity
  8
TEXT
100
AcDbLine
 10
1.808486844247001
 20
0.8173127903848016
 30
0.0
 11
1.7647360730651
 21
0.8995630663809468
 31
0.0
  0
LINE
  5
7DE1B343D9E0B62
330
7DE1B343D9E0BA7
100
AcDbEntity
  8
TEXT
100
AcDbLine
 10
1.808486844247001
 20
0.9225247689382289
 30
0.0
 11
1.808486844247001
 21
0.8173127903848016
 31
0.0
  0
LINE
  5
7DE1B343D9E0B63
330
7DE1B343D9E0BA7
100
AcDbEntity
  8
TEXT
100
AcDbLine
 10
2.03617058318537
 20
0.8466594425266908
 30
0.0
 11
2.03617058318537
 21
0.9879889747058296
 31
0.0
  0
LINE
  5
7DE1B343D9E0B64
330
7DE1B343D9E0BA7
100
AcDbEntity
  8
TEXT
100
AcDbLine
 10
2.083268741741355
 20
0.9225247689382289
 30
0.0
 11
2.03617058318537
 21
0.8466594425266908
 31
0.0
  0
LINE
  5
7DE1B343D9E0B65
330
7DE1B343D9E0BA7
100
AcDbEntity
  8
TEXT
100
AcDbLine
 10
2.093703458505278
 20
0.8126315259972553
 30
0.0
 11
2.158260574470983
 21
0.9225247689382289
 31
0.0
  0
LINE
  5
7DE1B343D9E0B66
330
7DE1B343D9E0BA7
100
AcDbEntity
  8
TEXT
100
AcDbLine
 10
1.972335591962597
 20
0.656051735949718
 30
0.0
 11
2.036713776281218
 21
0.656051735949718
 31
0.0
  0
LWPOLYLINE
  5
7DE1B343D9E0B67
330
7DE1B343D9E0BA7
100
AcDbEntity
  8
TEXT
100
AcDbPolyline
 90
        2
 70
     0
 43
0.0
 10
1.812426521552039
 20
0.6995426809001561
 42
-0.2901071551932486
 10
1.769350588684395
 20
0.656051735949718
 42
-5.328517124445184
  0
ARC
  5
7DE1B343D9E0B6B
330
7DE1B343D9E0BA7
100
AcDbEntity
  8
TEXT
100
AcDbCircle
 10
1.70049600702748
 20
0.8298886992814662
 30
0.0
 40
0.028359375
100
AcDbArc
 50
25.78218179591245
 51
90.0
  0
LINE
  5
7DE1B343D9E0B6C
330
7DE1B343D9E0BA7
100
AcDbEntity
  8
TEXT
100
AcDbLine
 10
1.736297082331603
 20
0.8209731008193312
 30
0.0
 11
1.726032321918039
 21
0.8422236403920255
 31
0.0
  0
LINE
  5
7DE1B343D9E0B6D
330
7DE1B343D9E0BA7
100
AcDbEntity
  8
TEXT
100
AcDbLine
 10
1.65400909254822
 20
0.8209731008193312
 30
0.0
 11
1.736297082331603
 21
0.8209731008193312
 31
0.0
  0
LWPOLYLINE
  5
7DE1B343D9E0B6E
330
7DE1B343D9E0BA7
100
AcDbEntity
  8
TEXT
100
AcDbPolyline
 90
        4
 70
     1
 43
0.0
 10
1.749228123614502
 20
0.7590157139337432
 10
1.660567804954644
 20
0.7590157139337432
 42
0.9999999999999998
 10
1.660567804954644
 20
0.7166171734298825
 10
1.749228123614502
 20
0.7166171734298825
 42
1.0
  0
LWPOLYLINE
  5
7DE1B343D9E0B74
330
7DE1B343D9E0BA7
100
AcDbEntity
  8
TEXT
100
AcDbPolyline
 90
        2
 70
     0
 43
0.0
 10
1.635333171053018
 20
0.656051735949718
 10
1.769350588684395
 20
0.656051735949718
 42
0.9999999999999998
  0
LINE
  5
7DE1B343D9E0B78
330
7DE1B343D9E0BA7
100
AcDbEntity
  8
TEXT
100
AcDbLine
 10
1.895687610670034
 20
0.8582480742814635
 30
0.0
 11
1.972335591962592
 21
0.8582480742814635
 31
0.0
  0
LINE
  5
7DE1B343D9E0B79
330
7DE1B343D9E0BA7
100
AcDbEntity
  8
TEXT
100
AcDbLine
 10
1.972335591962592
 20
0.8582480742814635
 30
0.0
 11
1.972335591962597
 21
0.656051735949718
 31
0.0
  0
ARC
  5
7DE1B343D9E0B7A
330
7DE1B343D9E0BA7
100
AcDbEntity
  8
TEXT
100
AcDbCircle
 10
1.895687610670032
 20
0.8333421989988007
 30
0.0
 40
0.0249058752826653
100
AcDbArc
 50
89.99971217465335
 51
179.9999999999985
  0
LINE
  5
7DE1B343D9E0B7B
330
7DE1B343D9E0BA7
100
AcDbEntity
  8
TEXT
100
AcDbLine
 10
1.870781735387375
 20
0.656051735949718
 30
0.0
 11
1.87078173538737
 21
0.8333422413811863
 31
0.0
  0
LWPOLYLINE
  5
7DE1B343D9E0B7C
330
7DE1B343D9E0BA7
100
AcDbEntity
  8
TEXT
100
AcDbPolyline
 90
        2
 70
     0
 43
0.0
 10
1.812426521552039
 20
0.656051735949718
 10
1.870781735387373
 20
0.656051735949718
  0
LWPOLYLINE
  5
7DE1B343D9E0B80
330
7DE1B343D9E0BA7
100
AcDbEntity
  8
TEXT
100
AcDbPolyline
 90
        2
 70
     0
 43
0.0
 10
1.812426521552039
 20
0.6995426809001561
 10
1.812426521552039
 20
0.656051735949718
  0
LINE
  5
7DE1B343D9E0B84
330
7DE1B343D9E0BA7
100
AcDbEntity
  8
TEXT
100
AcDbLine
 10
2.189195681868888
 20
0.656051735949718
 30
0.0
 11
2.093703458505278
 21
0.8126315259972553
 31
0.0
  0
LINE
  5
7DE1B343D9E0B85
330
7DE1B343D9E0BA7
100
AcDbEntity
  8
TEXT
100
AcDbLine
 10
2.112617309492682
 20
0.656051735949718
 30
0.0
 11
2.189195681868888
 21
0.656051735949718
 31
0.0
  0
LINE
  5
7DE1B343D9E0B86
330
7DE1B343D9E0BA7
100
AcDbEntity
  8
TEXT
100
AcDbLine
 10
2.036713776281218
 20
0.7876313044258982
 30
0.0
 11
2.112617309492682
 21
0.656051735949718
 31
0.0
  0
LINE
  5
7DE1B343D9E0B87
330
7DE1B343D9E0BA7
100
AcDbEntity
  8
TEXT
100
AcDbLine
 10
2.036713776281218
 20
0.656051735949718
 30
0.0
 11
2.036713776281218
 21
0.7876313044258982
 31
0.0
  0
LINE
  5
7DE1B343D9E0B88
330
7DE1B343D9E0BA7
100
AcDbEntity
  8
TEXT
100
AcDbLine
 10
2.03617058318537
 20
0.9879889747058296
 30
0.0
 11
1.967855704636097
 21
0.9879889747058296
 31
0.0
  0
ARC
  5
7DE1B343D9E0B89
330
7DE1B343D9E0BA7
100
AcDbEntity
  8
TEXT
100
AcDbCircle
 10
1.727499965594891
 20
0.8809412018173265
 30
0.0
 40
0.0416329381542859
100
AcDbArc
 50
26.56974201007528
 51
87.20939649401342
  0
LINE
  5
7DE1B343D9E0B8A
330
7DE1B343D9E0BA7
100
AcDbEntity
  8
TEXT
100
AcDbLine
 10
1.872383750546502
 20
0.9225247689382289
 30
0.0
 11
1.808486844247001
 21
0.9225247689382289
 31
0.0
  0
LINE
  5
7DE1B343D9E0B8B
330
7DE1B343D9E0BA7
100
AcDbEntity
  8
TEXT
100
AcDbLine
 10
1.872383750546502
 20
0.8949771190773542
 30
0.0
 11
1.872383750546502
 21
0.9225247689382289
 31
0.0
  0
ARC
  5
7DE1B343D9E0B8C
330
7DE1B343D9E0BA7
100
AcDbEntity
  8
TEXT
100
AcDbCircle
 10
1.90357656760961
 20
0.8912790416559641
 30
0.0
 40
0.0314112657011332
100
AcDbArc
 50
95.88484768694724
 51
173.2388340632136
  0
LINE
  5
7DE1B343D9E0B8D
330
7DE1B343D9E0BA7
100
AcDbEntity
  8
TEXT
100
AcDbLine
 10
1.967855704636092
 20
0.9225247689382289
 30
0.0
 11
1.900355986986575
 21
0.9225247689382289
 31
0.0
  0
LINE
  5
7DE1B343D9E0B8E
330
7DE1B343D9E0BA7
100
AcDbEntity
  8
TEXT
100
AcDbLine
 10
1.967855704636097
 20
0.9879889747058296
 30
0.0
 11
1.967855704636092
 21
0.9225247689382289
 31
0.0
  0
LINE
  5
7DE1B343D9E0B8F
330
7DE1B343D9E0BA7
100
AcDbEntity
  8
TEXT
100
AcDbLine
 10
2.158260574470983
 20
0.9225247689382289
 30
0.0
 11
2.083268741741357
 21
0.9225247689382289
 31
0.0
  0
ENDSEC
  0
SECTION
  2
OBJECTS
  0
DICTIONARY
  5
7DE1B343D9E0B9B
330
0
100
AcDbDictionary
  3
ACAD_GROUP
350
7DE1B343D9E0B9C
  3
ACAD_LAYOUT
350
7DE1B343D9E0BC2
  3
ACAD_MLINESTYLE
350
7DE1B343D9E0B9D
  3
ACAD_PLOTSETTINGS
350
7DE1B343D9E0BC3
  3
ACAD_PLOTSTYLENAME
350
7DE1B343D9E0BC0
  3
ACDBHEADERROUNDTRIPXREC
350
7DE1B343D9E0BCD
  3
ACDBVARIABLEDICTIONARY
350
7DE1B343D9E0BCA
  0
DICTIONARY
  5
7DE1B343D9E0BEF
330
7DE1B343D9E0BA7
100
AcDbDictionary
280
     1
  3
ACAD_LAYOUTSELFREF
360
7DE1B343D9E0BF0
  0
DICTIONARY
  5
7DE1B343D9E0BED
330
7DE1B343D9E0BA4
100
AcDbDictionary
280
     1
  3
ACAD_LAYOUTSELFREF
360
7DE1B343D9E0BEE
  0
DICTIONARY
  5
7DE1B343D9E0B9C
102
{ACAD_REACTORS
330
7DE1B343D9E0B9B
102
}
330
7DE1B343D9E0B9B
100
AcDbDictionary
  0
DICTIONARY
  5
7DE1B343D9E0BC2
102
{ACAD_REACTORS
330
7DE1B343D9E0B9B
102
}
330
7DE1B343D9E0B9B
100
AcDbDictionary
  0
DICTIONARY
  5
7DE1B343D9E0B9D
102
{ACAD_REACTORS
330
7DE1B343D9E0B9B
102
}
330
7DE1B343D9E0B9B
100
AcDbDictionary
  3
STANDARD
350
7DE1B343D9E0BAA
  0
DICTIONARY
  5
7DE1B343D9E0BC3
102
{ACAD_REACTORS
330
7DE1B343D9E0B9B
102
}
330
7DE1B343D9E0B9B
100
AcDbDictionary
  0
ACDBDICTIONARYWDFLT
  5
7DE1B343D9E0BC0
102
{ACAD_REACTORS
330
7DE1B343D9E0B9B
102
}
330
7DE1B343D9E0B9B
100
AcDbDictionary
281
     1
  3
Normal
350
7DE1B343D9E0BC1
100
AcDbDictionaryWithDefault
340
7DE1B343D9E0BC1
  0
DICTIONARY
  5
7DE1B343D9E0BCD
102
{ACAD_REACTORS
330
7DE1B343D9E0B9B
102
}
330
7DE1B343D9E0B9B
100
AcDbDictionary
  3
CEPSNTYPE
350
7DE1B343D9E0BD7
  3
FINGERPRINTGUID
350
7DE1B343D9E0BD8
  3
HYPERLINKBASE
350
7DE1B343D9E0BD0
  3
INSUNITS
350
7DE1B343D9E0BD6
  3
LAYOUTDICT
350
7DE1B343D9E0BD2
  3
LWETCUNION
350
7DE1B343D9E0BD5
  3
PLOTSETDICT
350
7DE1B343D9E0BD3
  3
PLOTSTYLNAMDICT
350
7DE1B343D9E0BD4
  3
PSVPSCALE
350
7DE1B343D9E0BDA
  3
PUCSBASE
350
7DE1B343D9E0BDD
  3
PUCSORGBACK
350
7DE1B343D9E0BE3
  3
PUCSORGBOTTOM
350
7DE1B343D9E0BDF
  3
PUCSORGFRONT
350
7DE1B343D9E0BE2
  3
PUCSORGLEFT
350
7DE1B343D9E0BE0
  3
PUCSORGRIGHT
350
7DE1B343D9E0BE1
  3
PUCSORGTOP
350
7DE1B343D9E0BDE
  3
PUCSORTHOREF
350
7DE1B343D9E0BDB
  3
PUCSORTHOVIEW
350
7DE1B343D9E0BDC
  3
STYLESHEET
350
7DE1B343D9E0BD1
  3
TSTACKALIGN
350
7DE1B343D9E0BCE
  3
TSTACKSIZE
350
7DE1B343D9E0BCF
  3
UCSBASE
350
7DE1B343D9E0BE6
  3
UCSORGBACK
350
7DE1B343D9E0BEC
  3
UCSORGBOTTOM
350
7DE1B343D9E0BE8
  3
UCSORGFRONT
350
7DE1B343D9E0BEB
  3
UCSORGLEFT
350
7DE1B343D9E0BE9
  3
UCSORGRIGHT
350
7DE1B343D9E0BEA
  3
UCSORGTOP
350
7DE1B343D9E0BE7
  3
UCSORTHOREF
350
7DE1B343D9E0BE4
  3
UCSORTHOVIEW
350
7DE1B343D9E0BE5
  3
VERSIONGUID
350
7DE1B343D9E0BD9
  0
DICTIONARY
  5
7DE1B343D9E0BCA
102
{ACAD_REACTORS
330
7DE1B343D9E0B9B
102
}
330
7DE1B343D9E0B9B
100
AcDbDictionary
  3
DIMASSOC
350
7DE1B343D9E0BCB
  0
XRECORD
  5
7DE1B343D9E0BF0
102
{ACAD_REACTORS
330
7DE1B343D9E0BEF
102
}
330
7DE1B343D9E0BEF
100
AcDbXrecord
340
7DE1B343D9E0BA7
  0
XRECORD
  5
7DE1B343D9E0BEE
102
{ACAD_REACTORS
330
7DE1B343D9E0BED
102
}
330
7DE1B343D9E0BED
100
AcDbXrecord
340
7DE1B343D9E0BA4
  0
MLINESTYLE
  5
7DE1B343D9E0BAA
102
{ACAD_REACTORS
330
7DE1B343D9E0B9D
102
}
330
7DE1B343D9E0B9D
100
AcDbMlineStyle
  2
STANDARD
 70
     0
  3

 62
     0
 51
90.0
 52
90.0
 71
     2
 49
0.5
 62
   256
  6
BYLAYER
 49
-0.5
 62
   256
  6
BYLAYER
  0
ACDBPLACEHOLDER
  5
7DE1B343D9E0BC1
102
{ACAD_REACTORS
330
7DE1B343D9E0BC0
102
}
330
7DE1B343D9E0BC0
100
AcDbPlaceHolder
280
     0
  0
XRECORD
  5
7DE1B343D9E0BD7
102
{ACAD_REACTORS
330
7DE1B343D9E0BCD
102
}
330
7DE1B343D9E0BCD
100
AcDbXrecord
 90
        0
  0
XRECORD
  5
7DE1B343D9E0BD8
102
{ACAD_REACTORS
330
7DE1B343D9E0BCD
102
}
330
7DE1B343D9E0BCD
100
AcDbXrecord
  1
{C2D223B0-8DB5-11D6-88E6-0090279574E7}
  0
XRECORD
  5
7DE1B343D9E0BD0
102
{ACAD_REACTORS
330
7DE1B343D9E0BCD
102
}
330
7DE1B343D9E0BCD
100
AcDbXrecord
  1

  0
XRECORD
  5
7DE1B343D9E0BD6
102
{ACAD_REACTORS
330
7DE1B343D9E0BCD
102
}
330
7DE1B343D9E0BCD
100
AcDbXrecord
 90
        0
  0
XRECORD
  5
7DE1B343D9E0BD2
102
{ACAD_REACTORS
330
7DE1B343D9E0BCD
102
}
330
7DE1B343D9E0BCD
100
AcDbXrecord
340
7DE1B343D9E0BC2
  0
XRECORD
  5
7DE1B343D9E0BD5
102
{ACAD_REACTORS
330
7DE1B343D9E0BCD
102
}
330
7DE1B343D9E0BCD
100
AcDbXrecord
 90
    14877
  0
XRECORD
  5
7DE1B343D9E0BD3
102
{ACAD_REACTORS
330
7DE1B343D9E0BCD
102
}
330
7DE1B343D9E0BCD
100
AcDbXrecord
340
7DE1B343D9E0BC3
  0
XRECORD
  5
7DE1B343D9E0BD4
102
{ACAD_REACTORS
330
7DE1B343D9E0BCD
102
}
330
7DE1B343D9E0BCD
100
AcDbXrecord
340
7DE1B343D9E0BC0
  0
XRECORD
  5
7DE1B343D9E0BDA
102
{ACAD_REACTORS
330
7DE1B343D9E0BCD
102
}
330
7DE1B343D9E0BCD
100
AcDbXrecord
 40
0.0
  0
XRECORD
  5
7DE1B343D9E0BDD
102
{ACAD_REACTORS
330
7DE1B343D9E0BCD
102
}
330
7DE1B343D9E0BCD
100
AcDbXrecord
340
0
  0
XRECORD
  5
7DE1B343D9E0BE3
102
{ACAD_REACTORS
330
7DE1B343D9E0BCD
102
}
330
7DE1B343D9E0BCD
100
AcDbXrecord
 10
0.0
 20
0.0
 30
0.0
  0
XRECORD
  5
7DE1B343D9E0BDF
102
{ACAD_REACTORS
330
7DE1B343D9E0BCD
102
}
330
7DE1B343D9E0BCD
100
AcDbXrecord
 10
0.0
 20
0.0
 30
0.0
  0
XRECORD
  5
7DE1B343D9E0BE2
102
{ACAD_REACTORS
330
7DE1B343D9E0BCD
102
}
330
7DE1B343D9E0BCD
100
AcDbXrecord
 10
0.0
 20
0.0
 30
0.0
  0
XRECORD
  5
7DE1B343D9E0BE0
102
{ACAD_REACTORS
330
7DE1B343D9E0BCD
102
}
330
7DE1B343D9E0BCD
100
AcDbXrecord
 10
0.0
 20
0.0
 30
0.0
  0
XRECORD
  5
7DE1B343D9E0BE1
102
{ACAD_REACTORS
330
7DE1B343D9E0BCD
102
}
330
7DE1B343D9E0BCD
100
AcDbXrecord
 10
0.0
 20
0.0
 30
0.0
  0
XRECORD
  5
7DE1B343D9E0BDE
102
{ACAD_REACTORS
330
7DE1B343D9E0BCD
102
}
330
7DE1B343D9E0BCD
100
AcDbXrecord
 10
0.0
 20
0.0
 30
0.0
  0
XRECORD
  5
7DE1B343D9E0BDB
102
{ACAD_REACTORS
330
7DE1B343D9E0BCD
102
}
330
7DE1B343D9E0BCD
100
AcDbXrecord
340
0
  0
XRECORD
  5
7DE1B343D9E0BDC
102
{ACAD_REACTORS
330
7DE1B343D9E0BCD
102
}
330
7DE1B343D9E0BCD
100
AcDbXrecord
 70
     0
  0
XRECORD
  5
7DE1B343D9E0BD1
102
{ACAD_REACTORS
330
7DE1B343D9E0BCD
102
}
330
7DE1B343D9E0BCD
100
AcDbXrecord
  1

  0
XRECORD
  5
7DE1B343D9E0BCE
102
{ACAD_REACTORS
330
7DE1B343D9E0BCD
102
}
330
7DE1B343D9E0BCD
100
AcDbXrecord
 90
        1
  0
XRECORD
  5
7DE1B343D9E0BCF
102
{ACAD_REACTORS
330
7DE1B343D9E0BCD
102
}
330
7DE1B343D9E0BCD
100
AcDbXrecord
 90
       70
  0
XRECORD
  5
7DE1B343D9E0BE6
102
{ACAD_REACTORS
330
7DE1B343D9E0BCD
102
}
330
7DE1B343D9E0BCD
100
AcDbXrecord
340
0
  0
XRECORD
  5
7DE1B343D9E0BEC
102
{ACAD_REACTORS
330
7DE1B343D9E0BCD
102
}
330
7DE1B343D9E0BCD
100
AcDbXrecord
 10
0.0
 20
0.0
 30
0.0
  0
XRECORD
  5
7DE1B343D9E0BE8
102
{ACAD_REACTORS
330
7DE1B343D9E0BCD
102
}
330
7DE1B343D9E0BCD
100
AcDbXrecord
 10
0.0
 20
0.0
 30
0.0
  0
XRECORD
  5
7DE1B343D9E0BEB
102
{ACAD_REACTORS
330
7DE1B343D9E0BCD
102
}
330
7DE1B343D9E0BCD
100
AcDbXrecord
 10
0.0
 20
0.0
 30
0.0
  0
XRECORD
  5
7DE1B343D9E0BE9
102
{ACAD_REACTORS
330
7DE1B343D9E0BCD
102
}
330
7DE1B343D9E0BCD
100
AcDbXrecord
 10
0.0
 20
0.0
 30
0.0
  0
XRECORD
  5
7DE1B343D9E0BEA
102
{ACAD_REACTORS
330
7DE1B343D9E0BCD
102
}
330
7DE1B343D9E0BCD
100
AcDbXrecord
 10
0.0
 20
0.0
 30
0.0
  0
XRECORD
  5
7DE1B343D9E0BE7
102
{ACAD_REACTORS
330
7DE1B343D9E0BCD
102
}
330
7DE1B343D9E0BCD
100
AcDbXrecord
 10
0.0
 20
0.0
 30
0.0
  0
XRECORD
  5
7DE1B343D9E0BE4
102
{ACAD_REACTORS
330
7DE1B343D9E0BCD
102
}
330
7DE1B343D9E0BCD
100
AcDbXrecord
340
0
  0
XRECORD
  5
7DE1B343D9E0BE5
102
{ACAD_REACTORS
330
7DE1B343D9E0BCD
102
}
330
7DE1B343D9E0BCD
100
AcDbXrecord
 70
     0
  0
XRECORD
  5
7DE1B343D9E0BD9
102
{ACAD_REACTORS
330
7DE1B343D9E0BCD
102
}
330
7DE1B343D9E0BCD
100
AcDbXrecord
  1
{C2D223B2-8DB5-11D6-88E6-0090279574E7}
  0
DICTIONARYVAR
  5
7DE1B343D9E0BCB
102
{ACAD_REACTORS
330
7DE1B343D9E0BCA
102
}
330
7DE1B343D9E0BCA
100
DictionaryVariables
280
     0
  1
1
  0
ENDSEC
  0
EOF
