  0
SECTION
  2
HEADER
  9
$ACADVER
  1
AC1014
  9
$ACADMAINTVER
 70
     9
  9
$DWGCODEPAGE
  3
ANSI_1252
  9
$INSBASE
 10
0.9687499999999998
 20
0.6718750000000428
 30
0.0
  9
$EXTMIN
 10
-0.7742315792271435
 20
-0.078629121356102
 30
0.0
  9
$EXTMAX
 10
2.710987742519984
 20
1.046875
 30
0.0
  9
$LIMMIN
 10
0.0
 20
0.0
  9
$LIMMAX
 10
18.0
 20
12.0
  9
$ORTHOMODE
 70
     1
  9
$REGENMODE
 70
     1
  9
$FILLMODE
 70
     1
  9
$QTEXTMODE
 70
     0
  9
$MIRRTEXT
 70
     0
  9
$DRAGMODE
 70
     2
  9
$LTSCALE
 40
1.0
  9
$OSMODE
 70
    39
  9
$ATTMODE
 70
     1
  9
$TEXTSIZE
 40
0.125
  9
$TRACEWID
 40
0.05
  9
$TEXTSTYLE
  7
ROMANS
  9
$CLAYER
  8
0
  9
$CELTYPE
  6
BYLAYER
  9
$CECOLOR
 62
   256
  9
$CELTSCALE
 40
1.0
  9
$DELOBJ
 70
     1
  9
$DISPSILH
 70
     1
  9
$DIMSCALE
 40
1.0
  9
$DIMASZ
 40
0.125
  9
$DIMEXO
 40
0.125
  9
$DIMDLI
 40
0.375
  9
$DIMRND
 40
0.0
  9
$DIMDLE
 40
0.0
  9
$DIMEXE
 40
0.125
  9
$DIMTP
 40
0.0
  9
$DIMTM
 40
0.0
  9
$DIMTXT
 40
0.125
  9
$DIMCEN
 40
-0.125
  9
$DIMTSZ
 40
0.0
  9
$DIMTOL
 70
     0
  9
$DIMLIM
 70
     0
  9
$DIMTIH
 70
     1
  9
$DIMTOH
 70
     1
  9
$DIMSE1
 70
     0
  9
$DIMSE2
 70
     0
  9
$DIMTAD
 70
     0
  9
$DIMZIN
 70
     4
  9
$DIMBLK
  1

  9
$DIMASO
 70
     1
  9
$DIMSHO
 70
     1
  9
$DIMPOST
  1

  9
$DIMAPOST
  1

  9
$DIMALT
 70
     0
  9
$DIMALTD
 70
     2
  9
$DIMALTF
 40
25.4
  9
$DIMLFAC
 40
1.0
  9
$DIMTOFL
 70
     0
  9
$DIMTVP
 40
0.0
  9
$DIMTIX
 70
     1
  9
$DIMSOXD
 70
     0
  9
$DIMSAH
 70
     0
  9
$DIMBLK1
  1

  9
$DIMBLK2
  1

  9
$DIMSTYLE
  2
STANDARD
  9
$DIMCLRD
 70
     0
  9
$DIMCLRE
 70
     0
  9
$DIMCLRT
 70
     0
  9
$DIMTFAC
 40
1.0
  9
$DIMGAP
 40
0.09
  9
$DIMJUST
 70
     0
  9
$DIMSD1
 70
     0
  9
$DIMSD2
 70
     0
  9
$DIMTOLJ
 70
     1
  9
$DIMTZIN
 70
     4
  9
$DIMALTZ
 70
     0
  9
$DIMALTTZ
 70
     0
  9
$DIMFIT
 70
     3
  9
$DIMUPT
 70
     0
  9
$DIMUNIT
 70
     2
  9
$DIMDEC
 70
     3
  9
$DIMTDEC
 70
     3
  9
$DIMALTU
 70
     2
  9
$DIMALTTD
 70
     2
  9
$DIMTXSTY
  7
ROMANS
  9
$DIMAUNIT
 70
     0
  9
$LUNITS
 70
     2
  9
$LUPREC
 70
     3
  9
$SKETCHINC
 40
0.1
  9
$FILLETRAD
 40
0.03125
  9
$AUNITS
 70
     0
  9
$AUPREC
 70
     0
  9
$MENU
  1
ACAD
  9
$ELEVATION
 40
0.0
  9
$PELEVATION
 40
0.0
  9
$THICKNESS
 40
0.0
  9
$LIMCHECK
 70
     0
  9
$BLIPMODE
 70
     0
  9
$CHAMFERA
 40
0.0
  9
$CHAMFERB
 40
0.0
  9
$CHAMFERC
 40
0.0
  9
$CHAMFERD
 40
0.0
  9
$SKPOLY
 70
     0
  9
$TDCREATE
 40
2448994.531140277
  9
$TDUPDATE
 40
2452458.304167083
  9
$TDINDWG
 40
0.0010929051
  9
$TDUSRTIMER
 40
0.0010929051
  9
$USRTIMER
 70
     1
  9
$ANGBASE
 50
0.0
  9
$ANGDIR
 70
     0
  9
$PDMODE
 70
     0
  9
$PDSIZE
 40
0.0
  9
$PLINEWID
 40
0.0
  9
$COORDS
 70
     2
  9
$SPLFRAME
 70
     0
  9
$SPLINETYPE
 70
     6
  9
$SPLINESEGS
 70
     8
  9
$ATTDIA
 70
     0
  9
$ATTREQ
 70
     1
  9
$HANDLING
 70
 22529
  9
$HANDSEED
  5
7DE1B343D9E0671
  9
$SURFTAB1
 70
     6
  9
$SURFTAB2
 70
     6
  9
$SURFTYPE
 70
     6
  9
$SURFU
 70
     6
  9
$SURFV
 70
     6
  9
$UCSNAME
  2

  9
$UCSORG
 10
0.0
 20
0.0
 30
0.0
  9
$UCSXDIR
 10
1.0
 20
0.0
 30
0.0
  9
$UCSYDIR
 10
0.0
 20
1.0
 30
0.0
  9
$PUCSNAME
  2

  9
$PUCSORG
 10
0.0
 20
0.0
 30
0.0
  9
$PUCSXDIR
 10
1.0
 20
0.0
 30
0.0
  9
$PUCSYDIR
 10
0.0
 20
1.0
 30
0.0
  9
$USERI1
 70
     0
  9
$USERI2
 70
     0
  9
$USERI3
 70
     0
  9
$USERI4
 70
     0
  9
$USERI5
 70
     0
  9
$USERR1
 40
0.0
  9
$USERR2
 40
0.0
  9
$USERR3
 40
0.0
  9
$USERR4
 40
0.0
  9
$USERR5
 40
0.0
  9
$WORLDVIEW
 70
     1
  9
$SHADEDGE
 70
     3
  9
$SHADEDIF
 70
    70
  9
$TILEMODE
 70
     1
  9
$MAXACTVP
 70
    16
  9
$PINSBASE
 10
1.276577435299604
 20
50.00000000000001
 30
1.484756103163607
  9
$PLIMCHECK
 70
     0
  9
$PEXTMIN
 10
1.000000000000000E+20
 20
1.000000000000000E+20
 30
1.000000000000000E+20
  9
$PEXTMAX
 10
-1.000000000000000E+20
 20
-1.000000000000000E+20
 30
-1.000000000000000E+20
  9
$PLIMMIN
 10
0.0
 20
0.0
  9
$PLIMMAX
 10
12.0
 20
9.0
  9
$UNITMODE
 70
     0
  9
$VISRETAIN
 70
     0
  9
$PLINEGEN
 70
     1
  9
$PSLTSCALE
 70
     0
  9
$TREEDEPTH
 70
  3020
  9
$PICKSTYLE
 70
     1
  9
$CMLSTYLE
  2
STANDARD
  9
$CMLJUST
 70
     0
  9
$CMLSCALE
 40
1.0
  9
$PROXYGRAPHICS
 70
     1
  9
$MEASUREMENT
 70
     0
  0
ENDSEC
  0
SECTION
  2
CLASSES
  0
CLASS
  1
LWPOLYLINE
  2
AcDbPolyline
  3
AutoCAD 2000
 90
        0
280
     0
281
     1
  0
CLASS
  1
ACDBDICTIONARYWDFLT
  2
AcDbDictionaryWithDefault
  3
AutoCAD 2000
 90
        0
280
     0
281
     0
  0
CLASS
  1
ACDBPLACEHOLDER
  2
AcDbPlaceHolder
  3
AutoCAD 2000
 90
        0
280
     0
281
     0
  0
CLASS
  1
LAYOUT
  2
AcDbLayout
  3
AutoCAD 2000
 90
        0
280
     0
281
     0
  0
CLASS
  1
DICTIONARYVAR
  2
AcDbDictionaryVar
  3
AutoCAD 2000
 90
        0
280
     0
281
     0
  0
CLASS
  1
LONG_TRANSACTION
  2
AcDbLongTransaction
  3
AutoCAD 2000
 90
        0
280
     0
281
     0
  0
CLASS
  1
LWPOLYLINE
  2
AcDbPolyline
  3
AutoCAD 2000
 90
        0
280
     0
281
     1
  0
CLASS
  1
HATCH
  2
AcDbHatch
  3
AutoCAD 2000
 90
        0
280
     0
281
     1
  0
CLASS
  1
XRECORD
  2
AcDbXrecord
  3
AutoCAD 2000
 90
        0
280
     0
281
     0
  0
ENDSEC
  0
SECTION
  2
TABLES
  0
TABLE
  2
VPORT
  5
7DE1B343D9E05FD
330
0
100
AcDbSymbolTable
 70
     2
  0
VPORT
  5
7DE1B343D9E064C
330
7DE1B343D9E05FD
100
AcDbSymbolTableRecord
100
AcDbViewportTableRecord
  2
*ACTIVE
 70
     0
 10
0.0
 20
0.0
 11
1.0
 21
1.0
 12
3.944354648885037
 22
0.4840548406299661
 13
0.0
 23
0.0
 14
0.015625
 24
0.015625
 15
0.0
 25
0.0
 16
0.0
 26
0.0
 36
1.0
 17
0.0
 27
0.0
 37
0.0
 40
2.28237149402239
 41
4.320930232558139
 42
50.0
 43
0.0
 44
0.0
 50
0.0
 51
0.0
 71
     0
 72
  2000
 73
     1
 74
     0
 75
     0
 76
     0
 77
     0
 78
     0
  0
ENDTAB
  0
TABLE
  2
LTYPE
  5
7DE1B343D9E05FA
330
0
100
AcDbSymbolTable
 70
     1
  0
LTYPE
  5
7DE1B343D9E0607
330
7DE1B343D9E05FA
100
AcDbSymbolTableRecord
100
AcDbLinetypeTableRecord
  2
BYBLOCK
 70
     0
  3

 72
    65
 73
     0
 40
0.0
  0
LTYPE
  5
7DE1B343D9E0608
330
7DE1B343D9E05FA
100
AcDbSymbolTableRecord
100
AcDbLinetypeTableRecord
  2
BYLAYER
 70
     0
  3

 72
    65
 73
     0
 40
0.0
  0
LTYPE
  5
7DE1B343D9E0609
330
7DE1B343D9E05FA
100
AcDbSymbolTableRecord
100
AcDbLinetypeTableRecord
  2
CONTINUOUS
 70
     0
  3
Solid line
 72
    65
 73
     0
 40
0.0
  0
ENDTAB
  0
TABLE
  2
LAYER
  5
7DE1B343D9E05F7
330
0
100
AcDbSymbolTable
 70
     3
  0
LAYER
  5
7DE1B343D9E0604
330
7DE1B343D9E05F7
100
AcDbSymbolTableRecord
100
AcDbLayerTableRecord
  2
0
 70
     0
 62
     7
  6
CONTINUOUS
  0
LAYER
  5
7DE1B343D9E0614
330
7DE1B343D9E05F7
100
AcDbSymbolTableRecord
100
AcDbLayerTableRecord
  2
TEXT
 70
     0
 62
     3
  6
CONTINUOUS
  0
LAYER
  5
7DE1B343D9E0624
330
7DE1B343D9E05F7
100
AcDbSymbolTableRecord
100
AcDbLayerTableRecord
  2
ASHADE
 70
     4
 62
     7
  6
CONTINUOUS
  0
ENDTAB
  0
TABLE
  2
STYLE
  5
7DE1B343D9E05F8
330
0
100
AcDbSymbolTable
 70
     4
  0
STYLE
  5
7DE1B343D9E0605
330
7DE1B343D9E05F8
100
AcDbSymbolTableRecord
100
AcDbTextStyleTableRecord
  2
STANDARD
 70
     0
 40
0.0
 41
1.0
 50
0.0
 71
     0
 42
0.3125
  3
txt
  4

  0
STYLE
  5
7DE1B343D9E0611
330
7DE1B343D9E05F8
100
AcDbSymbolTableRecord
100
AcDbTextStyleTableRecord
  2
ITALICC
 70
     0
 40
0.0
 41
1.0
 50
0.0
 71
     0
 42
0.125
  3
italicc
  4

  0
STYLE
  5
7DE1B343D9E0621
330
7DE1B343D9E05F8
100
AcDbSymbolTableRecord
100
AcDbTextStyleTableRecord
  2
ASHADE
 70
     0
 40
0.2
 41
1.0
 50
0.0
 71
     0
 42
0.3125
  3
simplex
  4

  0
STYLE
  5
7DE1B343D9E063C
330
7DE1B343D9E05F8
100
AcDbSymbolTableRecord
100
AcDbTextStyleTableRecord
  2
ROMANS
 70
     0
 40
0.0
 41
1.0
 50
0.0
 71
     0
 42
0.125
  3
romans.shx
  4

  0
ENDTAB
  0
TABLE
  2
VIEW
  5
7DE1B343D9E05FB
330
0
100
AcDbSymbolTable
 70
     0
  0
ENDTAB
  0
TABLE
  2
UCS
  5
7DE1B343D9E05FC
330
0
100
AcDbSymbolTable
 70
     0
  0
ENDTAB
  0
TABLE
  2
APPID
  5
7DE1B343D9E05FE
330
0
100
AcDbSymbolTable
 70
     6
  0
APPID
  5
7DE1B343D9E0606
330
7DE1B343D9E05FE
100
AcDbSymbolTableRecord
100
AcDbRegAppTableRecord
  2
ACAD
 70
     0
  0
APPID
  5
7DE1B343D9E0622
330
7DE1B343D9E05FE
100
AcDbSymbolTableRecord
100
AcDbRegAppTableRecord
  2
AVE_RENDER
 70
     0
  0
APPID
  5
7DE1B343D9E0623
330
7DE1B343D9E05FE
100
AcDbSymbolTableRecord
100
AcDbRegAppTableRecord
  2
AVE_ENTITY_MATERIAL
 70
     0
  0
APPID
  5
7DE1B343D9E0630
330
7DE1B343D9E05FE
100
AcDbSymbolTableRecord
100
AcDbRegAppTableRecord
  2
AVE_FINISH
 70
     0
  0
APPID
  5
7DE1B343D9E0631
330
7DE1B343D9E05FE
100
AcDbSymbolTableRecord
100
AcDbRegAppTableRecord
  2
AVE_MATERIAL
 70
     0
  0
APPID
  5
7DE1B343D9E0632
330
7DE1B343D9E05FE
100
AcDbSymbolTableRecord
100
AcDbRegAppTableRecord
  2
AVE_GLOBAL
 70
     0
  0
ENDTAB
  0
TABLE
  2
DIMSTYLE
  5
7DE1B343D9E05FF
330
0
100
AcDbSymbolTable
 70
     1
  0
DIMSTYLE
105
7DE1B343D9E0619
330
7DE1B343D9E05FF
100
AcDbSymbolTableRecord
100
AcDbDimStyleTableRecord
  2
STANDARD
 70
     0
  3

  4

  5

  6

  7

 40
1.0
 41
0.125
 42
0.125
 43
0.375
 44
0.125
 45
0.0
 46
0.0
 47
0.0
 48
0.0
140
0.125
141
-0.125
142
0.0
143
25.4
144
1.0
145
0.0
146
1.0
147
0.09
 71
     0
 72
     0
 73
     1
 74
     1
 75
     0
 76
     0
 77
     0
 78
     4
170
     0
171
     2
172
     0
173
     0
174
     1
175
     0
176
     0
177
     0
178
     0
270
     2
271
     3
272
     3
273
     2
274
     2
340
7DE1B343D9E063C
275
     0
280
     0
281
     0
282
     0
283
     1
284
     4
285
     0
286
     0
287
     3
288
     0
  0
ENDTAB
  0
TABLE
  2
BLOCK_RECORD
  5
7DE1B343D9E05F6
330
0
100
AcDbSymbolTable
 70
     2
  0
BLOCK_RECORD
  5
7DE1B343D9E060D
102
{ACAD_XDICTIONARY
360
7DE1B343D9E066F
102
}
330
7DE1B343D9E05F6
100
AcDbSymbolTableRecord
100
AcDbBlockTableRecord
  2
*MODEL_SPACE
  0
BLOCK_RECORD
  5
7DE1B343D9E060A
102
{ACAD_XDICTIONARY
360
7DE1B343D9E066D
102
}
330
7DE1B343D9E05F6
100
AcDbSymbolTableRecord
100
AcDbBlockTableRecord
  2
*PAPER_SPACE
  0
BLOCK_RECORD
  5
7DE1B343D9E0625
330
7DE1B343D9E05F6
100
AcDbSymbolTableRecord
100
AcDbBlockTableRecord
  2
AVE_RENDER
  0
BLOCK_RECORD
  5
7DE1B343D9E0633
330
7DE1B343D9E05F6
100
AcDbSymbolTableRecord
100
AcDbBlockTableRecord
  2
AVE_GLOBAL
  0
ENDTAB
  0
ENDSEC
  0
SECTION
  2
BLOCKS
  0
BLOCK
  5
7DE1B343D9E0617
330
7DE1B343D9E060D
100
AcDbEntity
  8
0
100
AcDbBlockBegin
  2
*MODEL_SPACE
 70
     0
 10
0.0
 20
0.0
 30
0.0
  3
*MODEL_SPACE
  1

  0
ENDBLK
  5
7DE1B343D9E0618
330
7DE1B343D9E060D
100
AcDbEntity
  8
0
100
AcDbBlockEnd
  0
BLOCK
  5
7DE1B343D9E0615
330
7DE1B343D9E060A
100
AcDbEntity
 67
     1
  8
0
100
AcDbBlockBegin
  2
*PAPER_SPACE
 70
     0
 10
0.0
 20
0.0
 30
0.0
  3
*PAPER_SPACE
  1

  0
ENDBLK
  5
7DE1B343D9E0616
330
7DE1B343D9E060A
100
AcDbEntity
 67
     1
  8
0
100
AcDbBlockEnd
  0
BLOCK
  5
7DE1B343D9E0626
330
7DE1B343D9E0625
100
AcDbEntity
  8
0
100
AcDbBlockBegin
  2
AVE_RENDER
 70
     0
 10
0.0
 20
0.0
 30
0.0
  3
AVE_RENDER
  1
AVE_RENDER
  0
ENDBLK
  5
7DE1B343D9E0627
330
7DE1B343D9E0625
100
AcDbEntity
  8
0
100
AcDbBlockEnd
  0
BLOCK
  5
7DE1B343D9E0634
330
7DE1B343D9E0633
100
AcDbEntity
  8
0
100
AcDbBlockBegin
  2
AVE_GLOBAL
 70
     0
 10
0.0
 20
0.0
 30
0.0
  3
AVE_GLOBAL
  1
AVE_GLOBAL
  0
ENDBLK
  5
7DE1B343D9E0635
330
7DE1B343D9E0633
100
AcDbEntity
  8
0
100
AcDbBlockEnd
  0
ENDSEC
  0
SECTION
  2
ENTITIES
  0
LWPOLYLINE
  5
7DE1B343D9DF256
330
7DE1B343D9E060D
100
AcDbEntity
  8
0
100
AcDbPolyline
 90
        8
 70
     1
 43
0.0
 10
0.5947328654942059
 20
0.6990076942280847
 42
-0.9300838749849477
 10
1.342767134505794
 20
0.6990076942280847
 42
-0.9095248547866685
 10
1.29309160048997
 20
0.6906283585047556
 10
1.278749999999983
 20
0.7441519401952422
 42
0.6569323934385013
 10
1.262050187521273
 20
0.8118749999999495
 42
0.6307530914437508
 10
0.6754498124787263
 20
0.8118749999999492
 42
0.6569323934385016
 10
0.6587500000000154
 20
0.7441519401952412
 10
0.6444083995100285
 20
0.6906283585047556
 42
-0.9095248547866672
  0
TEXT
  5
7DE1B343D9E04B8
330
7DE1B343D9E060D
100
AcDbEntity
  8
TEXT
100
AcDbText
 10
0.2127976190476191
 20
0.3793894827264795
 30
0.0
 40
0.125
  1
PART #110267
  7
ITALICC
 72
     1
 11
0.9687499999999998
 21
0.3793894827264795
 31
0.0
100
AcDbText
  0
TEXT
  5
7DE1B343D9E04B9
330
7DE1B343D9E060D
100
AcDbEntity
  8
TEXT
100
AcDbText
 10
1.38205515825032
 20
-0.0675331599458956
 30
0.0
 40
0.0522247191011236
  1
Phone  1-800-328-2495
 41
1.272321428571429
 72
     5
 11
2.710987742519984
 21
-0.0675331599458956
 31
0.0
100
AcDbText
  0
TEXT
  5
7DE1B343D9E04BA
330
7DE1B343D9E060D
100
AcDbEntity
  8
TEXT
100
AcDbText
 10
1.38205515825032
 20
0.2122421209529809
 30
0.0
 40
0.0522247191011236
  1
Stylmark  Incorporated
 41
1.221428571428573
 72
     5
 11
2.710987742519984
 21
0.2122421209529809
 31
0.0
100
AcDbText
  0
TEXT
  5
7DE1B343D9E04BB
330
7DE1B343D9E060D
100
AcDbEntity
  8
TEXT
100
AcDbText
 10
1.38205515825032
 20
0.1189836939866887
 30
0.0
 40
0.0522247191011236
  1
6536 Main St. N.E. * P.O. Box 32008
 41
0.8388932496075366
 72
     5
 11
2.710987742519984
 21
0.1189836939866887
 31
0.0
100
AcDbText
  0
TEXT
  5
7DE1B343D9E04BC
330
7DE1B343D9E060D
100
AcDbEntity
  8
TEXT
100
AcDbText
 10
1.38205515825032
 20
0.0257252670203966
 30
0.0
 40
0.0522247191011236
  1
Minneapolis, MN 55432-0008
 41
1.11444212721585
 72
     5
 11
2.710987742519984
 21
0.0257252670203966
 31
0.0
100
AcDbText
  0
LWPOLYLINE
  5
7DE1B343D9E04BD
330
7DE1B343D9E060D
100
AcDbEntity
  8
TEXT
100
AcDbPolyline
 90
        3
 70
     0
 43
0.0006660908203125
 10
-0.7738985338169872
 20
0.0461116026915393
 10
-0.7738985338169872
 20
-0.0671238367615884
 10
-0.6606630943638649
 20
-0.0671238367615884
  0
LWPOLYLINE
  5
7DE1B343D9E04C2
330
7DE1B343D9E060D
100
AcDbEntity
  8
TEXT
100
AcDbPolyline
 90
        3
 70
     0
 43
0.0006660908203125
 10
-0.7472549010044897
 20
0.0461116026915393
 10
-0.7472549010044897
 20
-0.0404802039490874
 10
-0.6606630943638649
 20
-0.0404802039490874
  0
LWPOLYLINE
  5
7DE1B343D9E04C7
330
7DE1B343D9E060D
100
AcDbEntity
  8
TEXT
100
AcDbPolyline
 90
        2
 70
     0
 43
0.0001332181640625
 10
-0.7006285435826129
 20
0.0561029649962245
 10
-0.7738985338169872
 20
0.0461116026915393
  0
LWPOLYLINE
  5
7DE1B343D9E04CB
330
7DE1B343D9E060D
100
AcDbEntity
  8
TEXT
100
AcDbPolyline
 90
        2
 70
     0
 43
0.0001332181640625
 10
-0.7472549010044897
 20
0.0461116026915393
 10
-0.6873067271763623
 20
0.0561029649962245
  0
LWPOLYLINE
  5
7DE1B343D9E04CF
330
7DE1B343D9E060D
100
AcDbEntity
  8
TEXT
100
AcDbPolyline
 90
        2
 70
     0
 43
0.0001332181640625
 10
-0.7472549010044897
 20
-0.0404802039490874
 10
-0.6873067271763623
 20
0.0194679698790382
  0
LWPOLYLINE
  5
7DE1B343D9E04D3
330
7DE1B343D9E060D
100
AcDbEntity
  8
TEXT
100
AcDbPolyline
 90
        3
 70
     0
 43
0.0006660908203125
 10
-0.6606630943638649
 20
0.1993124913634149
 10
-0.7738985338169872
 20
0.1993124913634149
 10
-0.7738985338169872
 20
0.0860770519102873
  0
LWPOLYLINE
  5
7DE1B343D9E04D8
330
7DE1B343D9E060D
100
AcDbEntity
  8
TEXT
100
AcDbPolyline
 90
        3
 70
     0
 43
0.0006660908203125
 10
-0.6606630943638649
 20
0.1726688585509138
 10
-0.7472549010044897
 20
0.1726688585509138
 10
-0.7472549010044897
 20
0.0860770519102873
  0
LWPOLYLINE
  5
7DE1B343D9E04DD
330
7DE1B343D9E060D
100
AcDbEntity
  8
TEXT
100
AcDbPolyline
 90
        2
 70
     0
 43
0.0001332181640625
 10
-0.7472549010044897
 20
0.1726688585509138
 10
-0.6873067271763641
 20
0.1127206847227883
  0
LWPOLYLINE
  5
7DE1B343D9E04E1
330
7DE1B343D9E060D
100
AcDbEntity
  8
TEXT
100
AcDbPolyline
 90
        2
 70
     0
 43
0.0001332181640625
 10
-0.7472549010044897
 20
0.0860770519102873
 10
-0.6873067271763641
 20
0.0760856896055985
  0
LWPOLYLINE
  5
7DE1B343D9E04E5
330
7DE1B343D9E060D
100
AcDbEntity
  8
TEXT
100
AcDbPolyline
 90
        2
 70
     0
 43
0.0001332181640625
 10
-0.7738985338169872
 20
0.0860770519102873
 10
-0.7006285435826129
 20
0.0760856896055985
  0
LWPOLYLINE
  5
7DE1B343D9E04E9
330
7DE1B343D9E060D
100
AcDbEntity
  8
TEXT
100
AcDbPolyline
 90
        2
 70
     0
 43
0.0006660908203125
 10
-0.7472549010044897
 20
0.0461116026915393
 10
-0.7738985338169872
 20
0.0461116026915393
  0
LWPOLYLINE
  5
7DE1B343D9E04ED
330
7DE1B343D9E060D
100
AcDbEntity
  8
TEXT
100
AcDbPolyline
 90
        2
 70
     0
 43
0.0006660908203125
 10
-0.7472549010044897
 20
0.0860770519102873
 10
-0.7738985338169872
 20
0.0860770519102873
  0
LINE
  5
7DE1B343D9E04F1
330
7DE1B343D9E060D
100
AcDbEntity
  8
TEXT
100
AcDbLine
 10
0.7412918953095104
 20
0.1350357967066459
 30
0.0
 11
0.634085621922221
 21
0.1350357967066459
 31
0.0
  0
LINE
  5
7DE1B343D9E04F2
330
7DE1B343D9E060D
100
AcDbEntity
  8
TEXT
100
AcDbLine
 10
0.7703227936539889
 20
0.1993124913634113
 30
0.0
 11
0.6354908844369298
 21
0.1993124913634113
 31
0.0
  0
ARC
  5
7DE1B343D9E04F3
330
7DE1B343D9E060D
100
AcDbEntity
  8
TEXT
100
AcDbCircle
 10
0.6948049808302467
 20
0.030075242100395
 30
0.0
 40
0.0676855811441166
100
AcDbArc
 50
90.0
 51
153.7768192527749
  0
LWPOLYLINE
  5
7DE1B343D9E04F4
330
7DE1B343D9E060D
100
AcDbEntity
  8
TEXT
100
AcDbPolyline
 90
        2
 70
     0
 43
0.0
 10
0.633053126467411
 20
-0.0236695966746615
 42
0.2901071551932823
 10
0.6761290593350466
 20
-0.0671605416250997
 42
5.328517124445801
  0
ARC
  5
7DE1B343D9E04F8
330
7DE1B343D9E060D
100
AcDbEntity
  8
TEXT
100
AcDbCircle
 10
-0.0103263968412392
 20
-0.0073681502870498
 30
0.0
 40
0.0601160179737537
100
AcDbArc
 50
180.0000000000003
 51
264.0521544866073
  0
LINE
  5
7DE1B343D9E04F9
330
7DE1B343D9E060D
100
AcDbEntity
  8
TEXT
100
AcDbLine
 10
-0.0068110412156913
 20
0.2337004089575495
 30
0.0
 11
-0.0668536460596984
 21
0.2337004089575495
 31
0.0
  0
ARC
  5
7DE1B343D9E04FA
330
7DE1B343D9E060D
100
AcDbEntity
  8
TEXT
100
AcDbCircle
 10
-0.2425853989582097
 20
0.1172250319169096
 30
0.0
 40
0.0820874594465043
100
AcDbArc
 50
90.0
 51
270.0
  0
LWPOLYLINE
  5
7DE1B343D9E04FB
330
7DE1B343D9E060D
100
AcDbEntity
  8
TEXT
100
AcDbPolyline
 90
        2
 70
     0
 43
0.0001332181640625
 10
-0.6506717320591743
 20
0.1260425011290353
 10
-0.6606630943638649
 20
0.1993124913634149
  0
LWPOLYLINE
  5
7DE1B343D9E04FF
330
7DE1B343D9E060D
100
AcDbEntity
  8
TEXT
100
AcDbPolyline
 90
        2
 70
     0
 43
0.0001332181640625
 10
-0.6606630943638649
 20
0.1726688585509138
 10
-0.6506717320591743
 20
0.1127206847227883
  0
LWPOLYLINE
  5
7DE1B343D9E0503
330
7DE1B343D9E060D
100
AcDbEntity
  8
TEXT
100
AcDbPolyline
 90
        3
 70
     0
 43
0.0006660908203125
 10
-0.5074622056919874
 20
0.0860770519102873
 10
-0.5074622056919874
 20
0.1993124913634149
 10
-0.6206976451451133
 20
0.1993124913634149
  0
LWPOLYLINE
  5
7DE1B343D9E0508
330
7DE1B343D9E060D
100
AcDbEntity
  8
TEXT
100
AcDbPolyline
 90
        3
 70
     0
 43
0.0006660908203125
 10
-0.5341058385044885
 20
0.0860770519102873
 10
-0.5341058385044885
 20
0.1726688585509138
 10
-0.6206976451451133
 20
0.1726688585509138
  0
LWPOLYLINE
  5
7DE1B343D9E050D
330
7DE1B343D9E060D
100
AcDbEntity
  8
TEXT
100
AcDbPolyline
 90
        2
 70
     0
 43
0.0001332181640625
 10
-0.5341058385044885
 20
0.1726688585509138
 10
-0.5940540123326123
 20
0.1127206847227883
  0
LWPOLYLINE
  5
7DE1B343D9E0511
330
7DE1B343D9E060D
100
AcDbEntity
  8
TEXT
100
AcDbPolyline
 90
        2
 70
     0
 43
0.0001332181640625
 10
-0.6206976451451133
 20
0.1726688585509138
 10
-0.6306890074498021
 20
0.1127206847227883
  0
LWPOLYLINE
  5
7DE1B343D9E0515
330
7DE1B343D9E060D
100
AcDbEntity
  8
TEXT
100
AcDbPolyline
 90
        2
 70
     0
 43
0.0001332181640625
 10
-0.6206976451451133
 20
0.1993124913634149
 10
-0.6306890074498021
 20
0.1260425011290353
  0
LWPOLYLINE
  5
7DE1B343D9E0519
330
7DE1B343D9E060D
100
AcDbEntity
  8
TEXT
100
AcDbPolyline
 90
        2
 70
     0
 43
0.0001332181640625
 10
-0.5807321959263635
 20
0.0760856896055985
 10
-0.5074622056919874
 20
0.0860770519102873
  0
LWPOLYLINE
  5
7DE1B343D9E051D
330
7DE1B343D9E060D
100
AcDbEntity
  8
TEXT
100
AcDbPolyline
 90
        2
 70
     0
 43
0.0001332181640625
 10
-0.5341058385044885
 20
0.0860770519102873
 10
-0.5940540123326123
 20
0.0760856896055985
  0
LWPOLYLINE
  5
7DE1B343D9E0521
330
7DE1B343D9E060D
100
AcDbEntity
  8
TEXT
100
AcDbPolyline
 90
        2
 70
     0
 43
0.0001332181640625
 10
-0.5074622056919874
 20
0.0461116026915393
 10
-0.5807321959263635
 20
0.0561029649962245
  0
LWPOLYLINE
  5
7DE1B343D9E0525
330
7DE1B343D9E060D
100
AcDbEntity
  8
TEXT
100
AcDbPolyline
 90
        2
 70
     0
 43
0.0001332181640625
 10
-0.5341058385044885
 20
0.0461116026915393
 10
-0.5940540123326123
 20
0.0561029649962245
  0
LWPOLYLINE
  5
7DE1B343D9E0529
330
7DE1B343D9E060D
100
AcDbEntity
  8
TEXT
100
AcDbPolyline
 90
        2
 70
     0
 43
0.0001332181640625
 10
-0.5341058385044885
 20
-0.0404802039490874
 10
-0.5940540123326123
 20
0.0194679698790382
  0
LWPOLYLINE
  5
7DE1B343D9E052D
330
7DE1B343D9E060D
100
AcDbEntity
  8
TEXT
100
AcDbPolyline
 90
        3
 70
     0
 43
0.0006660908203125
 10
-0.6206976451451133
 20
-0.0404802039490874
 10
-0.5341058385044885
 20
-0.0404802039490874
 10
-0.5341058385044885
 20
0.0461116026915393
  0
LWPOLYLINE
  5
7DE1B343D9E0532
330
7DE1B343D9E060D
100
AcDbEntity
  8
TEXT
100
AcDbPolyline
 90
        3
 70
     0
 43
0.0006660908203125
 10
-0.6206976451451133
 20
-0.0671238367615884
 10
-0.5074622056919874
 20
-0.0671238367615884
 10
-0.5074622056919874
 20
0.0461116026915393
  0
LWPOLYLINE
  5
7DE1B343D9E0537
330
7DE1B343D9E060D
100
AcDbEntity
  8
TEXT
100
AcDbPolyline
 90
        5
 70
     0
 43
0.0001332181640625
 10
-0.6506717320591743
 20
0.0061461534727877
 10
-0.6506717320591743
 20
0.0194679698790382
 10
-0.6873067271763623
 20
0.0194679698790382
 10
-0.6873067271763623
 20
0.0561029649962245
 10
-0.7006285435826129
 20
0.0561029649962245
  0
LWPOLYLINE
  5
7DE1B343D9E053E
330
7DE1B343D9E060D
100
AcDbEntity
  8
TEXT
100
AcDbPolyline
 90
        2
 70
     0
 43
0.0006660908203125
 10
-0.6606630943638649
 20
-0.0404802039490874
 10
-0.6606630943638649
 20
-0.0671238367615884
  0
LWPOLYLINE
  5
7DE1B343D9E0542
330
7DE1B343D9E060D
100
AcDbEntity
  8
TEXT
100
AcDbPolyline
 90
        2
 70
     0
 43
0.0001332181640625
 10
-0.6606630943638649
 20
-0.0404802039490874
 10
-0.6506717320591743
 20
0.0194679698790382
  0
LWPOLYLINE
  5
7DE1B343D9E0546
330
7DE1B343D9E060D
100
AcDbEntity
  8
TEXT
100
AcDbPolyline
 90
        2
 70
     0
 43
0.0001332181640625
 10
-0.6606630943638649
 20
-0.0671238367615884
 10
-0.6506717320591743
 20
0.0061461534727877
  0
LWPOLYLINE
  5
7DE1B343D9E054A
330
7DE1B343D9E060D
100
AcDbEntity
  8
TEXT
100
AcDbPolyline
 90
        5
 70
     0
 43
0.0001332181640625
 10
-0.7006285435826129
 20
0.0760856896055985
 10
-0.6873067271763641
 20
0.0760856896055985
 10
-0.6873067271763641
 20
0.1127206847227883
 10
-0.6506717320591743
 20
0.1127206847227883
 10
-0.6506717320591743
 20
0.1260425011290353
  0
LWPOLYLINE
  5
7DE1B343D9E0551
330
7DE1B343D9E060D
100
AcDbEntity
  8
TEXT
100
AcDbPolyline
 90
        5
 70
     0
 43
0.0001332181640625
 10
-0.6306890074498021
 20
0.1260425011290353
 10
-0.6306890074498021
 20
0.1127206847227883
 10
-0.5940540123326123
 20
0.1127206847227883
 10
-0.5940540123326123
 20
0.0760856896055985
 10
-0.5807321959263635
 20
0.0760856896055985
  0
LWPOLYLINE
  5
7DE1B343D9E0558
330
7DE1B343D9E060D
100
AcDbEntity
  8
TEXT
100
AcDbPolyline
 90
        2
 70
     0
 43
0.0001332181640625
 10
-0.6206976451451133
 20
-0.0404802039490874
 10
-0.6306890074498021
 20
0.0194679698790382
  0
LWPOLYLINE
  5
7DE1B343D9E055C
330
7DE1B343D9E060D
100
AcDbEntity
  8
TEXT
100
AcDbPolyline
 90
        2
 70
     0
 43
0.0001332181640625
 10
-0.6306890074498021
 20
0.0061461534727877
 10
-0.6206976451451133
 20
-0.0671238367615884
  0
LWPOLYLINE
  5
7DE1B343D9E0560
330
7DE1B343D9E060D
100
AcDbEntity
  8
TEXT
100
AcDbPolyline
 90
        2
 70
     0
 43
0.0006660908203125
 10
-0.6206976451451133
 20
-0.0404802039490874
 10
-0.6206976451451133
 20
-0.0671238367615884
  0
LWPOLYLINE
  5
7DE1B343D9E0564
330
7DE1B343D9E060D
100
AcDbEntity
  8
TEXT
100
AcDbPolyline
 90
        5
 70
     0
 43
0.0001332181640625
 10
-0.5807321959263635
 20
0.0561029649962245
 10
-0.5940540123326123
 20
0.0561029649962245
 10
-0.5940540123326123
 20
0.0194679698790382
 10
-0.6306890074498021
 20
0.0194679698790382
 10
-0.6306890074498021
 20
0.0061461534727877
  0
LWPOLYLINE
  5
7DE1B343D9E056B
330
7DE1B343D9E060D
100
AcDbEntity
  8
TEXT
100
AcDbPolyline
 90
        2
 70
     0
 43
0.0006660908203125
 10
-0.5341058385044885
 20
0.0860770519102873
 10
-0.5074622056919874
 20
0.0860770519102873
  0
LWPOLYLINE
  5
7DE1B343D9E056F
330
7DE1B343D9E060D
100
AcDbEntity
  8
TEXT
100
AcDbPolyline
 90
        2
 70
     0
 43
0.0006660908203125
 10
-0.5341058385044885
 20
0.0461116026915393
 10
-0.5074622056919874
 20
0.0461116026915393
  0
LINE
  5
7DE1B343D9E0573
330
7DE1B343D9E060D
100
AcDbEntity
  8
TEXT
100
AcDbLine
 10
-0.2373480688439625
 20
0.1350357967066459
 30
0.0
 11
-0.0704424148149913
 21
0.1350357967066459
 31
0.0
  0
LINE
  5
7DE1B343D9E0574
330
7DE1B343D9E060D
100
AcDbEntity
  8
TEXT
100
AcDbLine
 10
-0.1717479325996615
 20
0.099231075096018
 30
0.0
 11
-0.2373480688439625
 21
0.099231075096018
 31
0.0
  0
LINE
  5
7DE1B343D9E0575
330
7DE1B343D9E060D
100
AcDbEntity
  8
TEXT
100
AcDbLine
 10
-0.3246728584047141
 20
-0.0671605416250997
 30
0.0
 11
-0.1717479325996615
 21
-0.0671605416250997
 31
0.0
  0
LINE
  5
7DE1B343D9E0576
330
7DE1B343D9E060D
100
AcDbEntity
  8
TEXT
100
AcDbLine
 10
-0.1668075586933818
 20
0.0011964647083397
 30
0.0
 11
-0.3246728584047159
 21
0.0011964647083397
 31
0.0
  0
LINE
  5
7DE1B343D9E0577
330
7DE1B343D9E060D
100
AcDbEntity
  8
TEXT
100
AcDbLine
 10
-0.2425853989582106
 20
0.0351375724704043
 30
0.0
 11
-0.1668075586933818
 21
0.0351375724704043
 31
0.0
  0
ARC
  5
7DE1B343D9E0578
330
7DE1B343D9E060D
100
AcDbEntity
  8
TEXT
100
AcDbCircle
 10
-0.2373480688439616
 20
0.1171334359013337
 30
0.0
 40
0.017902360805315
100
AcDbArc
 50
90.0
 51
270.0
  0
LINE
  5
7DE1B343D9E0579
330
7DE1B343D9E060D
100
AcDbEntity
  8
TEXT
100
AcDbLine
 10
-0.3246728584047159
 20
0.0011964647083397
 30
0.0
 11
-0.3246728584047141
 21
-0.0671605416250997
 31
0.0
  0
LINE
  5
7DE1B343D9E057A
330
7DE1B343D9E060D
100
AcDbEntity
  8
TEXT
100
AcDbLine
 10
-0.0704424148149913
 20
0.1350357967066459
 30
0.0
 11
-0.0704424148149913
 21
-0.0073681502870498
 31
0.0
  0
ARC
  5
7DE1B343D9E057B
330
7DE1B343D9E060D
100
AcDbEntity
  8
TEXT
100
AcDbCircle
 10
-0.1717479325996606
 20
0.0160352667354574
 30
0.0
 40
0.0831958083605586
100
AcDbArc
 50
270.0
 51
90.0
  0
ARC
  5
7DE1B343D9E057C
330
7DE1B343D9E060D
100
AcDbEntity
  8
TEXT
100
AcDbCircle
 10
-0.1668075586933809
 20
0.0181670185893738
 30
0.0
 40
0.0169705538810321
100
AcDbArc
 50
270.0
 51
90.0
  0
LWPOLYLINE
  5
7DE1B343D9E057D
330
7DE1B343D9E060D
100
AcDbEntity
  8
TEXT
100
AcDbPolyline
 90
        2
 70
     0
 43
0.0006660908203125
 10
-0.6606630943638649
 20
0.1726688585509138
 10
-0.6606630943638649
 20
0.1993124913634149
  0
LWPOLYLINE
  5
7DE1B343D9E0581
330
7DE1B343D9E060D
100
AcDbEntity
  8
TEXT
100
AcDbPolyline
 90
        2
 70
     0
 43
0.0006660908203125
 10
-0.6206976451451133
 20
0.1726688585509138
 10
-0.6206976451451133
 20
0.1993124913634149
  0
LINE
  5
7DE1B343D9E0585
330
7DE1B343D9E060D
100
AcDbEntity
  8
TEXT
100
AcDbLine
 10
-0.0668536460596984
 20
0.1993124913634113
 30
0.0
 11
-0.2425853989582106
 21
0.1993124913634113
 31
0.0
  0
LINE
  5
7DE1B343D9E0586
330
7DE1B343D9E060D
100
AcDbEntity
  8
TEXT
100
AcDbLine
 10
-0.0668536460596984
 20
0.2337004089575495
 30
0.0
 11
-0.0668536460596984
 21
0.1993124913634113
 31
0.0
  0
LINE
  5
7DE1B343D9E0587
330
7DE1B343D9E060D
100
AcDbEntity
  8
TEXT
100
AcDbLine
 10
0.1236182459601539
 20
0.0984404952502908
 30
0.0
 11
0.0649879249282161
 21
0.1993124913634113
 31
0.0
  0
LINE
  5
7DE1B343D9E0588
330
7DE1B343D9E060D
100
AcDbEntity
  8
TEXT
100
AcDbLine
 10
0.1823668087660194
 20
0.1993124913634113
 30
0.0
 11
0.1236182459601539
 21
0.0984404952502908
 31
0.0
  0
LINE
  5
7DE1B343D9E0589
330
7DE1B343D9E060D
100
AcDbEntity
  8
TEXT
100
AcDbLine
 10
0.2792974341257607
 20
0.0152272964778996
 30
0.0
 11
0.2792974341257607
 21
0.2673239691022219
 31
0.0
  0
LINE
  5
7DE1B343D9E058A
330
7DE1B343D9E060D
100
AcDbEntity
  8
TEXT
100
AcDbLine
 10
0.3116092882634208
 20
0.1993124913634113
 30
0.0
 11
0.3116092882634208
 21
-0.0015517153689969
 31
0.0
  0
LINE
  5
7DE1B343D9E058B
330
7DE1B343D9E060D
100
AcDbEntity
  8
TEXT
100
AcDbLine
 10
0.3116092882634208
 20
-0.0015517153689969
 30
0.0
 11
0.2946156513788195
 21
-0.0015517153689969
 31
0.0
  0
LINE
  5
7DE1B343D9E058C
330
7DE1B343D9E060D
100
AcDbEntity
  8
TEXT
100
AcDbLine
 10
0.2804370076219555
 20
-0.0671605416250997
 30
0.0
 11
0.3784403413213901
 21
-0.0671605416250997
 31
0.0
  0
LINE
  5
7DE1B343D9E058D
330
7DE1B343D9E060D
100
AcDbEntity
  8
TEXT
100
AcDbLine
 10
0.1140180089631996
 20
-0.0472020355200867
 30
0.0
 11
0.2113177150566442
 21
0.1171481754151814
 31
0.0
  0
ARC
  5
7DE1B343D9E058E
330
7DE1B343D9E060D
100
AcDbEntity
  8
TEXT
100
AcDbCircle
 10
0.0799744490509856
 20
-0.0276128193514039
 30
0.0
 40
0.0392772371940762
100
AcDbArc
 50
270.1604552698595
 51
330.0831797321295
  0
LINE
  5
7DE1B343D9E058F
330
7DE1B343D9E060D
100
AcDbEntity
  8
TEXT
100
AcDbLine
 10
-0.0165558073348856
 20
-0.0671605416250997
 30
0.0
 11
0.0800844437401088
 21
-0.0668899025268174
 31
0.0
  0
LWPOLYLINE
  5
7DE1B343D9E0590
330
7DE1B343D9E060D
100
AcDbEntity
  8
TEXT
100
AcDbPolyline
 90
        6
 70
     1
 43
0.0
 10
0.025967996240264
 20
0.1350357967066459
 10
-0.0043485979799441
 20
0.1350357967066459
 10
-0.0043485979799441
 20
0.0119247986517516
 42
0.407328721240804
 10
0.0071950531815322
 20
0.0001058839753655
 10
0.0678167522262631
 20
0.0001058839753655
 10
0.085282092633581
 20
0.0329181130188446
  0
LINE
  5
7DE1B343D9E0598
330
7DE1B343D9E060D
100
AcDbEntity
  8
TEXT
100
AcDbLine
 10
0.2113177150566442
 20
0.1171481754151814
 30
0.0
 11
0.2113177150566442
 21
-0.0156091994101749
 31
0.0
  0
ARC
  5
7DE1B343D9E0599
330
7DE1B343D9E060D
100
AcDbEntity
  8
TEXT
100
AcDbCircle
 10
0.2946156513788178
 20
0.0138300908744286
 30
0.0
 40
0.0153818062434269
100
AcDbArc
 50
174.7883570302258
 51
270.0
  0
LWPOLYLINE
  5
7DE1B343D9E059A
330
7DE1B343D9E060D
100
AcDbEntity
  8
TEXT
100
AcDbPolyline
 90
        2
 70
     0
 43
0.0
 10
0.2113177150566424
 20
-0.0156091994101714
 42
0.3318488747599744
 10
0.2804370076219555
 20
-0.0671605416250997
 42
-6.868794160588311
  0
LINE
  5
7DE1B343D9E059E
330
7DE1B343D9E060D
100
AcDbEntity
  8
TEXT
100
AcDbLine
 10
0.4358294103106512
 20
-0.0671605416250997
 30
0.0
 11
0.5028874570924912
 21
-0.0671605416250997
 31
0.0
  0
LINE
  5
7DE1B343D9E059F
330
7DE1B343D9E060D
100
AcDbEntity
  8
TEXT
100
AcDbLine
 10
0.4358294103106512
 20
0.127482007540536
 30
0.0
 11
0.4358294103106512
 21
-0.0671605416250997
 31
0.0
  0
LINE
  5
7DE1B343D9E05A0
330
7DE1B343D9E060D
100
AcDbEntity
  8
TEXT
100
AcDbLine
 10
0.3784403413213901
 20
0.1350357967066459
 30
0.0
 11
0.4282756211445377
 21
0.1350357967066459
 31
0.0
  0
LINE
  5
7DE1B343D9E05A1
330
7DE1B343D9E060D
100
AcDbEntity
  8
TEXT
100
AcDbLine
 10
0.3784403413213901
 20
-0.0671605416250997
 30
0.0
 11
0.3784403413213901
 21
0.1350357967066459
 31
0.0
  0
LWPOLYLINE
  5
7DE1B343D9E05A2
330
7DE1B343D9E060D
100
AcDbEntity
  8
TEXT
100
AcDbPolyline
 90
        2
 70
     0
 43
0.0
 10
0.4282756211445359
 20
0.1350357967066459
 42
-0.4142135623731017
 10
0.4358294103106494
 20
0.127482007540536
 42
-0.9999999999999998
  0
LINE
  5
7DE1B343D9E05A6
330
7DE1B343D9E060D
100
AcDbEntity
  8
TEXT
100
AcDbLine
 10
0.634085621922221
 20
0.1350357967066459
 30
0.0
 11
0.634085621922221
 21
0.0599833906324393
 31
0.0
  0
LINE
  5
7DE1B343D9E05A7
330
7DE1B343D9E060D
100
AcDbEntity
  8
TEXT
100
AcDbLine
 10
0.5028874570924912
 20
0.1350357967066459
 30
0.0
 11
0.5570210540134414
 21
0.1350357967066459
 31
0.0
  0
LINE
  5
7DE1B343D9E05A8
330
7DE1B343D9E060D
100
AcDbEntity
  8
TEXT
100
AcDbLine
 10
0.5028874570924912
 20
-0.0671605416250997
 30
0.0
 11
0.5028874570924912
 21
0.1350357967066459
 31
0.0
  0
LWPOLYLINE
  5
7DE1B343D9E05A9
330
7DE1B343D9E060D
100
AcDbEntity
  8
TEXT
100
AcDbPolyline
 90
        2
 70
     0
 43
0.0
 10
0.5570210540134397
 20
0.1350357967066459
 42
-0.4142135623731017
 10
0.5645748431795531
 20
0.127482007540536
 42
-0.9999999999999998
  0
LWPOLYLINE
  5
7DE1B343D9E05AD
330
7DE1B343D9E060D
100
AcDbEntity
  8
TEXT
100
AcDbPolyline
 90
        4
 70
     0
 43
0.0
 10
0.5645748431795531
 20
0.127482007540536
 10
0.5645748431795531
 20
-0.0671605416250997
 10
0.633053126467411
 20
-0.0671605416250997
 10
0.633053126467411
 20
-0.0236695966746615
 42
-1.714843617202739
  0
LINE
  5
7DE1B343D9E05B3
330
7DE1B343D9E060D
100
AcDbEntity
  8
TEXT
100
AcDbLine
 10
-0.0068110412156913
 20
0.1993124913634113
 30
0.0
 11
-0.0068110412156913
 21
0.2337004089575495
 31
0.0
  0
LINE
  5
7DE1B343D9E05B4
330
7DE1B343D9E060D
100
AcDbEntity
  8
TEXT
100
AcDbLine
 10
0.0649879249282161
 20
0.1993124913634113
 30
0.0
 11
-0.0068110412156913
 21
0.1993124913634113
 31
0.0
  0
LINE
  5
7DE1B343D9E05B5
330
7DE1B343D9E060D
100
AcDbEntity
  8
TEXT
100
AcDbLine
 10
0.2124887215593957
 20
0.1993124913634113
 30
0.0
 11
0.1823668087660194
 21
0.1993124913634113
 31
0.0
  0
LINE
  5
7DE1B343D9E05B6
330
7DE1B343D9E060D
100
AcDbEntity
  8
TEXT
100
AcDbLine
 10
0.2124887215593957
 20
0.2673239691022219
 30
0.0
 11
0.2124887215593957
 21
0.1993124913634113
 31
0.0
  0
LINE
  5
7DE1B343D9E05B7
330
7DE1B343D9E060D
100
AcDbEntity
  8
TEXT
100
AcDbLine
 10
0.2792974341257607
 20
0.2673239691022219
 30
0.0
 11
0.2124887215593957
 21
0.2673239691022219
 31
0.0
  0
LWPOLYLINE
  5
7DE1B343D9E05B8
330
7DE1B343D9E060D
100
AcDbEntity
  8
TEXT
100
AcDbPolyline
 90
        3
 70
     0
 43
0.0
 10
0.599709193723763
 20
0.1993124913634149
 10
0.4814090349077186
 20
0.1993124913634149
 10
0.4814090349077186
 20
0.172144994602519
 42
-1.960274751411753
  0
LINE
  5
7DE1B343D9E05BD
330
7DE1B343D9E060D
100
AcDbEntity
  8
TEXT
100
AcDbLine
 10
0.4456273441945572
 20
0.1993124913634113
 30
0.0
 11
0.3116092882634208
 21
0.1993124913634113
 31
0.0
  0
LWPOLYLINE
  5
7DE1B343D9E05BE
330
7DE1B343D9E060D
100
AcDbEntity
  8
TEXT
100
AcDbPolyline
 90
        2
 70
     0
 43
0.0
 10
0.4456273441945572
 20
0.1993124913634149
 42
-0.3328679258950098
 10
0.4814090349077186
 20
0.172144994602519
 42
6.772930709997214
  0
LINE
  5
7DE1B343D9E05C2
330
7DE1B343D9E060D
100
AcDbEntity
  8
TEXT
100
AcDbLine
 10
0.6354908844369298
 20
0.1993124913634113
 30
0.0
 11
0.6354908844369298
 21
0.1709899455937675
 31
0.0
  0
LWPOLYLINE
  5
7DE1B343D9E05C3
330
7DE1B343D9E060D
100
AcDbEntity
  8
TEXT
100
AcDbPolyline
 90
        2
 70
     0
 43
0.0
 10
0.599709193723763
 20
0.1993124913634149
 42
-0.3277054968067132
 10
0.635490884436928
 20
0.170989945593771
 42
6.667889725900311
  0
LINE
  5
7DE1B343D9E05C7
330
7DE1B343D9E060D
100
AcDbEntity
  8
TEXT
100
AcDbLine
 10
0.8492827325290297
 20
0.094100512809984
 30
0.0
 11
0.8055319613471281
 21
0.1763507888061292
 31
0.0
  0
LINE
  5
7DE1B343D9E05C8
330
7DE1B343D9E060D
100
AcDbEntity
  8
TEXT
100
AcDbLine
 10
0.8492827325290297
 20
0.1993124913634113
 30
0.0
 11
0.8492827325290297
 21
0.094100512809984
 31
0.0
  0
LINE
  5
7DE1B343D9E05C9
330
7DE1B343D9E060D
100
AcDbEntity
  8
TEXT
100
AcDbLine
 10
1.076966471467398
 20
0.1234471649518732
 30
0.0
 11
1.076966471467398
 21
0.264776697131012
 31
0.0
  0
LINE
  5
7DE1B343D9E05CA
330
7DE1B343D9E060D
100
AcDbEntity
  8
TEXT
100
AcDbLine
 10
1.124064630023383
 20
0.1993124913634113
 30
0.0
 11
1.076966471467398
 21
0.1234471649518732
 31
0.0
  0
LINE
  5
7DE1B343D9E05CB
330
7DE1B343D9E060D
100
AcDbEntity
  8
TEXT
100
AcDbLine
 10
1.134499346787306
 20
0.0894192484224378
 30
0.0
 11
1.199056462753011
 21
0.1993124913634113
 31
0.0
  0
LINE
  5
7DE1B343D9E05CC
330
7DE1B343D9E060D
100
AcDbEntity
  8
TEXT
100
AcDbLine
 10
1.013131480244625
 20
-0.0671605416250997
 30
0.0
 11
1.077509664563246
 21
-0.0671605416250997
 31
0.0
  0
LWPOLYLINE
  5
7DE1B343D9E05CD
330
7DE1B343D9E060D
100
AcDbEntity
  8
TEXT
100
AcDbPolyline
 90
        2
 70
     0
 43
0.0
 10
0.8532224098340675
 20
-0.0236695966746615
 42
-0.2901071551932486
 10
0.8101464769664231
 20
-0.0671605416250997
 42
-5.328517124445184
  0
ARC
  5
7DE1B343D9E05D1
330
7DE1B343D9E060D
100
AcDbEntity
  8
TEXT
100
AcDbCircle
 10
0.7412918953095086
 20
0.1066764217066486
 30
0.0
 40
0.028359375
100
AcDbArc
 50
25.78218179591245
 51
90.0
  0
LINE
  5
7DE1B343D9E05D2
330
7DE1B343D9E060D
100
AcDbEntity
  8
TEXT
100
AcDbLine
 10
0.7770929706136318
 20
0.0977608232445136
 30
0.0
 11
0.7668282102000674
 21
0.1190113628172079
 31
0.0
  0
LINE
  5
7DE1B343D9E05D3
330
7DE1B343D9E060D
100
AcDbEntity
  8
TEXT
100
AcDbLine
 10
0.6948049808302485
 20
0.0977608232445136
 30
0.0
 11
0.7770929706136318
 21
0.0977608232445136
 31
0.0
  0
LWPOLYLINE
  5
7DE1B343D9E05D4
330
7DE1B343D9E060D
100
AcDbEntity
  8
TEXT
100
AcDbPolyline
 90
        4
 70
     1
 43
0.0
 10
0.7900240118965307
 20
0.0358034363589256
 10
0.7013636932366722
 20
0.0358034363589256
 42
0.9999999999999998
 10
0.7013636932366722
 20
-0.0065951041449351
 10
0.7900240118965307
 20
-0.0065951041449351
 42
1.0
  0
LWPOLYLINE
  5
7DE1B343D9E05DA
330
7DE1B343D9E060D
100
AcDbEntity
  8
TEXT
100
AcDbPolyline
 90
        2
 70
     0
 43
0.0
 10
0.6761290593350466
 20
-0.0671605416250997
 10
0.8101464769664231
 20
-0.0671605416250997
 42
0.9999999999999998
  0
LINE
  5
7DE1B343D9E05DE
330
7DE1B343D9E060D
100
AcDbEntity
  8
TEXT
100
AcDbLine
 10
0.9364834989520625
 20
0.1350357967066459
 30
0.0
 11
1.01313148024462
 21
0.1350357967066459
 31
0.0
  0
LINE
  5
7DE1B343D9E05DF
330
7DE1B343D9E060D
100
AcDbEntity
  8
TEXT
100
AcDbLine
 10
1.01313148024462
 20
0.1350357967066459
 30
0.0
 11
1.013131480244625
 21
-0.0671605416250997
 31
0.0
  0
ARC
  5
7DE1B343D9E05E0
330
7DE1B343D9E060D
100
AcDbEntity
  8
TEXT
100
AcDbCircle
 10
0.9364834989520607
 20
0.1101299214239831
 30
0.0
 40
0.0249058752826653
100
AcDbArc
 50
89.99971217465335
 51
179.9999999999985
  0
LINE
  5
7DE1B343D9E05E1
330
7DE1B343D9E060D
100
AcDbEntity
  8
TEXT
100
AcDbLine
 10
0.9115776236694033
 20
-0.0671605416250997
 30
0.0
 11
0.911577623669398
 21
0.1101299638063687
 31
0.0
  0
LWPOLYLINE
  5
7DE1B343D9E05E2
330
7DE1B343D9E060D
100
AcDbEntity
  8
TEXT
100
AcDbPolyline
 90
        2
 70
     0
 43
0.0
 10
0.8532224098340675
 20
-0.0671605416250997
 10
0.9115776236694015
 20
-0.0671605416250997
  0
LWPOLYLINE
  5
7DE1B343D9E05E6
330
7DE1B343D9E060D
100
AcDbEntity
  8
TEXT
100
AcDbPolyline
 90
        2
 70
     0
 43
0.0
 10
0.8532224098340675
 20
-0.0236695966746615
 10
0.8532224098340675
 20
-0.0671605416250997
  0
LINE
  5
7DE1B343D9E05EA
330
7DE1B343D9E060D
100
AcDbEntity
  8
TEXT
100
AcDbLine
 10
1.229991570150916
 20
-0.0671605416250997
 30
0.0
 11
1.134499346787306
 21
0.0894192484224378
 31
0.0
  0
LINE
  5
7DE1B343D9E05EB
330
7DE1B343D9E060D
100
AcDbEntity
  8
TEXT
100
AcDbLine
 10
1.15341319777471
 20
-0.0671605416250997
 30
0.0
 11
1.229991570150916
 21
-0.0671605416250997
 31
0.0
  0
LINE
  5
7DE1B343D9E05EC
330
7DE1B343D9E060D
100
AcDbEntity
  8
TEXT
100
AcDbLine
 10
1.077509664563246
 20
0.0644190268510806
 30
0.0
 11
1.15341319777471
 21
-0.0671605416250997
 31
0.0
  0
LINE
  5
7DE1B343D9E05ED
330
7DE1B343D9E060D
100
AcDbEntity
  8
TEXT
100
AcDbLine
 10
1.077509664563246
 20
-0.0671605416250997
 30
0.0
 11
1.077509664563246
 21
0.0644190268510806
 31
0.0
  0
LINE
  5
7DE1B343D9E05EE
330
7DE1B343D9E060D
100
AcDbEntity
  8
TEXT
100
AcDbLine
 10
1.076966471467398
 20
0.264776697131012
 30
0.0
 11
1.008651592918125
 21
0.264776697131012
 31
0.0
  0
ARC
  5
7DE1B343D9E05EF
330
7DE1B343D9E060D
100
AcDbEntity
  8
TEXT
100
AcDbCircle
 10
0.7682958538769195
 20
0.1577289242425089
 30
0.0
 40
0.0416329381542859
100
AcDbArc
 50
26.56974201007528
 51
87.20939649401342
  0
LINE
  5
7DE1B343D9E05F0
330
7DE1B343D9E060D
100
AcDbEntity
  8
TEXT
100
AcDbLine
 10
0.9131796388285307
 20
0.1993124913634113
 30
0.0
 11
0.8492827325290297
 21
0.1993124913634113
 31
0.0
  0
LINE
  5
7DE1B343D9E05F1
330
7DE1B343D9E060D
100
AcDbEntity
  8
TEXT
100
AcDbLine
 10
0.9131796388285307
 20
0.1717648415025367
 30
0.0
 11
0.9131796388285307
 21
0.1993124913634113
 31
0.0
  0
ARC
  5
7DE1B343D9E05F2
330
7DE1B343D9E060D
100
AcDbEntity
  8
TEXT
100
AcDbCircle
 10
0.9443724558916384
 20
0.1680667640811465
 30
0.0
 40
0.0314112657011332
100
AcDbArc
 50
95.88484768694724
 51
173.2388340632136
  0
LINE
  5
7DE1B343D9E05F3
330
7DE1B343D9E060D
100
AcDbEntity
  8
TEXT
100
AcDbLine
 10
1.00865159291812
 20
0.1993124913634113
 30
0.0
 11
0.9411518752686037
 21
0.1993124913634113
 31
0.0
  0
LINE
  5
7DE1B343D9E05F4
330
7DE1B343D9E060D
100
AcDbEntity
  8
TEXT
100
AcDbLine
 10
1.008651592918125
 20
0.264776697131012
 30
0.0
 11
1.00865159291812
 21
0.1993124913634113
 31
0.0
  0
LINE
  5
7DE1B343D9E05F5
330
7DE1B343D9E060D
100
AcDbEntity
  8
TEXT
100
AcDbLine
 10
1.199056462753011
 20
0.1993124913634113
 30
0.0
 11
1.124064630023385
 21
0.1993124913634113
 31
0.0
  0
INSERT
  5
7DE1B343D9E0628
330
7DE1B343D9E060D
100
AcDbEntity
  8
ASHADE
 62
     1
100
AcDbBlockReference
  2
AVE_RENDER
 10
0.0
 20
0.0
 30
0.0
1001
AVE_RENDER
1002
{
1070
     6
1000
Pref
1070
    30
1070
    20
1070
     1
1070
     0
1000

1070
    10
1070
     1
1070
    30
1040
1.0
1070
     1
1040
0.3
1040
0.7
1040
0.0
1040
10.0
1010
-1.0
1020
-1.0
1030
-1.0
1040
0.3
1070
    49
1070
     0
1070
     0
1010
1.0
1020
1.0
1030
1.0
1040
45.0
1070
     1
1070
     0
1000
WCS
1040
0.0
1002
}
  0
INSERT
  5
7DE1B343D9E0629
330
7DE1B343D9E060D
100
AcDbEntity
  8
ASHADE
 62
     3
100
AcDbBlockReference
  2
AVE_RENDER
 10
0.0
 20
0.0
 30
0.0
1001
AVE_RENDER
1002
{
1070
     0
1000
Full Opt
1070
     0
1070
     1
1070
     1
1070
     1
1070
     0
1070
     0
1070
     0
1070
     1
1070
     1
1040
0.0001
1040
0.0001
1002
}
  0
INSERT
  5
7DE1B343D9E062A
330
7DE1B343D9E060D
100
AcDbEntity
  8
ASHADE
 62
     4
100
AcDbBlockReference
  2
AVE_RENDER
 10
0.0
 20
0.0
 30
0.0
1001
AVE_RENDER
1002
{
1070
     0
1000
Quick Opt
1070
     0
1070
     1
1070
     1
1070
     1
1070
     0
1070
     0
1070
     1
1002
}
  0
INSERT
  5
7DE1B343D9E062B
330
7DE1B343D9E060D
100
AcDbEntity
  8
ASHADE
 62
     5
100
AcDbBlockReference
  2
AVE_RENDER
 10
0.0
 20
0.0
 30
0.0
1001
AVE_RENDER
1002
{
1070
     1
1000
Scanl Opt
1070
     2
1070
     0
1070
     2
1040
2.0
1040
4.0
1070
     0
1070
     1
1070
     0
1040
0.03
1002
}
  0
INSERT
  5
7DE1B343D9E062C
330
7DE1B343D9E060D
100
AcDbEntity
  8
ASHADE
 62
     6
100
AcDbBlockReference
  2
AVE_RENDER
 10
0.0
 20
0.0
 30
0.0
1001
AVE_RENDER
1002
{
1070
     2
1000
Raytr Opt
1070
     2
1070
     0
1070
     2
1040
2.0
1040
4.0
1070
     0
1070
     1
1070
     1
1040
0.03
1070
     3
1040
0.03
1002
}
  0
INSERT
  5
7DE1B343D9E062D
330
7DE1B343D9E060D
100
AcDbEntity
  8
ASHADE
 62
     7
100
AcDbBlockReference
  2
AVE_RENDER
 10
0.0
 20
0.0
 30
0.0
1001
AVE_RENDER
1002
{
1070
     0
1000
RFile Opt
1070
     5
1070
   640
1070
   480
1070
 10000
1070
     3
1070
    32
1070
    24
1070
     0
1070
     0
1070
     0
1070
     1
1070
     0
1070
     0
1070
     0
1002
}
  0
INSERT
  5
7DE1B343D9E062E
330
7DE1B343D9E060D
100
AcDbEntity
  8
ASHADE
 62
     8
100
AcDbBlockReference
  2
AVE_RENDER
 10
0.0
 20
0.0
 30
0.0
1001
AVE_RENDER
1002
{
1070
     0
1000
Fog Opt
1070
     0
1070
     0
1040
0.0
1040
1.0
1040
0.0
1040
1.0
1010
0.5
1020
0.5
1030
0.5
1002
}
  0
INSERT
  5
7DE1B343D9E062F
330
7DE1B343D9E060D
100
AcDbEntity
  8
ASHADE
 62
     9
100
AcDbBlockReference
  2
AVE_RENDER
 10
0.0
 20
0.0
 30
0.0
1001
AVE_RENDER
1002
{
1070
     0
1000
BG Opt
1070
     0
1070
     1
1010
0.0
1020
0.0
1030
0.0
1010
1.0
1020
0.0
1030
0.0
1010
0.0
1020
1.0
1030
0.0
1010
0.0
1020
0.0
1030
1.0
1040
0.5
1040
0.33
1040
0.0
1000

1070
     1
1000

1070
     1
1070
     1
1040
1.0
1040
1.0
1040
0.0
1040
0.0
1070
     0
1002
}
  0
INSERT
  5
7DE1B343D9E0636
330
7DE1B343D9E060D
100
AcDbEntity
  8
ASHADE
 62
     1
100
AcDbBlockReference
  2
AVE_GLOBAL
 10
0.0
 20
0.0
 30
0.0
1001
AVE_MATERIAL
1002
{
1000
*GLOBAL*
1000
1
1000
Global finish.
1002
{
1002
}
1002
{
1070
    63
1002
{
1002
{
1010
-1.0
1020
-1.0
1030
-1.0
1002
}
1040
0.1000000014901161
1000

1040
0.0
1002
{
1002
}
1040
0.0
1002
{
1002
}
1040
0.0
1002
}
1002
{
1002
{
1010
-1.0
1020
-1.0
1030
-1.0
1002
}
1040
0.6999999880790711
1000

1040
0.0
1002
{
1002
}
1040
0.0
1002
{
1002
}
1040
0.0
1002
}
1002
{
1002
{
1010
-1.0
1020
-1.0
1030
-1.0
1002
}
1040
0.2000000029802322
1000

1040
0.0
1002
{
1002
}
1040
0.0
1002
{
1002
}
1040
0.0
1002
}
1002
{
1070
     0
1002
{
1070
     1
1002
{
1040
1.0
1040
1.0
1000

1040
0.0
1002
{
1002
}
1040
0.0
1002
{
1002
}
1040
0.0
1002
}
1002
}
1040
1.0
1040
0.0
1040
0.0
1002
}
1002
{
1040
1.0
1040
1.0
1000

1040
0.0
1002
{
1002
}
1040
0.0
1002
{
1002
}
1040
0.0
1002
}
1002
{
1040
0.5
1040
1.0
1000

1040
0.0
1002
{
1002
}
1040
0.0
1002
{
1002
}
1040
0.0
1002
}
1002
{
1070
     0
1040
0.0
1002
{
1002
}
1040
1.0
1002
{
1002
}
1040
0.0
1002
}
1002
{
1040
0.0
1002
{
1002
{
1010
0.0
1020
0.0
1030
0.0
1002
}
1040
1.0
1000

1040
0.0
1002
{
1002
}
1040
0.0
1002
{
1002
}
1040
0.0
1002
}
1002
}
1002
{
1002
{
1070
     1
1002
{
1040
0.0
1040
1.0
1000

1040
0.0
1002
{
1002
}
1040
0.0
1002
{
1002
}
1040
0.0
1002
}
1002
}
1040
0.0
1002
{
1002
}
1010
1.0
1020
0.0
1030
0.0
1010
0.0
1020
1.0
1030
0.0
1010
0.0
1020
0.0
1030
1.0
1070
     0
1002
}
1002
{
1002
{
1040
1.0
1040
1.0
1002
{
1070
     1
1002
{
1040
1.0
1040
1.0
1000

1040
0.0
1002
{
1002
}
1040
0.0
1002
{
1002
}
1040
0.0
1002
}
1002
}
1002
}
1070
     0
1040
0.0
1002
{
1002
}
1002
}
1002
{
1002
}
1002
}
1002
{
1071
        3
1070
     3
1070
     0
1002
{
1070
     2
1070
     0
1070
     0
1040
0.0
1002
}
1070
     0
1070
     2
1002
{
1002
}
1002
}
1002
{
1040
8030.0
1040
190.3000030517578
1040
0.3050000071525574
1040
228.0
1040
545.0
1040
14.0
1040
17.39999961853027
1040
0.4560000002384186
1002
}
1002
}
  0
ENDSEC
  0
SECTION
  2
OBJECTS
  0
DICTIONARY
  5
7DE1B343D9E0601
330
0
100
AcDbDictionary
  3
ACAD_GROUP
350
7DE1B343D9E0602
  3
ACAD_LAYOUT
350
7DE1B343D9E0642
  3
ACAD_MLINESTYLE
350
7DE1B343D9E0603
  3
ACAD_PLOTSETTINGS
350
7DE1B343D9E0643
  3
ACAD_PLOTSTYLENAME
350
7DE1B343D9E0640
  3
ACDBHEADERROUNDTRIPXREC
350
7DE1B343D9E064D
  3
ACDBVARIABLEDICTIONARY
350
7DE1B343D9E064A
  0
DICTIONARY
  5
7DE1B343D9E066F
330
7DE1B343D9E060D
100
AcDbDictionary
280
     1
  3
ACAD_LAYOUTSELFREF
360
7DE1B343D9E0670
  0
DICTIONARY
  5
7DE1B343D9E066D
330
7DE1B343D9E060A
100
AcDbDictionary
280
     1
  3
ACAD_LAYOUTSELFREF
360
7DE1B343D9E066E
  0
DICTIONARY
  5
7DE1B343D9E0602
102
{ACAD_REACTORS
330
7DE1B343D9E0601
102
}
330
7DE1B343D9E0601
100
AcDbDictionary
  0
DICTIONARY
  5
7DE1B343D9E0642
102
{ACAD_REACTORS
330
7DE1B343D9E0601
102
}
330
7DE1B343D9E0601
100
AcDbDictionary
  0
DICTIONARY
  5
7DE1B343D9E0603
102
{ACAD_REACTORS
330
7DE1B343D9E0601
102
}
330
7DE1B343D9E0601
100
AcDbDictionary
  3
STANDARD
350
7DE1B343D9E0610
  0
DICTIONARY
  5
7DE1B343D9E0643
102
{ACAD_REACTORS
330
7DE1B343D9E0601
102
}
330
7DE1B343D9E0601
100
AcDbDictionary
  0
ACDBDICTIONARYWDFLT
  5
7DE1B343D9E0640
102
{ACAD_REACTORS
330
7DE1B343D9E0601
102
}
330
7DE1B343D9E0601
100
AcDbDictionary
281
     1
  3
Normal
350
7DE1B343D9E0641
100
AcDbDictionaryWithDefault
340
7DE1B343D9E0641
  0
DICTIONARY
  5
7DE1B343D9E064D
102
{ACAD_REACTORS
330
7DE1B343D9E0601
102
}
330
7DE1B343D9E0601
100
AcDbDictionary
  3
CEPSNTYPE
350
7DE1B343D9E0657
  3
FINGERPRINTGUID
350
7DE1B343D9E0658
  3
HYPERLINKBASE
350
7DE1B343D9E0650
  3
INSUNITS
350
7DE1B343D9E0656
  3
LAYOUTDICT
350
7DE1B343D9E0652
  3
LWETCUNION
350
7DE1B343D9E0655
  3
PLOTSETDICT
350
7DE1B343D9E0653
  3
PLOTSTYLNAMDICT
350
7DE1B343D9E0654
  3
PSVPSCALE
350
7DE1B343D9E065A
  3
PUCSBASE
350
7DE1B343D9E065D
  3
PUCSORGBACK
350
7DE1B343D9E0663
  3
PUCSORGBOTTOM
350
7DE1B343D9E065F
  3
PUCSORGFRONT
350
7DE1B343D9E0662
  3
PUCSORGLEFT
350
7DE1B343D9E0660
  3
PUCSORGRIGHT
350
7DE1B343D9E0661
  3
PUCSORGTOP
350
7DE1B343D9E065E
  3
PUCSORTHOREF
350
7DE1B343D9E065B
  3
PUCSORTHOVIEW
350
7DE1B343D9E065C
  3
STYLESHEET
350
7DE1B343D9E0651
  3
TSTACKALIGN
350
7DE1B343D9E064E
  3
TSTACKSIZE
350
7DE1B343D9E064F
  3
UCSBASE
350
7DE1B343D9E0666
  3
UCSORGBACK
350
7DE1B343D9E066C
  3
UCSORGBOTTOM
350
7DE1B343D9E0668
  3
UCSORGFRONT
350
7DE1B343D9E066B
  3
UCSORGLEFT
350
7DE1B343D9E0669
  3
UCSORGRIGHT
350
7DE1B343D9E066A
  3
UCSORGTOP
350
7DE1B343D9E0667
  3
UCSORTHOREF
350
7DE1B343D9E0664
  3
UCSORTHOVIEW
350
7DE1B343D9E0665
  3
VERSIONGUID
350
7DE1B343D9E0659
  0
DICTIONARY
  5
7DE1B343D9E064A
102
{ACAD_REACTORS
330
7DE1B343D9E0601
102
}
330
7DE1B343D9E0601
100
AcDbDictionary
  3
DIMASSOC
350
7DE1B343D9E064B
  0
XRECORD
  5
7DE1B343D9E0670
102
{ACAD_REACTORS
330
7DE1B343D9E066F
102
}
330
7DE1B343D9E066F
100
AcDbXrecord
340
7DE1B343D9E060D
  0
XRECORD
  5
7DE1B343D9E066E
102
{ACAD_REACTORS
330
7DE1B343D9E066D
102
}
330
7DE1B343D9E066D
100
AcDbXrecord
340
7DE1B343D9E060A
  0
MLINESTYLE
  5
7DE1B343D9E0610
102
{ACAD_REACTORS
330
7DE1B343D9E0603
102
}
330
7DE1B343D9E0603
100
AcDbMlineStyle
  2
STANDARD
 70
     0
  3

 62
     0
 51
90.0
 52
90.0
 71
     2
 49
0.5
 62
   256
  6
BYLAYER
 49
-0.5
 62
   256
  6
BYLAYER
  0
ACDBPLACEHOLDER
  5
7DE1B343D9E0641
102
{ACAD_REACTORS
330
7DE1B343D9E0640
102
}
330
7DE1B343D9E0640
100
AcDbPlaceHolder
280
     0
  0
XRECORD
  5
7DE1B343D9E0657
102
{ACAD_REACTORS
330
7DE1B343D9E064D
102
}
330
7DE1B343D9E064D
100
AcDbXrecord
 90
        0
  0
XRECORD
  5
7DE1B343D9E0658
102
{ACAD_REACTORS
330
7DE1B343D9E064D
102
}
330
7DE1B343D9E064D
100
AcDbXrecord
  1
{BE3B0C80-8DB5-11D6-88E6-0090279574E7}
  0
XRECORD
  5
7DE1B343D9E0650
102
{ACAD_REACTORS
330
7DE1B343D9E064D
102
}
330
7DE1B343D9E064D
100
AcDbXrecord
  1

  0
XRECORD
  5
7DE1B343D9E0656
102
{ACAD_REACTORS
330
7DE1B343D9E064D
102
}
330
7DE1B343D9E064D
100
AcDbXrecord
 90
        0
  0
XRECORD
  5
7DE1B343D9E0652
102
{ACAD_REACTORS
330
7DE1B343D9E064D
102
}
330
7DE1B343D9E064D
100
AcDbXrecord
340
7DE1B343D9E0642
  0
XRECORD
  5
7DE1B343D9E0655
102
{ACAD_REACTORS
330
7DE1B343D9E064D
102
}
330
7DE1B343D9E064D
100
AcDbXrecord
 90
    14877
  0
XRECORD
  5
7DE1B343D9E0653
102
{ACAD_REACTORS
330
7DE1B343D9E064D
102
}
330
7DE1B343D9E064D
100
AcDbXrecord
340
7DE1B343D9E0643
  0
XRECORD
  5
7DE1B343D9E0654
102
{ACAD_REACTORS
330
7DE1B343D9E064D
102
}
330
7DE1B343D9E064D
100
AcDbXrecord
340
7DE1B343D9E0640
  0
XRECORD
  5
7DE1B343D9E065A
102
{ACAD_REACTORS
330
7DE1B343D9E064D
102
}
330
7DE1B343D9E064D
100
AcDbXrecord
 40
0.0
  0
XRECORD
  5
7DE1B343D9E065D
102
{ACAD_REACTORS
330
7DE1B343D9E064D
102
}
330
7DE1B343D9E064D
100
AcDbXrecord
340
0
  0
XRECORD
  5
7DE1B343D9E0663
102
{ACAD_REACTORS
330
7DE1B343D9E064D
102
}
330
7DE1B343D9E064D
100
AcDbXrecord
 10
0.0
 20
0.0
 30
0.0
  0
XRECORD
  5
7DE1B343D9E065F
102
{ACAD_REACTORS
330
7DE1B343D9E064D
102
}
330
7DE1B343D9E064D
100
AcDbXrecord
 10
0.0
 20
0.0
 30
0.0
  0
XRECORD
  5
7DE1B343D9E0662
102
{ACAD_REACTORS
330
7DE1B343D9E064D
102
}
330
7DE1B343D9E064D
100
AcDbXrecord
 10
0.0
 20
0.0
 30
0.0
  0
XRECORD
  5
7DE1B343D9E0660
102
{ACAD_REACTORS
330
7DE1B343D9E064D
102
}
330
7DE1B343D9E064D
100
AcDbXrecord
 10
0.0
 20
0.0
 30
0.0
  0
XRECORD
  5
7DE1B343D9E0661
102
{ACAD_REACTORS
330
7DE1B343D9E064D
102
}
330
7DE1B343D9E064D
100
AcDbXrecord
 10
0.0
 20
0.0
 30
0.0
  0
XRECORD
  5
7DE1B343D9E065E
102
{ACAD_REACTORS
330
7DE1B343D9E064D
102
}
330
7DE1B343D9E064D
100
AcDbXrecord
 10
0.0
 20
0.0
 30
0.0
  0
XRECORD
  5
7DE1B343D9E065B
102
{ACAD_REACTORS
330
7DE1B343D9E064D
102
}
330
7DE1B343D9E064D
100
AcDbXrecord
340
0
  0
XRECORD
  5
7DE1B343D9E065C
102
{ACAD_REACTORS
330
7DE1B343D9E064D
102
}
330
7DE1B343D9E064D
100
AcDbXrecord
 70
     0
  0
XRECORD
  5
7DE1B343D9E0651
102
{ACAD_REACTORS
330
7DE1B343D9E064D
102
}
330
7DE1B343D9E064D
100
AcDbXrecord
  1

  0
XRECORD
  5
7DE1B343D9E064E
102
{ACAD_REACTORS
330
7DE1B343D9E064D
102
}
330
7DE1B343D9E064D
100
AcDbXrecord
 90
        1
  0
XRECORD
  5
7DE1B343D9E064F
102
{ACAD_REACTORS
330
7DE1B343D9E064D
102
}
330
7DE1B343D9E064D
100
AcDbXrecord
 90
       70
  0
XRECORD
  5
7DE1B343D9E0666
102
{ACAD_REACTORS
330
7DE1B343D9E064D
102
}
330
7DE1B343D9E064D
100
AcDbXrecord
340
0
  0
XRECORD
  5
7DE1B343D9E066C
102
{ACAD_REACTORS
330
7DE1B343D9E064D
102
}
330
7DE1B343D9E064D
100
AcDbXrecord
 10
0.0
 20
0.0
 30
0.0
  0
XRECORD
  5
7DE1B343D9E0668
102
{ACAD_REACTORS
330
7DE1B343D9E064D
102
}
330
7DE1B343D9E064D
100
AcDbXrecord
 10
0.0
 20
0.0
 30
0.0
  0
XRECORD
  5
7DE1B343D9E066B
102
{ACAD_REACTORS
330
7DE1B343D9E064D
102
}
330
7DE1B343D9E064D
100
AcDbXrecord
 10
0.0
 20
0.0
 30
0.0
  0
XRECORD
  5
7DE1B343D9E0669
102
{ACAD_REACTORS
330
7DE1B343D9E064D
102
}
330
7DE1B343D9E064D
100
AcDbXrecord
 10
0.0
 20
0.0
 30
0.0
  0
XRECORD
  5
7DE1B343D9E066A
102
{ACAD_REACTORS
330
7DE1B343D9E064D
102
}
330
7DE1B343D9E064D
100
AcDbXrecord
 10
0.0
 20
0.0
 30
0.0
  0
XRECORD
  5
7DE1B343D9E0667
102
{ACAD_REACTORS
330
7DE1B343D9E064D
102
}
330
7DE1B343D9E064D
100
AcDbXrecord
 10
0.0
 20
0.0
 30
0.0
  0
XRECORD
  5
7DE1B343D9E0664
102
{ACAD_REACTORS
330
7DE1B343D9E064D
102
}
330
7DE1B343D9E064D
100
AcDbXrecord
340
0
  0
XRECORD
  5
7DE1B343D9E0665
102
{ACAD_REACTORS
330
7DE1B343D9E064D
102
}
330
7DE1B343D9E064D
100
AcDbXrecord
 70
     0
  0
XRECORD
  5
7DE1B343D9E0659
102
{ACAD_REACTORS
330
7DE1B343D9E064D
102
}
330
7DE1B343D9E064D
100
AcDbXrecord
  1
{BE3B0C82-8DB5-11D6-88E6-0090279574E7}
  0
DICTIONARYVAR
  5
7DE1B343D9E064B
102
{ACAD_REACTORS
330
7DE1B343D9E064A
102
}
330
7DE1B343D9E064A
100
DictionaryVariables
280
     0
  1
1
  0
ENDSEC
  0
EOF
