  0
SECTION
  2
HEADER
  9
$ACADVER
  1
AC1014
  9
$ACADMAINTVER
 70
     9
  9
$DWGCODEPAGE
  3
ANSI_1252
  9
$INSBASE
 10
5.28125
 20
3.71875
 30
0.0
  9
$EXTMIN
 10
9.573569477555244
 20
1.803395623216055
 30
0.0
  9
$EXTMAX
 10
13.05878879930239
 20
2.765625
 30
0.0
  9
$LIMMIN
 10
0.0
 20
0.0
  9
$LIMMAX
 10
8.5
 20
11.0
  9
$ORTHOMODE
 70
     0
  9
$REGENMODE
 70
     1
  9
$FILLMODE
 70
     1
  9
$QTEXTMODE
 70
     0
  9
$MIRRTEXT
 70
     0
  9
$DRAGMODE
 70
     2
  9
$LTSCALE
 40
1.0
  9
$OSMODE
 70
    39
  9
$ATTMODE
 70
     1
  9
$TEXTSIZE
 40
0.125
  9
$TRACEWID
 40
0.05
  9
$TEXTSTYLE
  7
ROMANS
  9
$CLAYER
  8
DIM
  9
$CELTYPE
  6
BYLAYER
  9
$CECOLOR
 62
   256
  9
$CELTSCALE
 40
1.0
  9
$DELOBJ
 70
     1
  9
$DISPSILH
 70
     1
  9
$DIMSCALE
 40
1.0
  9
$DIMASZ
 40
0.125
  9
$DIMEXO
 40
0.125
  9
$DIMDLI
 40
0.375
  9
$DIMRND
 40
0.0
  9
$DIMDLE
 40
0.0
  9
$DIMEXE
 40
0.125
  9
$DIMTP
 40
0.01
  9
$DIMTM
 40
0.0
  9
$DIMTXT
 40
0.125
  9
$DIMCEN
 40
-0.125
  9
$DIMTSZ
 40
0.0
  9
$DIMTOL
 70
     0
  9
$DIMLIM
 70
     0
  9
$DIMTIH
 70
     1
  9
$DIMTOH
 70
     1
  9
$DIMSE1
 70
     0
  9
$DIMSE2
 70
     0
  9
$DIMTAD
 70
     0
  9
$DIMZIN
 70
     4
  9
$DIMBLK
  1

  9
$DIMASO
 70
     1
  9
$DIMSHO
 70
     1
  9
$DIMPOST
  1

  9
$DIMAPOST
  1

  9
$DIMALT
 70
     0
  9
$DIMALTD
 70
     2
  9
$DIMALTF
 40
25.4
  9
$DIMLFAC
 40
0.25
  9
$DIMTOFL
 70
     0
  9
$DIMTVP
 40
0.0
  9
$DIMTIX
 70
     1
  9
$DIMSOXD
 70
     0
  9
$DIMSAH
 70
     0
  9
$DIMBLK1
  1

  9
$DIMBLK2
  1

  9
$DIMSTYLE
  2
STANDARD
  9
$DIMCLRD
 70
     0
  9
$DIMCLRE
 70
     0
  9
$DIMCLRT
 70
     0
  9
$DIMTFAC
 40
1.0
  9
$DIMGAP
 40
0.09
  9
$DIMJUST
 70
     0
  9
$DIMSD1
 70
     0
  9
$DIMSD2
 70
     0
  9
$DIMTOLJ
 70
     1
  9
$DIMTZIN
 70
     4
  9
$DIMALTZ
 70
     0
  9
$DIMALTTZ
 70
     0
  9
$DIMFIT
 70
     3
  9
$DIMUPT
 70
     0
  9
$DIMUNIT
 70
     2
  9
$DIMDEC
 70
     3
  9
$DIMTDEC
 70
     3
  9
$DIMALTU
 70
     2
  9
$DIMALTTD
 70
     2
  9
$DIMTXSTY
  7
ROMANS
  9
$DIMAUNIT
 70
     0
  9
$LUNITS
 70
     2
  9
$LUPREC
 70
     3
  9
$SKETCHINC
 40
0.1
  9
$FILLETRAD
 40
0.03125
  9
$AUNITS
 70
     0
  9
$AUPREC
 70
     0
  9
$MENU
  1
ACAD
  9
$ELEVATION
 40
0.0
  9
$PELEVATION
 40
0.0
  9
$THICKNESS
 40
0.0
  9
$LIMCHECK
 70
     0
  9
$BLIPMODE
 70
     0
  9
$CHAMFERA
 40
0.0
  9
$CHAMFERB
 40
0.0
  9
$CHAMFERC
 40
0.0
  9
$CHAMFERD
 40
0.0
  9
$SKPOLY
 70
     0
  9
$TDCREATE
 40
2449695.447958680
  9
$TDUPDATE
 40
2452458.304080277
  9
$TDINDWG
 40
0.0557454977
  9
$TDUSRTIMER
 40
0.0557454977
  9
$USRTIMER
 70
     1
  9
$ANGBASE
 50
0.0
  9
$ANGDIR
 70
     0
  9
$PDMODE
 70
     0
  9
$PDSIZE
 40
0.0
  9
$PLINEWID
 40
0.0
  9
$COORDS
 70
     2
  9
$SPLFRAME
 70
     0
  9
$SPLINETYPE
 70
     6
  9
$SPLINESEGS
 70
     8
  9
$ATTDIA
 70
     0
  9
$ATTREQ
 70
     1
  9
$HANDLING
 70
 22529
  9
$HANDSEED
  5
748
  9
$SURFTAB1
 70
     6
  9
$SURFTAB2
 70
     6
  9
$SURFTYPE
 70
     6
  9
$SURFU
 70
     6
  9
$SURFV
 70
     6
  9
$UCSNAME
  2

  9
$UCSORG
 10
0.0
 20
0.0
 30
0.0
  9
$UCSXDIR
 10
1.0
 20
0.0
 30
0.0
  9
$UCSYDIR
 10
0.0
 20
1.0
 30
0.0
  9
$PUCSNAME
  2

  9
$PUCSORG
 10
0.0
 20
0.0
 30
0.0
  9
$PUCSXDIR
 10
1.0
 20
0.0
 30
0.0
  9
$PUCSYDIR
 10
0.0
 20
1.0
 30
0.0
  9
$USERI1
 70
     0
  9
$USERI2
 70
     0
  9
$USERI3
 70
     0
  9
$USERI4
 70
     0
  9
$USERI5
 70
     0
  9
$USERR1
 40
0.0
  9
$USERR2
 40
0.0
  9
$USERR3
 40
0.0
  9
$USERR4
 40
0.0
  9
$USERR5
 40
0.0
  9
$WORLDVIEW
 70
     1
  9
$SHADEDGE
 70
     3
  9
$SHADEDIF
 70
    70
  9
$TILEMODE
 70
     1
  9
$MAXACTVP
 70
    16
  9
$PINSBASE
 10
0.0
 20
0.0
 30
0.0
  9
$PLIMCHECK
 70
     0
  9
$PEXTMIN
 10
1.000000000000000E+20
 20
1.000000000000000E+20
 30
1.000000000000000E+20
  9
$PEXTMAX
 10
-1.000000000000000E+20
 20
-1.000000000000000E+20
 30
-1.000000000000000E+20
  9
$PLIMMIN
 10
0.0
 20
0.0
  9
$PLIMMAX
 10
12.0
 20
9.0
  9
$UNITMODE
 70
     0
  9
$VISRETAIN
 70
     0
  9
$PLINEGEN
 70
     1
  9
$PSLTSCALE
 70
     0
  9
$TREEDEPTH
 70
  3020
  9
$PICKSTYLE
 70
     1
  9
$CMLSTYLE
  2
STANDARD
  9
$CMLJUST
 70
     0
  9
$CMLSCALE
 40
1.0
  9
$PROXYGRAPHICS
 70
     1
  9
$MEASUREMENT
 70
     0
  0
ENDSEC
  0
SECTION
  2
CLASSES
  0
CLASS
  1
LWPOLYLINE
  2
AcDbPolyline
  3
AutoCAD 2000
 90
        0
280
     0
281
     1
  0
CLASS
  1
ACDBDICTIONARYWDFLT
  2
AcDbDictionaryWithDefault
  3
AutoCAD 2000
 90
        0
280
     0
281
     0
  0
CLASS
  1
ACDBPLACEHOLDER
  2
AcDbPlaceHolder
  3
AutoCAD 2000
 90
        0
280
     0
281
     0
  0
CLASS
  1
LAYOUT
  2
AcDbLayout
  3
AutoCAD 2000
 90
        0
280
     0
281
     0
  0
CLASS
  1
DICTIONARYVAR
  2
AcDbDictionaryVar
  3
AutoCAD 2000
 90
        0
280
     0
281
     0
  0
CLASS
  1
LONG_TRANSACTION
  2
AcDbLongTransaction
  3
AutoCAD 2000
 90
        0
280
     0
281
     0
  0
CLASS
  1
LWPOLYLINE
  2
AcDbPolyline
  3
AutoCAD 2000
 90
        0
280
     0
281
     1
  0
CLASS
  1
HATCH
  2
AcDbHatch
  3
AutoCAD 2000
 90
        0
280
     0
281
     1
  0
CLASS
  1
XRECORD
  2
AcDbXrecord
  3
AutoCAD 2000
 90
        0
280
     0
281
     0
  0
ENDSEC
  0
SECTION
  2
TABLES
  0
TABLE
  2
VPORT
  5
8
330
0
100
AcDbSymbolTable
 70
     2
  0
VPORT
  5
723
330
8
100
AcDbSymbolTableRecord
100
AcDbViewportTableRecord
  2
*ACTIVE
 70
     0
 10
0.0
 20
0.0
 11
1.0
 21
1.0
 12
14.23891940740344
 22
2.28453401847921
 13
0.0
 23
0.0
 14
0.015625
 24
0.015625
 15
0.0
 25
0.0
 16
0.0
 26
0.0
 36
1.0
 17
0.0
 27
0.0
 37
0.0
 40
2.163882837181773
 41
4.320930232558139
 42
50.0
 43
0.0
 44
0.0
 50
0.0
 51
0.0
 71
     0
 72
  2000
 73
     1
 74
     1
 75
     0
 76
     0
 77
     0
 78
     0
  0
ENDTAB
  0
TABLE
  2
LTYPE
  5
5
330
0
100
AcDbSymbolTable
 70
     1
  0
LTYPE
  5
12
330
5
100
AcDbSymbolTableRecord
100
AcDbLinetypeTableRecord
  2
BYBLOCK
 70
     0
  3

 72
    65
 73
     0
 40
0.0
  0
LTYPE
  5
13
330
5
100
AcDbSymbolTableRecord
100
AcDbLinetypeTableRecord
  2
BYLAYER
 70
     0
  3

 72
    65
 73
     0
 40
0.0
  0
LTYPE
  5
14
330
5
100
AcDbSymbolTableRecord
100
AcDbLinetypeTableRecord
  2
CONTINUOUS
 70
     0
  3
Solid line
 72
    65
 73
     0
 40
0.0
  0
ENDTAB
  0
TABLE
  2
LAYER
  5
2
330
0
100
AcDbSymbolTable
 70
     3
  0
LAYER
  5
F
330
2
100
AcDbSymbolTableRecord
100
AcDbLayerTableRecord
  2
0
 70
     0
 62
     7
  6
CONTINUOUS
  0
LAYER
  5
23
330
2
100
AcDbSymbolTableRecord
100
AcDbLayerTableRecord
  2
DIM
 70
     0
 62
     4
  6
CONTINUOUS
  0
LAYER
  5
24
330
2
100
AcDbSymbolTableRecord
100
AcDbLayerTableRecord
  2
TEXT
 70
     0
 62
     3
  6
CONTINUOUS
  0
ENDTAB
  0
TABLE
  2
STYLE
  5
3
330
0
100
AcDbSymbolTable
 70
     3
  0
STYLE
  5
10
330
3
100
AcDbSymbolTableRecord
100
AcDbTextStyleTableRecord
  2
STANDARD
 70
     0
 40
0.0
 41
1.0
 50
0.0
 71
     0
 42
0.125
  3
txt
  4

  0
STYLE
  5
20
330
3
100
AcDbSymbolTableRecord
100
AcDbTextStyleTableRecord
  2
ROMANS
 70
     0
 40
0.0
 41
1.0
 50
0.0
 71
     0
 42
0.125
  3
romans.shx
  4

  0
STYLE
  5
611
330
3
100
AcDbSymbolTableRecord
100
AcDbTextStyleTableRecord
  2
ITALICC
 70
     0
 40
0.0
 41
1.0
 50
0.0
 71
     0
 42
0.125
  3
italicc
  4

  0
ENDTAB
  0
TABLE
  2
VIEW
  5
6
330
0
100
AcDbSymbolTable
 70
     0
  0
ENDTAB
  0
TABLE
  2
UCS
  5
7
330
0
100
AcDbSymbolTable
 70
     0
  0
ENDTAB
  0
TABLE
  2
APPID
  5
9
330
0
100
AcDbSymbolTable
 70
     1
  0
APPID
  5
11
330
9
100
AcDbSymbolTableRecord
100
AcDbRegAppTableRecord
  2
ACAD
 70
     0
  0
ENDTAB
  0
TABLE
  2
DIMSTYLE
  5
A
330
0
100
AcDbSymbolTable
 70
     1
  0
DIMSTYLE
105
25D
330
A
100
AcDbSymbolTableRecord
100
AcDbDimStyleTableRecord
  2
STANDARD
 70
     0
  3

  4

  5

  6

  7

 40
1.0
 41
0.125
 42
0.125
 43
0.375
 44
0.125
 45
0.0
 46
0.0
 47
0.01
 48
0.0
140
0.125
141
-0.125
142
0.0
143
25.4
144
0.25
145
0.0
146
1.0
147
0.09
 71
     0
 72
     0
 73
     1
 74
     1
 75
     0
 76
     0
 77
     0
 78
     4
170
     0
171
     2
172
     0
173
     0
174
     1
175
     0
176
     0
177
     0
178
     0
270
     2
271
     3
272
     3
273
     2
274
     2
340
20
275
     0
280
     0
281
     0
282
     0
283
     1
284
     4
285
     0
286
     0
287
     3
288
     0
  0
ENDTAB
  0
TABLE
  2
BLOCK_RECORD
  5
1
330
0
100
AcDbSymbolTable
 70
     0
  0
BLOCK_RECORD
  5
18
102
{ACAD_XDICTIONARY
360
746
102
}
330
1
100
AcDbSymbolTableRecord
100
AcDbBlockTableRecord
  2
*MODEL_SPACE
  0
BLOCK_RECORD
  5
15
102
{ACAD_XDICTIONARY
360
744
102
}
330
1
100
AcDbSymbolTableRecord
100
AcDbBlockTableRecord
  2
*PAPER_SPACE
  0
ENDTAB
  0
ENDSEC
  0
SECTION
  2
BLOCKS
  0
BLOCK
  5
2B
330
18
100
AcDbEntity
  8
0
100
AcDbBlockBegin
  2
*MODEL_SPACE
 70
     0
 10
0.0
 20
0.0
 30
0.0
  3
*MODEL_SPACE
  1

  0
ENDBLK
  5
2C
330
18
100
AcDbEntity
  8
0
100
AcDbBlockEnd
  0
BLOCK
  5
29
330
15
100
AcDbEntity
 67
     1
  8
0
100
AcDbBlockBegin
  2
*PAPER_SPACE
 70
     0
 10
0.0
 20
0.0
 30
0.0
  3
*PAPER_SPACE
  1

  0
ENDBLK
  5
2A
330
15
100
AcDbEntity
 67
     1
  8
0
100
AcDbBlockEnd
  0
ENDSEC
  0
SECTION
  2
ENTITIES
  0
LWPOLYLINE
  5
60
330
18
100
AcDbEntity
  8
0
100
AcDbPolyline
 90
       18
 70
     1
 43
0.0
 10
11.34739140506216
 20
2.609375
 10
11.0830243437448
 20
2.609375
 10
11.12489140506216
 20
2.765625
 10
11.05417343736492
 20
2.765625
 10
10.98489140506216
 20
2.645624999999999
 10
11.03489140506216
 20
2.645624999999999
 10
11.01345546966767
 20
2.565624999999999
 10
10.97239140506216
 20
2.565624999999999
 42
1.0
 10
10.97239140506216
 20
2.515625
 10
11.34739140506216
 20
2.515625
 10
11.72239140506216
 20
2.515625
 42
1.0
 10
11.72239140506216
 20
2.565624999999999
 10
11.68132734045665
 20
2.565624999999999
 10
11.65989140506216
 20
2.645624999999999
 10
11.70989140506216
 20
2.645624999999999
 10
11.64060937275941
 20
2.765625
 10
11.56989140506216
 20
2.765625
 10
11.61175846637952
 20
2.609375
  0
TEXT
  5
696
330
18
100
AcDbEntity
  8
TEXT
100
AcDbText
 10
10.56059867583
 20
2.261414227298636
 30
0.0
 40
0.125
  1
PART #110265
  7
ITALICC
 72
     1
 11
11.31655105678238
 21
2.261414227298636
 31
0.0
100
AcDbText
  0
LINE
  5
697
330
18
100
AcDbEntity
  8
TEXT
100
AcDbLine
 10
11.28428455573445
 20
2.017060541278802
 30
0.0
 11
11.360932537027
 21
2.017060541278802
 31
0.0
  0
LINE
  5
698
330
18
100
AcDbEntity
  8
TEXT
100
AcDbLine
 10
11.3564526497005
 20
2.081337235935568
 30
0.0
 11
11.28895293205099
 21
2.081337235935568
 31
0.0
  0
LWPOLYLINE
  5
699
330
18
100
AcDbEntity
  8
TEXT
100
AcDbPolyline
 90
        5
 70
     0
 43
0.0001332181640625
 10
9.647172513199775
 20
1.958110434177755
 10
9.660494329606024
 20
1.958110434177755
 10
9.660494329606024
 20
1.994745429294945
 10
9.697129324723213
 20
1.994745429294945
 10
9.697129324723213
 20
2.008067245701192
  0
LWPOLYLINE
  5
69A
330
18
100
AcDbEntity
  8
TEXT
100
AcDbPolyline
 90
        3
 70
     0
 43
0.0006660908203125
 10
9.687137962418523
 20
2.05469360312307
 10
9.600546155777898
 20
2.05469360312307
 10
9.600546155777898
 20
1.968101796482444
  0
LWPOLYLINE
  5
69B
330
18
100
AcDbEntity
  8
TEXT
100
AcDbPolyline
 90
        3
 70
     0
 43
0.0006660908203125
 10
9.687137962418523
 20
2.081337235935571
 10
9.573902522965401
 20
2.081337235935571
 10
9.573902522965401
 20
1.968101796482444
  0
LWPOLYLINE
  5
69C
330
18
100
AcDbEntity
  8
TEXT
100
AcDbPolyline
 90
        5
 70
     0
 43
0.0001332181640625
 10
9.697129324723213
 20
1.888170898044944
 10
9.697129324723213
 20
1.901492714451195
 10
9.660494329606025
 20
1.901492714451195
 10
9.660494329606025
 20
1.938127709568381
 10
9.647172513199775
 20
1.938127709568381
  0
LWPOLYLINE
  5
69D
330
18
100
AcDbEntity
  8
TEXT
100
AcDbPolyline
 90
        3
 70
     0
 43
0.0006660908203125
 10
9.600546155777898
 20
1.928136347263696
 10
9.600546155777898
 20
1.841544540623069
 10
9.687137962418523
 20
1.841544540623069
  0
LWPOLYLINE
  5
69E
330
18
100
AcDbEntity
  8
TEXT
100
AcDbPolyline
 90
        3
 70
     0
 43
0.0006660908203125
 10
9.573902522965401
 20
1.928136347263696
 10
9.573902522965401
 20
1.814900907810568
 10
9.687137962418523
 20
1.814900907810568
  0
LWPOLYLINE
  5
69F
330
18
100
AcDbEntity
  8
TEXT
100
AcDbPolyline
 90
        2
 70
     0
 43
0.0001332181640625
 10
9.600546155777898
 20
1.928136347263696
 10
9.660494329606025
 20
1.938127709568381
  0
LWPOLYLINE
  5
6A0
330
18
100
AcDbEntity
  8
TEXT
100
AcDbPolyline
 90
        2
 70
     0
 43
0.0001332181640625
 10
9.647172513199775
 20
1.938127709568381
 10
9.573902522965401
 20
1.928136347263696
  0
LWPOLYLINE
  5
6A1
330
18
100
AcDbEntity
  8
TEXT
100
AcDbPolyline
 90
        2
 70
     0
 43
0.0006660908203125
 10
9.600546155777898
 20
1.928136347263696
 10
9.573902522965401
 20
1.928136347263696
  0
LWPOLYLINE
  5
6A2
330
18
100
AcDbEntity
  8
TEXT
100
AcDbPolyline
 90
        2
 70
     0
 43
0.0001332181640625
 10
9.600546155777898
 20
1.841544540623069
 10
9.660494329606025
 20
1.901492714451195
  0
LWPOLYLINE
  5
6A3
330
18
100
AcDbEntity
  8
TEXT
100
AcDbPolyline
 90
        2
 70
     0
 43
0.0006660908203125
 10
9.600546155777898
 20
1.968101796482444
 10
9.573902522965401
 20
1.968101796482444
  0
LWPOLYLINE
  5
6A4
330
18
100
AcDbEntity
  8
TEXT
100
AcDbPolyline
 90
        2
 70
     0
 43
0.0001332181640625
 10
9.573902522965401
 20
1.968101796482444
 10
9.647172513199775
 20
1.958110434177755
  0
LWPOLYLINE
  5
6A5
330
18
100
AcDbEntity
  8
TEXT
100
AcDbPolyline
 90
        2
 70
     0
 43
0.0001332181640625
 10
9.600546155777898
 20
1.968101796482444
 10
9.660494329606024
 20
1.958110434177755
  0
LWPOLYLINE
  5
6A6
330
18
100
AcDbEntity
  8
TEXT
100
AcDbPolyline
 90
        2
 70
     0
 43
0.0001332181640625
 10
9.600546155777898
 20
2.05469360312307
 10
9.660494329606024
 20
1.994745429294945
  0
LWPOLYLINE
  5
6A7
330
18
100
AcDbEntity
  8
TEXT
100
AcDbPolyline
 90
        5
 70
     0
 43
0.0001332181640625
 10
9.767068860856024
 20
1.938127709568381
 10
9.753747044449776
 20
1.938127709568381
 10
9.753747044449776
 20
1.901492714451195
 10
9.717112049332586
 20
1.901492714451195
 10
9.717112049332586
 20
1.888170898044944
  0
LWPOLYLINE
  5
6A8
330
18
100
AcDbEntity
  8
TEXT
100
AcDbPolyline
 90
        2
 70
     0
 43
0.0001332181640625
 10
9.813695218277899
 20
1.928136347263696
 10
9.753747044449776
 20
1.938127709568381
  0
LWPOLYLINE
  5
6A9
330
18
100
AcDbEntity
  8
TEXT
100
AcDbPolyline
 90
        2
 70
     0
 43
0.0001332181640625
 10
9.8403388510904
 20
1.928136347263696
 10
9.767068860856024
 20
1.938127709568381
  0
LWPOLYLINE
  5
6AA
330
18
100
AcDbEntity
  8
TEXT
100
AcDbPolyline
 90
        3
 70
     0
 43
0.0006660908203125
 10
9.727103411637274
 20
1.814900907810568
 10
9.8403388510904
 20
1.814900907810568
 10
9.8403388510904
 20
1.928136347263696
  0
LWPOLYLINE
  5
6AB
330
18
100
AcDbEntity
  8
TEXT
100
AcDbPolyline
 90
        3
 70
     0
 43
0.0006660908203125
 10
9.727103411637274
 20
1.841544540623069
 10
9.813695218277899
 20
1.841544540623069
 10
9.813695218277899
 20
1.928136347263696
  0
LWPOLYLINE
  5
6AC
330
18
100
AcDbEntity
  8
TEXT
100
AcDbPolyline
 90
        2
 70
     0
 43
0.0001332181640625
 10
9.813695218277899
 20
1.841544540623069
 10
9.753747044449776
 20
1.901492714451195
  0
LWPOLYLINE
  5
6AD
330
18
100
AcDbEntity
  8
TEXT
100
AcDbPolyline
 90
        2
 70
     0
 43
0.0006660908203125
 10
9.727103411637274
 20
1.841544540623069
 10
9.727103411637274
 20
1.814900907810568
  0
LWPOLYLINE
  5
6AE
330
18
100
AcDbEntity
  8
TEXT
100
AcDbPolyline
 90
        2
 70
     0
 43
0.0001332181640625
 10
9.717112049332586
 20
1.888170898044944
 10
9.727103411637274
 20
1.814900907810568
  0
LWPOLYLINE
  5
6AF
330
18
100
AcDbEntity
  8
TEXT
100
AcDbPolyline
 90
        2
 70
     0
 43
0.0001332181640625
 10
9.727103411637274
 20
1.841544540623069
 10
9.717112049332586
 20
1.901492714451195
  0
LWPOLYLINE
  5
6B0
330
18
100
AcDbEntity
  8
TEXT
100
AcDbPolyline
 90
        2
 70
     0
 43
0.0001332181640625
 10
9.687137962418523
 20
1.814900907810568
 10
9.697129324723213
 20
1.888170898044944
  0
LWPOLYLINE
  5
6B1
330
18
100
AcDbEntity
  8
TEXT
100
AcDbPolyline
 90
        2
 70
     0
 43
0.0001332181640625
 10
9.687137962418523
 20
1.841544540623069
 10
9.697129324723213
 20
1.901492714451195
  0
LWPOLYLINE
  5
6B2
330
18
100
AcDbEntity
  8
TEXT
100
AcDbPolyline
 90
        2
 70
     0
 43
0.0006660908203125
 10
9.687137962418523
 20
1.841544540623069
 10
9.687137962418523
 20
1.814900907810568
  0
LWPOLYLINE
  5
6B3
330
18
100
AcDbEntity
  8
TEXT
100
AcDbPolyline
 90
        2
 70
     0
 43
0.0006660908203125
 10
9.813695218277899
 20
1.928136347263696
 10
9.8403388510904
 20
1.928136347263696
  0
LWPOLYLINE
  5
6B4
330
18
100
AcDbEntity
  8
TEXT
100
AcDbPolyline
 90
        2
 70
     0
 43
0.0001332181640625
 10
9.813695218277899
 20
2.05469360312307
 10
9.753747044449776
 20
1.994745429294945
  0
LWPOLYLINE
  5
6B5
330
18
100
AcDbEntity
  8
TEXT
100
AcDbPolyline
 90
        2
 70
     0
 43
0.0001332181640625
 10
9.813695218277899
 20
1.968101796482444
 10
9.753747044449776
 20
1.958110434177755
  0
LWPOLYLINE
  5
6B6
330
18
100
AcDbEntity
  8
TEXT
100
AcDbPolyline
 90
        2
 70
     0
 43
0.0001332181640625
 10
9.767068860856024
 20
1.958110434177755
 10
9.8403388510904
 20
1.968101796482444
  0
LWPOLYLINE
  5
6B7
330
18
100
AcDbEntity
  8
TEXT
100
AcDbPolyline
 90
        3
 70
     0
 43
0.0006660908203125
 10
9.813695218277899
 20
1.968101796482444
 10
9.813695218277899
 20
2.05469360312307
 10
9.727103411637274
 20
2.05469360312307
  0
LWPOLYLINE
  5
6B8
330
18
100
AcDbEntity
  8
TEXT
100
AcDbPolyline
 90
        3
 70
     0
 43
0.0006660908203125
 10
9.8403388510904
 20
1.968101796482444
 10
9.8403388510904
 20
2.081337235935571
 10
9.727103411637274
 20
2.081337235935571
  0
LWPOLYLINE
  5
6B9
330
18
100
AcDbEntity
  8
TEXT
100
AcDbPolyline
 90
        2
 70
     0
 43
0.0001332181640625
 10
9.727103411637274
 20
2.081337235935571
 10
9.717112049332586
 20
2.008067245701192
  0
LWPOLYLINE
  5
6BA
330
18
100
AcDbEntity
  8
TEXT
100
AcDbPolyline
 90
        2
 70
     0
 43
0.0001332181640625
 10
9.727103411637274
 20
2.05469360312307
 10
9.717112049332586
 20
1.994745429294945
  0
LWPOLYLINE
  5
6BB
330
18
100
AcDbEntity
  8
TEXT
100
AcDbPolyline
 90
        2
 70
     0
 43
0.0006660908203125
 10
9.727103411637274
 20
2.05469360312307
 10
9.727103411637274
 20
2.081337235935571
  0
LWPOLYLINE
  5
6BC
330
18
100
AcDbEntity
  8
TEXT
100
AcDbPolyline
 90
        5
 70
     0
 43
0.0001332181640625
 10
9.717112049332586
 20
2.008067245701192
 10
9.717112049332586
 20
1.994745429294945
 10
9.753747044449776
 20
1.994745429294945
 10
9.753747044449776
 20
1.958110434177755
 10
9.767068860856024
 20
1.958110434177755
  0
LWPOLYLINE
  5
6BD
330
18
100
AcDbEntity
  8
TEXT
100
AcDbPolyline
 90
        2
 70
     0
 43
0.0001332181640625
 10
9.687137962418523
 20
2.05469360312307
 10
9.697129324723213
 20
1.994745429294945
  0
LWPOLYLINE
  5
6BE
330
18
100
AcDbEntity
  8
TEXT
100
AcDbPolyline
 90
        2
 70
     0
 43
0.0001332181640625
 10
9.697129324723213
 20
2.008067245701192
 10
9.687137962418523
 20
2.081337235935571
  0
LWPOLYLINE
  5
6BF
330
18
100
AcDbEntity
  8
TEXT
100
AcDbPolyline
 90
        2
 70
     0
 43
0.0006660908203125
 10
9.687137962418523
 20
2.05469360312307
 10
9.687137962418523
 20
2.081337235935571
  0
LWPOLYLINE
  5
6C0
330
18
100
AcDbEntity
  8
TEXT
100
AcDbPolyline
 90
        2
 70
     0
 43
0.0006660908203125
 10
9.813695218277899
 20
1.968101796482444
 10
9.8403388510904
 20
1.968101796482444
  0
LWPOLYLINE
  5
6C1
330
18
100
AcDbEntity
  8
TEXT
100
AcDbPolyline
 90
        2
 70
     0
 43
0.0
 10
10.55911877183903
 20
1.866415545161985
 42
0.3318488747599744
 10
10.62823806440434
 20
1.814864202947057
 42
-6.868794160588311
  0
LINE
  5
6C2
330
18
100
AcDbEntity
  8
TEXT
100
AcDbLine
 10
10.62709849090815
 20
2.149348713674378
 30
0.0
 11
10.56028977834178
 21
2.149348713674378
 31
0.0
  0
LINE
  5
6C3
330
18
100
AcDbEntity
  8
TEXT
100
AcDbLine
 10
10.28094741072268
 20
2.081337235935568
 30
0.0
 11
10.10521565782417
 21
2.081337235935568
 31
0.0
  0
ARC
  5
6C4
330
18
100
AcDbEntity
  8
TEXT
100
AcDbCircle
 10
10.17605312418272
 20
1.898060011307614
 30
0.0
 40
0.0831958083605586
100
AcDbArc
 50
270.0
 51
90.0
  0
LINE
  5
6C5
330
18
100
AcDbEntity
  8
TEXT
100
AcDbLine
 10
10.11045298793842
 20
2.017060541278802
 30
0.0
 11
10.27735864196739
 21
2.017060541278802
 31
0.0
  0
LINE
  5
6C6
330
18
100
AcDbEntity
  8
TEXT
100
AcDbLine
 10
10.180993498089
 20
1.883221209280496
 30
0.0
 11
10.02312819837767
 21
1.883221209280496
 31
0.0
  0
LINE
  5
6C7
330
18
100
AcDbEntity
  8
TEXT
100
AcDbLine
 10
10.02312819837767
 20
1.814864202947057
 30
0.0
 11
10.17605312418272
 21
1.814864202947057
 31
0.0
  0
ARC
  5
6C8
330
18
100
AcDbEntity
  8
TEXT
100
AcDbCircle
 10
10.10521565782417
 20
1.999249776489066
 30
0.0
 40
0.0820874594465043
100
AcDbArc
 50
90.0
 51
270.0
  0
LINE
  5
6C9
330
18
100
AcDbEntity
  8
TEXT
100
AcDbLine
 10
10.02312819837767
 20
1.883221209280496
 30
0.0
 11
10.02312819837767
 21
1.814864202947057
 31
0.0
  0
LINE
  5
6CA
330
18
100
AcDbEntity
  8
TEXT
100
AcDbLine
 10
10.10521565782417
 20
1.917162317042561
 30
0.0
 11
10.180993498089
 21
1.917162317042561
 31
0.0
  0
ARC
  5
6CB
330
18
100
AcDbEntity
  8
TEXT
100
AcDbCircle
 10
10.180993498089
 20
1.90019176316153
 30
0.0
 40
0.0169705538810321
100
AcDbArc
 50
270.0
 51
90.0
  0
LINE
  5
6CC
330
18
100
AcDbEntity
  8
TEXT
100
AcDbLine
 10
10.17605312418272
 20
1.981255819668175
 30
0.0
 11
10.11045298793842
 21
1.981255819668175
 31
0.0
  0
ARC
  5
6CD
330
18
100
AcDbEntity
  8
TEXT
100
AcDbCircle
 10
10.11045298793842
 20
1.99915818047349
 30
0.0
 40
0.017902360805315
100
AcDbArc
 50
90.0
 51
270.0
  0
LINE
  5
6CE
330
18
100
AcDbEntity
  8
TEXT
100
AcDbLine
 10
10.47141930274254
 20
1.980465239822447
 30
0.0
 11
10.4127889817106
 21
2.081337235935568
 31
0.0
  0
LINE
  5
6CF
330
18
100
AcDbEntity
  8
TEXT
100
AcDbLine
 10
10.3312452494475
 20
1.814864202947057
 30
0.0
 11
10.42788550052249
 21
1.815134842045339
 31
0.0
  0
LWPOLYLINE
  5
6D0
330
18
100
AcDbEntity
  8
TEXT
100
AcDbPolyline
 90
        6
 70
     1
 43
0.0
 10
10.37376905302265
 20
2.017060541278802
 10
10.34345245880244
 20
2.017060541278802
 10
10.34345245880244
 20
1.893949543223908
 42
0.407328721240804
 10
10.35499610996392
 20
1.882130628547522
 10
10.41561780900865
 20
1.882130628547522
 10
10.43308314941596
 20
1.914942857591001
  0
LINE
  5
6D1
330
18
100
AcDbEntity
  8
TEXT
100
AcDbLine
 10
10.27735864196739
 20
2.017060541278802
 30
0.0
 11
10.27735864196739
 21
1.874656594285107
 31
0.0
  0
ARC
  5
6D2
330
18
100
AcDbEntity
  8
TEXT
100
AcDbCircle
 10
10.33747465994115
 20
1.874656594285107
 30
0.0
 40
0.0601160179737537
100
AcDbArc
 50
180.0000000000003
 51
264.0521544866073
  0
LINE
  5
6D3
330
18
100
AcDbEntity
  8
TEXT
100
AcDbLine
 10
10.34099001556669
 20
2.115725153529706
 30
0.0
 11
10.28094741072268
 21
2.115725153529706
 31
0.0
  0
LINE
  5
6D4
330
18
100
AcDbEntity
  8
TEXT
100
AcDbLine
 10
10.28094741072268
 20
2.115725153529706
 30
0.0
 11
10.28094741072268
 21
2.081337235935568
 31
0.0
  0
LINE
  5
6D5
330
18
100
AcDbEntity
  8
TEXT
100
AcDbLine
 10
10.34099001556669
 20
2.081337235935568
 30
0.0
 11
10.34099001556669
 21
2.115725153529706
 31
0.0
  0
LINE
  5
6D6
330
18
100
AcDbEntity
  8
TEXT
100
AcDbLine
 10
10.4127889817106
 20
2.081337235935568
 30
0.0
 11
10.34099001556669
 21
2.081337235935568
 31
0.0
  0
LINE
  5
6D7
330
18
100
AcDbEntity
  8
TEXT
100
AcDbLine
 10
10.46181906574558
 20
1.83482270905207
 30
0.0
 11
10.55911877183903
 21
1.999172919987338
 31
0.0
  0
LINE
  5
6D8
330
18
100
AcDbEntity
  8
TEXT
100
AcDbLine
 10
10.55911877183903
 20
1.999172919987338
 30
0.0
 11
10.55911877183903
 21
1.866415545161982
 31
0.0
  0
ARC
  5
6D9
330
18
100
AcDbEntity
  8
TEXT
100
AcDbCircle
 10
10.42777550583337
 20
1.854411925220753
 30
0.0
 40
0.0392772371940762
100
AcDbArc
 50
270.1604552698595
 51
330.0831797321295
  0
LINE
  5
6DA
330
18
100
AcDbEntity
  8
TEXT
100
AcDbLine
 10
10.5301678655484
 20
2.081337235935568
 30
0.0
 11
10.47141930274254
 21
1.980465239822447
 31
0.0
  0
LINE
  5
6DB
330
18
100
AcDbEntity
  8
TEXT
100
AcDbLine
 10
10.56028977834178
 20
2.149348713674378
 30
0.0
 11
10.56028977834178
 21
2.081337235935568
 31
0.0
  0
LINE
  5
6DC
330
18
100
AcDbEntity
  8
TEXT
100
AcDbLine
 10
10.56028977834178
 20
2.081337235935568
 30
0.0
 11
10.5301678655484
 21
2.081337235935568
 31
0.0
  0
LWPOLYLINE
  5
6DD
330
18
100
AcDbEntity
  8
TEXT
100
AcDbPolyline
 90
        4
 70
     0
 43
0.0
 10
10.91237589996194
 20
2.009506752112693
 10
10.91237589996194
 20
1.814864202947057
 10
10.98085418324979
 20
1.814864202947057
 10
10.98085418324979
 20
1.858355147897495
 42
-1.714843617202739
  0
LWPOLYLINE
  5
6DE
330
18
100
AcDbEntity
  8
TEXT
100
AcDbPolyline
 90
        2
 70
     0
 43
0.0
 10
10.94751025050615
 20
2.081337235935571
 42
-0.3277054968067132
 10
10.98329194121931
 20
2.053014690165928
 42
6.667889725900311
  0
LWPOLYLINE
  5
6DF
330
18
100
AcDbEntity
  8
TEXT
100
AcDbPolyline
 90
        2
 70
     0
 43
0.0
 10
10.77607667792692
 20
2.017060541278802
 42
-0.4142135623731017
 10
10.78363046709303
 20
2.009506752112693
 42
-0.9999999999999998
  0
LINE
  5
6E0
330
18
100
AcDbEntity
  8
TEXT
100
AcDbLine
 10
10.79342840097694
 20
2.081337235935568
 30
0.0
 11
10.6594103450458
 21
2.081337235935568
 31
0.0
  0
LINE
  5
6E1
330
18
100
AcDbEntity
  8
TEXT
100
AcDbLine
 10
10.72624139810377
 20
1.814864202947057
 30
0.0
 11
10.72624139810377
 21
2.017060541278802
 31
0.0
  0
LINE
  5
6E2
330
18
100
AcDbEntity
  8
TEXT
100
AcDbLine
 10
10.6594103450458
 20
2.081337235935568
 30
0.0
 11
10.6594103450458
 21
1.88047302920316
 31
0.0
  0
LINE
  5
6E3
330
18
100
AcDbEntity
  8
TEXT
100
AcDbLine
 10
10.62709849090815
 20
1.897252041050056
 30
0.0
 11
10.62709849090815
 21
2.149348713674378
 31
0.0
  0
LINE
  5
6E4
330
18
100
AcDbEntity
  8
TEXT
100
AcDbLine
 10
10.62823806440434
 20
1.814864202947057
 30
0.0
 11
10.72624139810377
 21
1.814864202947057
 31
0.0
  0
LINE
  5
6E5
330
18
100
AcDbEntity
  8
TEXT
100
AcDbLine
 10
10.6594103450458
 20
1.88047302920316
 30
0.0
 11
10.6424167081612
 21
1.88047302920316
 31
0.0
  0
ARC
  5
6E6
330
18
100
AcDbEntity
  8
TEXT
100
AcDbCircle
 10
10.6424167081612
 20
1.895854835446585
 30
0.0
 40
0.0153818062434269
100
AcDbArc
 50
174.7883570302258
 51
270.0
  0
LINE
  5
6E7
330
18
100
AcDbEntity
  8
TEXT
100
AcDbLine
 10
10.72624139810377
 20
2.017060541278802
 30
0.0
 11
10.77607667792692
 21
2.017060541278802
 31
0.0
  0
LINE
  5
6E8
330
18
100
AcDbEntity
  8
TEXT
100
AcDbLine
 10
10.78363046709304
 20
2.009506752112693
 30
0.0
 11
10.78363046709304
 21
1.814864202947057
 31
0.0
  0
LINE
  5
6E9
330
18
100
AcDbEntity
  8
TEXT
100
AcDbLine
 10
10.85068851387487
 20
1.814864202947057
 30
0.0
 11
10.85068851387487
 21
2.017060541278802
 31
0.0
  0
LINE
  5
6EA
330
18
100
AcDbEntity
  8
TEXT
100
AcDbLine
 10
10.78363046709304
 20
1.814864202947057
 30
0.0
 11
10.85068851387487
 21
1.814864202947057
 31
0.0
  0
LWPOLYLINE
  5
6EB
330
18
100
AcDbEntity
  8
TEXT
100
AcDbPolyline
 90
        3
 70
     0
 43
0.0
 10
10.94751025050615
 20
2.081337235935571
 10
10.8292100916901
 20
2.081337235935571
 10
10.8292100916901
 20
2.054169739174676
 42
-1.960274751411753
  0
LINE
  5
6EC
330
18
100
AcDbEntity
  8
TEXT
100
AcDbLine
 10
10.85068851387487
 20
2.017060541278802
 30
0.0
 11
10.90482211079583
 21
2.017060541278802
 31
0.0
  0
LWPOLYLINE
  5
6ED
330
18
100
AcDbEntity
  8
TEXT
100
AcDbPolyline
 90
        2
 70
     0
 43
0.0
 10
10.79342840097694
 20
2.081337235935571
 42
-0.3328679258950098
 10
10.8292100916901
 20
2.054169739174676
 42
6.772930709997214
  0
LWPOLYLINE
  5
6EE
330
18
100
AcDbEntity
  8
TEXT
100
AcDbPolyline
 90
        2
 70
     0
 43
0.0
 10
10.90482211079582
 20
2.017060541278802
 42
-0.4142135623731017
 10
10.91237589996194
 20
2.009506752112693
 42
-0.9999999999999998
  0
ARC
  5
6EF
330
18
100
AcDbEntity
  8
TEXT
100
AcDbCircle
 10
11.1160969106593
 20
2.039753668814666
 30
0.0
 40
0.0416329381542859
100
AcDbArc
 50
26.56974201007528
 51
87.20939649401342
  0
LWPOLYLINE
  5
6F0
330
18
100
AcDbEntity
  8
TEXT
100
AcDbPolyline
 90
        2
 70
     0
 43
0.0
 10
11.02393011611743
 20
1.814864202947057
 10
11.15794753374881
 20
1.814864202947057
 42
0.9999999999999998
  0
LWPOLYLINE
  5
6F1
330
18
100
AcDbEntity
  8
TEXT
100
AcDbPolyline
 90
        4
 70
     1
 43
0.0
 10
11.13782506867891
 20
1.917828180931082
 10
11.04916475001906
 20
1.917828180931082
 42
0.9999999999999998
 10
11.04916475001906
 20
1.875429640427221
 10
11.13782506867891
 20
1.875429640427221
 42
1.0
  0
LWPOLYLINE
  5
6F2
330
18
100
AcDbEntity
  8
TEXT
100
AcDbPolyline
 90
        2
 70
     0
 43
0.0
 10
10.98085418324979
 20
1.858355147897495
 42
0.2901071551932823
 10
11.02393011611743
 20
1.814864202947057
 42
5.328517124445801
  0
LINE
  5
6F3
330
18
100
AcDbEntity
  8
TEXT
100
AcDbLine
 10
11.11812385043637
 20
2.081337235935568
 30
0.0
 11
10.98329194121931
 21
2.081337235935568
 31
0.0
  0
LINE
  5
6F4
330
18
100
AcDbEntity
  8
TEXT
100
AcDbLine
 10
11.04260603761263
 20
1.97978556781667
 30
0.0
 11
11.12489402739602
 21
1.97978556781667
 31
0.0
  0
LINE
  5
6F5
330
18
100
AcDbEntity
  8
TEXT
100
AcDbLine
 10
11.08909295209189
 20
2.017060541278802
 30
0.0
 11
10.9818866787046
 21
2.017060541278802
 31
0.0
  0
LINE
  5
6F6
330
18
100
AcDbEntity
  8
TEXT
100
AcDbLine
 10
10.98329194121931
 20
2.081337235935568
 30
0.0
 11
10.98329194121931
 21
2.053014690165924
 31
0.0
  0
ARC
  5
6F7
330
18
100
AcDbEntity
  8
TEXT
100
AcDbCircle
 10
11.04260603761263
 20
1.912099986672552
 30
0.0
 40
0.0676855811441166
100
AcDbArc
 50
90.0
 51
153.7768192527749
  0
LINE
  5
6F8
330
18
100
AcDbEntity
  8
TEXT
100
AcDbLine
 10
10.9818866787046
 20
2.017060541278802
 30
0.0
 11
10.9818866787046
 21
1.942008135204596
 31
0.0
  0
LINE
  5
6F9
330
18
100
AcDbEntity
  8
TEXT
100
AcDbLine
 10
11.12489402739602
 20
1.97978556781667
 30
0.0
 11
11.11462926698245
 21
2.001036107389364
 31
0.0
  0
ARC
  5
6FA
330
18
100
AcDbEntity
  8
TEXT
100
AcDbCircle
 10
11.08909295209189
 20
1.988701166278805
 30
0.0
 40
0.028359375
100
AcDbArc
 50
25.78218179591245
 51
90.0
  0
LINE
  5
6FB
330
18
100
AcDbEntity
  8
TEXT
100
AcDbLine
 10
11.25937868045179
 20
1.814864202947057
 30
0.0
 11
11.25937868045178
 21
1.992154708378525
 31
0.0
  0
LWPOLYLINE
  5
6FC
330
18
100
AcDbEntity
  8
TEXT
100
AcDbPolyline
 90
        2
 70
     0
 43
0.0
 10
11.20102346661645
 20
1.814864202947057
 10
11.25937868045179
 20
1.814864202947057
  0
LWPOLYLINE
  5
6FD
330
18
100
AcDbEntity
  8
TEXT
100
AcDbPolyline
 90
        2
 70
     0
 43
0.0
 10
11.20102346661645
 20
1.858355147897495
 42
-0.2901071551932486
 10
11.15794753374881
 20
1.814864202947057
 42
-5.328517124445184
  0
LWPOLYLINE
  5
6FE
330
18
100
AcDbEntity
  8
TEXT
100
AcDbPolyline
 90
        2
 70
     0
 43
0.0
 10
11.20102346661645
 20
1.858355147897495
 10
11.20102346661645
 20
1.814864202947057
  0
LINE
  5
6FF
330
18
100
AcDbEntity
  8
TEXT
100
AcDbLine
 10
11.26098069561091
 20
2.081337235935568
 30
0.0
 11
11.19708378931141
 21
2.081337235935568
 31
0.0
  0
LINE
  5
700
330
18
100
AcDbEntity
  8
TEXT
100
AcDbLine
 10
11.19708378931141
 20
2.081337235935568
 30
0.0
 11
11.19708378931141
 21
1.976125257382141
 31
0.0
  0
LINE
  5
701
330
18
100
AcDbEntity
  8
TEXT
100
AcDbLine
 10
11.19708378931141
 20
1.976125257382141
 30
0.0
 11
11.15333301812951
 21
2.058375533378286
 31
0.0
  0
ARC
  5
702
330
18
100
AcDbEntity
  8
TEXT
100
AcDbCircle
 10
11.28428455573444
 20
1.99215466599614
 30
0.0
 40
0.0249058752826653
100
AcDbArc
 50
89.99971217465335
 51
179.9999999999985
  0
ARC
  5
703
330
18
100
AcDbEntity
  8
TEXT
100
AcDbCircle
 10
11.29217351267402
 20
2.050091508653303
 30
0.0
 40
0.0314112657011332
100
AcDbArc
 50
95.88484768694724
 51
173.2388340632136
  0
LINE
  5
704
330
18
100
AcDbEntity
  8
TEXT
100
AcDbLine
 10
11.26098069561091
 20
2.053789586074693
 30
0.0
 11
11.26098069561091
 21
2.081337235935568
 31
0.0
  0
TEXT
  5
705
330
18
100
AcDbEntity
  8
TEXT
100
AcDbText
 10
11.72985621503271
 20
1.907750011592553
 30
0.0
 40
0.0522247191011236
  1
Minneapolis, MN 55432-0008
 41
1.11444212721585
 72
     5
 11
13.05878879930237
 21
1.907750011592553
 31
0.0
100
AcDbText
  0
TEXT
  5
706
330
18
100
AcDbEntity
  8
TEXT
100
AcDbText
 10
11.72985621503271
 20
2.001008438558845
 30
0.0
 40
0.0522247191011236
  1
6536 Main St. N.E. * P.O. Box 32008
 41
0.8388932496075355
 72
     5
 11
13.05878879930237
 21
2.001008438558845
 31
0.0
100
AcDbText
  0
TEXT
  5
707
330
18
100
AcDbEntity
  8
TEXT
100
AcDbText
 10
11.72985621503271
 20
2.094266865525137
 30
0.0
 40
0.0522247191011236
  1
Stylmark  Incorporated
 41
1.221428571428571
 72
     5
 11
13.05878879930237
 21
2.094266865525137
 31
0.0
100
AcDbText
  0
TEXT
  5
708
330
18
100
AcDbEntity
  8
TEXT
100
AcDbText
 10
11.72985621503271
 20
1.814491584626261
 30
0.0
 40
0.0522247191011236
  1
Phone  1-800-328-2495
 41
1.272321428571429
 72
     5
 11
13.05878879930237
 21
1.814491584626261
 31
0.0
100
AcDbText
  0
LINE
  5
709
330
18
100
AcDbEntity
  8
TEXT
100
AcDbLine
 10
11.48230040356969
 20
1.971443992994594
 30
0.0
 11
11.5468575195354
 21
2.081337235935568
 31
0.0
  0
LINE
  5
70A
330
18
100
AcDbEntity
  8
TEXT
100
AcDbLine
 10
11.5468575195354
 20
2.081337235935568
 30
0.0
 11
11.47186568680577
 21
2.081337235935568
 31
0.0
  0
LINE
  5
70B
330
18
100
AcDbEntity
  8
TEXT
100
AcDbLine
 10
11.50121425455709
 20
1.814864202947057
 30
0.0
 11
11.5777926269333
 21
1.814864202947057
 31
0.0
  0
LINE
  5
70C
330
18
100
AcDbEntity
  8
TEXT
100
AcDbLine
 10
11.5777926269333
 20
1.814864202947057
 30
0.0
 11
11.48230040356969
 21
1.971443992994594
 31
0.0
  0
LINE
  5
70D
330
18
100
AcDbEntity
  8
TEXT
100
AcDbLine
 10
11.42531072134563
 20
1.814864202947057
 30
0.0
 11
11.42531072134563
 21
1.946443771423237
 31
0.0
  0
LINE
  5
70E
330
18
100
AcDbEntity
  8
TEXT
100
AcDbLine
 10
11.42531072134563
 20
1.946443771423237
 30
0.0
 11
11.50121425455709
 21
1.814864202947057
 31
0.0
  0
LINE
  5
70F
330
18
100
AcDbEntity
  8
TEXT
100
AcDbLine
 10
11.360932537027
 20
2.017060541278802
 30
0.0
 11
11.36093253702701
 21
1.814864202947057
 31
0.0
  0
LINE
  5
710
330
18
100
AcDbEntity
  8
TEXT
100
AcDbLine
 10
11.36093253702701
 20
1.814864202947057
 30
0.0
 11
11.42531072134563
 21
1.814864202947057
 31
0.0
  0
LINE
  5
711
330
18
100
AcDbEntity
  8
TEXT
100
AcDbLine
 10
11.42476752824978
 20
2.146801441703169
 30
0.0
 11
11.35645264970051
 21
2.146801441703169
 31
0.0
  0
LINE
  5
712
330
18
100
AcDbEntity
  8
TEXT
100
AcDbLine
 10
11.35645264970051
 20
2.146801441703169
 30
0.0
 11
11.3564526497005
 21
2.081337235935568
 31
0.0
  0
LINE
  5
713
330
18
100
AcDbEntity
  8
TEXT
100
AcDbLine
 10
11.47186568680577
 20
2.081337235935568
 30
0.0
 11
11.42476752824978
 21
2.00547190952403
 31
0.0
  0
LINE
  5
714
330
18
100
AcDbEntity
  8
TEXT
100
AcDbLine
 10
11.42476752824978
 20
2.00547190952403
 30
0.0
 11
11.42476752824978
 21
2.146801441703169
 31
0.0
  0
ENDSEC
  0
SECTION
  2
OBJECTS
  0
DICTIONARY
  5
C
330
0
100
AcDbDictionary
  3
ACAD_GROUP
350
D
  3
ACAD_LAYOUT
350
719
  3
ACAD_MLINESTYLE
350
E
  3
ACAD_PLOTSETTINGS
350
71A
  3
ACAD_PLOTSTYLENAME
350
717
  3
ACDBHEADERROUNDTRIPXREC
350
724
  3
ACDBVARIABLEDICTIONARY
350
721
  0
DICTIONARY
  5
746
330
18
100
AcDbDictionary
280
     1
  3
ACAD_LAYOUTSELFREF
360
747
  0
DICTIONARY
  5
744
330
15
100
AcDbDictionary
280
     1
  3
ACAD_LAYOUTSELFREF
360
745
  0
DICTIONARY
  5
D
102
{ACAD_REACTORS
330
C
102
}
330
C
100
AcDbDictionary
  3
*A1
350
266
  3
*A2
350
5CF
  0
DICTIONARY
  5
719
102
{ACAD_REACTORS
330
C
102
}
330
C
100
AcDbDictionary
  0
DICTIONARY
  5
E
102
{ACAD_REACTORS
330
C
102
}
330
C
100
AcDbDictionary
  3
STANDARD
350
1B
  0
DICTIONARY
  5
71A
102
{ACAD_REACTORS
330
C
102
}
330
C
100
AcDbDictionary
  0
ACDBDICTIONARYWDFLT
  5
717
102
{ACAD_REACTORS
330
C
102
}
330
C
100
AcDbDictionary
281
     1
  3
Normal
350
718
100
AcDbDictionaryWithDefault
340
718
  0
DICTIONARY
  5
724
102
{ACAD_REACTORS
330
C
102
}
330
C
100
AcDbDictionary
  3
CEPSNTYPE
350
72E
  3
FINGERPRINTGUID
350
72F
  3
HYPERLINKBASE
350
727
  3
INSUNITS
350
72D
  3
LAYOUTDICT
350
729
  3
LWETCUNION
350
72C
  3
PLOTSETDICT
350
72A
  3
PLOTSTYLNAMDICT
350
72B
  3
PSVPSCALE
350
731
  3
PUCSBASE
350
734
  3
PUCSORGBACK
350
73A
  3
PUCSORGBOTTOM
350
736
  3
PUCSORGFRONT
350
739
  3
PUCSORGLEFT
350
737
  3
PUCSORGRIGHT
350
738
  3
PUCSORGTOP
350
735
  3
PUCSORTHOREF
350
732
  3
PUCSORTHOVIEW
350
733
  3
STYLESHEET
350
728
  3
TSTACKALIGN
350
725
  3
TSTACKSIZE
350
726
  3
UCSBASE
350
73D
  3
UCSORGBACK
350
743
  3
UCSORGBOTTOM
350
73F
  3
UCSORGFRONT
350
742
  3
UCSORGLEFT
350
740
  3
UCSORGRIGHT
350
741
  3
UCSORGTOP
350
73E
  3
UCSORTHOREF
350
73B
  3
UCSORTHOVIEW
350
73C
  3
VERSIONGUID
350
730
  0
DICTIONARY
  5
721
102
{ACAD_REACTORS
330
C
102
}
330
C
100
AcDbDictionary
  3
DIMASSOC
350
722
  0
XRECORD
  5
747
102
{ACAD_REACTORS
330
746
102
}
330
746
100
AcDbXrecord
340
18
  0
XRECORD
  5
745
102
{ACAD_REACTORS
330
744
102
}
330
744
100
AcDbXrecord
340
15
  0
GROUP
  5
266
102
{ACAD_REACTORS
330
D
102
}
330
D
100
AcDbGroup
300
BORDER FRAME 10-1-95
 70
     3
 71
     1
  0
GROUP
  5
5CF
102
{ACAD_REACTORS
330
D
102
}
330
D
100
AcDbGroup
300

 70
     1
 71
     1
  0
MLINESTYLE
  5
1B
102
{ACAD_REACTORS
330
E
102
}
330
E
100
AcDbMlineStyle
  2
STANDARD
 70
     0
  3

 62
     0
 51
90.0
 52
90.0
 71
     2
 49
0.5
 62
   256
  6
BYLAYER
 49
-0.5
 62
   256
  6
BYLAYER
  0
ACDBPLACEHOLDER
  5
718
102
{ACAD_REACTORS
330
717
102
}
330
717
100
AcDbPlaceHolder
280
     0
  0
XRECORD
  5
72E
102
{ACAD_REACTORS
330
724
102
}
330
724
100
AcDbXrecord
 90
        0
  0
XRECORD
  5
72F
102
{ACAD_REACTORS
330
724
102
}
330
724
100
AcDbXrecord
  1
{B9BF76B0-8DB5-11D6-88E6-0090279574E7}
  0
XRECORD
  5
727
102
{ACAD_REACTORS
330
724
102
}
330
724
100
AcDbXrecord
  1

  0
XRECORD
  5
72D
102
{ACAD_REACTORS
330
724
102
}
330
724
100
AcDbXrecord
 90
        0
  0
XRECORD
  5
729
102
{ACAD_REACTORS
330
724
102
}
330
724
100
AcDbXrecord
340
719
  0
XRECORD
  5
72C
102
{ACAD_REACTORS
330
724
102
}
330
724
100
AcDbXrecord
 90
    14877
  0
XRECORD
  5
72A
102
{ACAD_REACTORS
330
724
102
}
330
724
100
AcDbXrecord
340
71A
  0
XRECORD
  5
72B
102
{ACAD_REACTORS
330
724
102
}
330
724
100
AcDbXrecord
340
717
  0
XRECORD
  5
731
102
{ACAD_REACTORS
330
724
102
}
330
724
100
AcDbXrecord
 40
0.0
  0
XRECORD
  5
734
102
{ACAD_REACTORS
330
724
102
}
330
724
100
AcDbXrecord
340
0
  0
XRECORD
  5
73A
102
{ACAD_REACTORS
330
724
102
}
330
724
100
AcDbXrecord
 10
0.0
 20
0.0
 30
0.0
  0
XRECORD
  5
736
102
{ACAD_REACTORS
330
724
102
}
330
724
100
AcDbXrecord
 10
0.0
 20
0.0
 30
0.0
  0
XRECORD
  5
739
102
{ACAD_REACTORS
330
724
102
}
330
724
100
AcDbXrecord
 10
0.0
 20
0.0
 30
0.0
  0
XRECORD
  5
737
102
{ACAD_REACTORS
330
724
102
}
330
724
100
AcDbXrecord
 10
0.0
 20
0.0
 30
0.0
  0
XRECORD
  5
738
102
{ACAD_REACTORS
330
724
102
}
330
724
100
AcDbXrecord
 10
0.0
 20
0.0
 30
0.0
  0
XRECORD
  5
735
102
{ACAD_REACTORS
330
724
102
}
330
724
100
AcDbXrecord
 10
0.0
 20
0.0
 30
0.0
  0
XRECORD
  5
732
102
{ACAD_REACTORS
330
724
102
}
330
724
100
AcDbXrecord
340
0
  0
XRECORD
  5
733
102
{ACAD_REACTORS
330
724
102
}
330
724
100
AcDbXrecord
 70
     0
  0
XRECORD
  5
728
102
{ACAD_REACTORS
330
724
102
}
330
724
100
AcDbXrecord
  1

  0
XRECORD
  5
725
102
{ACAD_REACTORS
330
724
102
}
330
724
100
AcDbXrecord
 90
        1
  0
XRECORD
  5
726
102
{ACAD_REACTORS
330
724
102
}
330
724
100
AcDbXrecord
 90
       70
  0
XRECORD
  5
73D
102
{ACAD_REACTORS
330
724
102
}
330
724
100
AcDbXrecord
340
0
  0
XRECORD
  5
743
102
{ACAD_REACTORS
330
724
102
}
330
724
100
AcDbXrecord
 10
0.0
 20
0.0
 30
0.0
  0
XRECORD
  5
73F
102
{ACAD_REACTORS
330
724
102
}
330
724
100
AcDbXrecord
 10
0.0
 20
0.0
 30
0.0
  0
XRECORD
  5
742
102
{ACAD_REACTORS
330
724
102
}
330
724
100
AcDbXrecord
 10
0.0
 20
0.0
 30
0.0
  0
XRECORD
  5
740
102
{ACAD_REACTORS
330
724
102
}
330
724
100
AcDbXrecord
 10
0.0
 20
0.0
 30
0.0
  0
XRECORD
  5
741
102
{ACAD_REACTORS
330
724
102
}
330
724
100
AcDbXrecord
 10
0.0
 20
0.0
 30
0.0
  0
XRECORD
  5
73E
102
{ACAD_REACTORS
330
724
102
}
330
724
100
AcDbXrecord
 10
0.0
 20
0.0
 30
0.0
  0
XRECORD
  5
73B
102
{ACAD_REACTORS
330
724
102
}
330
724
100
AcDbXrecord
340
0
  0
XRECORD
  5
73C
102
{ACAD_REACTORS
330
724
102
}
330
724
100
AcDbXrecord
 70
     0
  0
XRECORD
  5
730
102
{ACAD_REACTORS
330
724
102
}
330
724
100
AcDbXrecord
  1
{B9BF76B2-8DB5-11D6-88E6-0090279574E7}
  0
DICTIONARYVAR
  5
722
102
{ACAD_REACTORS
330
721
102
}
330
721
100
DictionaryVariables
280
     0
  1
1
  0
ENDSEC
  0
EOF
