  0
SECTION
  2
HEADER
  9
$ACADVER
  1
AC1014
  9
$ACADMAINTVER
 70
     9
  9
$DWGCODEPAGE
  3
ANSI_1252
  9
$INSBASE
 10
3.875
 20
4.171875
 30
0.0
  9
$EXTMIN
 10
1.875
 20
1.333081928499766
 30
0.0
  9
$EXTMAX
 10
5.875
 20
6.171875
 30
0.0
  9
$LIMMIN
 10
0.0
 20
0.0
  9
$LIMMAX
 10
18.0
 20
12.0
  9
$ORTHOMODE
 70
     1
  9
$REGENMODE
 70
     1
  9
$FILLMODE
 70
     1
  9
$QTEXTMODE
 70
     0
  9
$MIRRTEXT
 70
     0
  9
$DRAGMODE
 70
     2
  9
$LTSCALE
 40
1.0
  9
$OSMODE
 70
    39
  9
$ATTMODE
 70
     1
  9
$TEXTSIZE
 40
0.125
  9
$TRACEWID
 40
0.05
  9
$TEXTSTYLE
  7
ROMANS
  9
$CLAYER
  8
0
  9
$CELTYPE
  6
BYLAYER
  9
$CECOLOR
 62
   256
  9
$CELTSCALE
 40
1.0
  9
$DELOBJ
 70
     1
  9
$DISPSILH
 70
     1
  9
$DIMSCALE
 40
1.0
  9
$DIMASZ
 40
0.125
  9
$DIMEXO
 40
0.125
  9
$DIMDLI
 40
0.375
  9
$DIMRND
 40
0.0
  9
$DIMDLE
 40
0.0
  9
$DIMEXE
 40
0.125
  9
$DIMTP
 40
0.0
  9
$DIMTM
 40
0.0
  9
$DIMTXT
 40
0.125
  9
$DIMCEN
 40
-0.125
  9
$DIMTSZ
 40
0.0
  9
$DIMTOL
 70
     0
  9
$DIMLIM
 70
     0
  9
$DIMTIH
 70
     1
  9
$DIMTOH
 70
     1
  9
$DIMSE1
 70
     0
  9
$DIMSE2
 70
     0
  9
$DIMTAD
 70
     0
  9
$DIMZIN
 70
     4
  9
$DIMBLK
  1

  9
$DIMASO
 70
     1
  9
$DIMSHO
 70
     1
  9
$DIMPOST
  1

  9
$DIMAPOST
  1

  9
$DIMALT
 70
     0
  9
$DIMALTD
 70
     2
  9
$DIMALTF
 40
25.4
  9
$DIMLFAC
 40
1.0
  9
$DIMTOFL
 70
     0
  9
$DIMTVP
 40
0.0
  9
$DIMTIX
 70
     1
  9
$DIMSOXD
 70
     0
  9
$DIMSAH
 70
     0
  9
$DIMBLK1
  1

  9
$DIMBLK2
  1

  9
$DIMSTYLE
  2
STANDARD
  9
$DIMCLRD
 70
     0
  9
$DIMCLRE
 70
     0
  9
$DIMCLRT
 70
     0
  9
$DIMTFAC
 40
1.0
  9
$DIMGAP
 40
0.09
  9
$DIMJUST
 70
     0
  9
$DIMSD1
 70
     0
  9
$DIMSD2
 70
     0
  9
$DIMTOLJ
 70
     1
  9
$DIMTZIN
 70
     4
  9
$DIMALTZ
 70
     0
  9
$DIMALTTZ
 70
     0
  9
$DIMFIT
 70
     3
  9
$DIMUPT
 70
     0
  9
$DIMUNIT
 70
     2
  9
$DIMDEC
 70
     3
  9
$DIMTDEC
 70
     3
  9
$DIMALTU
 70
     2
  9
$DIMALTTD
 70
     2
  9
$DIMTXSTY
  7
ROMANS
  9
$DIMAUNIT
 70
     0
  9
$LUNITS
 70
     2
  9
$LUPREC
 70
     3
  9
$SKETCHINC
 40
0.1
  9
$FILLETRAD
 40
0.03125
  9
$AUNITS
 70
     0
  9
$AUPREC
 70
     0
  9
$MENU
  1
ACAD
  9
$ELEVATION
 40
0.0
  9
$PELEVATION
 40
0.0
  9
$THICKNESS
 40
0.0
  9
$LIMCHECK
 70
     0
  9
$BLIPMODE
 70
     0
  9
$CHAMFERA
 40
0.0
  9
$CHAMFERB
 40
0.0
  9
$CHAMFERC
 40
0.0
  9
$CHAMFERD
 40
0.0
  9
$SKPOLY
 70
     0
  9
$TDCREATE
 40
2448994.529676272
  9
$TDUPDATE
 40
2452458.303986273
  9
$TDINDWG
 40
0.0007669792
  9
$TDUSRTIMER
 40
0.0007669792
  9
$USRTIMER
 70
     1
  9
$ANGBASE
 50
0.0
  9
$ANGDIR
 70
     0
  9
$PDMODE
 70
     0
  9
$PDSIZE
 40
0.0
  9
$PLINEWID
 40
0.0
  9
$COORDS
 70
     2
  9
$SPLFRAME
 70
     0
  9
$SPLINETYPE
 70
     6
  9
$SPLINESEGS
 70
     8
  9
$ATTDIA
 70
     0
  9
$ATTREQ
 70
     1
  9
$HANDLING
 70
 22529
  9
$HANDSEED
  5
7DE1B343D9DFE57
  9
$SURFTAB1
 70
     6
  9
$SURFTAB2
 70
     6
  9
$SURFTYPE
 70
     6
  9
$SURFU
 70
     6
  9
$SURFV
 70
     6
  9
$UCSNAME
  2

  9
$UCSORG
 10
0.0
 20
0.0
 30
0.0
  9
$UCSXDIR
 10
1.0
 20
0.0
 30
0.0
  9
$UCSYDIR
 10
0.0
 20
1.0
 30
0.0
  9
$PUCSNAME
  2

  9
$PUCSORG
 10
0.0
 20
0.0
 30
0.0
  9
$PUCSXDIR
 10
1.0
 20
0.0
 30
0.0
  9
$PUCSYDIR
 10
0.0
 20
1.0
 30
0.0
  9
$USERI1
 70
     0
  9
$USERI2
 70
     0
  9
$USERI3
 70
     0
  9
$USERI4
 70
     0
  9
$USERI5
 70
     0
  9
$USERR1
 40
0.0
  9
$USERR2
 40
0.0
  9
$USERR3
 40
0.0
  9
$USERR4
 40
0.0
  9
$USERR5
 40
0.0
  9
$WORLDVIEW
 70
     1
  9
$SHADEDGE
 70
     3
  9
$SHADEDIF
 70
    70
  9
$TILEMODE
 70
     1
  9
$MAXACTVP
 70
    16
  9
$PINSBASE
 10
3.272588324347517
 20
50.00000000000001
 30
4.743753678540336
  9
$PLIMCHECK
 70
     0
  9
$PEXTMIN
 10
1.000000000000000E+20
 20
1.000000000000000E+20
 30
1.000000000000000E+20
  9
$PEXTMAX
 10
-1.000000000000000E+20
 20
-1.000000000000000E+20
 30
-1.000000000000000E+20
  9
$PLIMMIN
 10
0.0
 20
0.0
  9
$PLIMMAX
 10
12.0
 20
9.0
  9
$UNITMODE
 70
     0
  9
$VISRETAIN
 70
     0
  9
$PLINEGEN
 70
     1
  9
$PSLTSCALE
 70
     0
  9
$TREEDEPTH
 70
  3020
  9
$PICKSTYLE
 70
     1
  9
$CMLSTYLE
  2
STANDARD
  9
$CMLJUST
 70
     0
  9
$CMLSCALE
 40
1.0
  9
$PROXYGRAPHICS
 70
     1
  9
$MEASUREMENT
 70
     0
  0
ENDSEC
  0
SECTION
  2
CLASSES
  0
CLASS
  1
LWPOLYLINE
  2
AcDbPolyline
  3
AutoCAD 2000
 90
        0
280
     0
281
     1
  0
CLASS
  1
ACDBDICTIONARYWDFLT
  2
AcDbDictionaryWithDefault
  3
AutoCAD 2000
 90
        0
280
     0
281
     0
  0
CLASS
  1
ACDBPLACEHOLDER
  2
AcDbPlaceHolder
  3
AutoCAD 2000
 90
        0
280
     0
281
     0
  0
CLASS
  1
LAYOUT
  2
AcDbLayout
  3
AutoCAD 2000
 90
        0
280
     0
281
     0
  0
CLASS
  1
DICTIONARYVAR
  2
AcDbDictionaryVar
  3
AutoCAD 2000
 90
        0
280
     0
281
     0
  0
CLASS
  1
LONG_TRANSACTION
  2
AcDbLongTransaction
  3
AutoCAD 2000
 90
        0
280
     0
281
     0
  0
CLASS
  1
LWPOLYLINE
  2
AcDbPolyline
  3
AutoCAD 2000
 90
        0
280
     0
281
     1
  0
CLASS
  1
HATCH
  2
AcDbHatch
  3
AutoCAD 2000
 90
        0
280
     0
281
     1
  0
CLASS
  1
XRECORD
  2
AcDbXrecord
  3
AutoCAD 2000
 90
        0
280
     0
281
     0
  0
ENDSEC
  0
SECTION
  2
TABLES
  0
TABLE
  2
VPORT
  5
7DE1B343D9DFDFE
330
0
100
AcDbSymbolTable
 70
     2
  0
VPORT
  5
7DE1B343D9DFE32
330
7DE1B343D9DFDFE
100
AcDbSymbolTableRecord
100
AcDbViewportTableRecord
  2
*ACTIVE
 70
     0
 10
0.0
 20
0.0
 11
1.0
 21
1.0
 12
10.99866891094196
 22
3.752380396416853
 13
0.0
 23
0.0
 14
0.015625
 24
0.015625
 15
0.0
 25
0.0
 16
0.0
 26
0.0
 36
1.0
 17
0.0
 27
0.0
 37
0.0
 40
5.46346245298898
 41
4.320930232558139
 42
50.0
 43
0.0
 44
0.0
 50
0.0
 51
0.0
 71
     0
 72
  2000
 73
     1
 74
     0
 75
     0
 76
     0
 77
     0
 78
     0
  0
ENDTAB
  0
TABLE
  2
LTYPE
  5
7DE1B343D9DFDFB
330
0
100
AcDbSymbolTable
 70
     1
  0
LTYPE
  5
7DE1B343D9DFE08
330
7DE1B343D9DFDFB
100
AcDbSymbolTableRecord
100
AcDbLinetypeTableRecord
  2
BYBLOCK
 70
     0
  3

 72
    65
 73
     0
 40
0.0
  0
LTYPE
  5
7DE1B343D9DFE09
330
7DE1B343D9DFDFB
100
AcDbSymbolTableRecord
100
AcDbLinetypeTableRecord
  2
BYLAYER
 70
     0
  3

 72
    65
 73
     0
 40
0.0
  0
LTYPE
  5
7DE1B343D9DFE0A
330
7DE1B343D9DFDFB
100
AcDbSymbolTableRecord
100
AcDbLinetypeTableRecord
  2
CONTINUOUS
 70
     0
  3
Solid line
 72
    65
 73
     0
 40
0.0
  0
ENDTAB
  0
TABLE
  2
LAYER
  5
7DE1B343D9DFDF8
330
0
100
AcDbSymbolTable
 70
     2
  0
LAYER
  5
7DE1B343D9DFE05
330
7DE1B343D9DFDF8
100
AcDbSymbolTableRecord
100
AcDbLayerTableRecord
  2
0
 70
     0
 62
     7
  6
CONTINUOUS
  0
LAYER
  5
7DE1B343D9DFE15
330
7DE1B343D9DFDF8
100
AcDbSymbolTableRecord
100
AcDbLayerTableRecord
  2
TEXT
 70
     0
 62
     3
  6
CONTINUOUS
  0
ENDTAB
  0
TABLE
  2
STYLE
  5
7DE1B343D9DFDF9
330
0
100
AcDbSymbolTable
 70
     3
  0
STYLE
  5
7DE1B343D9DFE06
330
7DE1B343D9DFDF9
100
AcDbSymbolTableRecord
100
AcDbTextStyleTableRecord
  2
STANDARD
 70
     0
 40
0.0
 41
1.0
 50
0.0
 71
     0
 42
0.3125
  3
txt
  4

  0
STYLE
  5
7DE1B343D9DFE12
330
7DE1B343D9DFDF9
100
AcDbSymbolTableRecord
100
AcDbTextStyleTableRecord
  2
ITALICC
 70
     0
 40
0.0
 41
1.0
 50
0.0
 71
     0
 42
0.125
  3
italicc
  4

  0
STYLE
  5
7DE1B343D9DFE22
330
7DE1B343D9DFDF9
100
AcDbSymbolTableRecord
100
AcDbTextStyleTableRecord
  2
ROMANS
 70
     0
 40
0.0
 41
1.0
 50
0.0
 71
     0
 42
0.125
  3
romans.shx
  4

  0
ENDTAB
  0
TABLE
  2
VIEW
  5
7DE1B343D9DFDFC
330
0
100
AcDbSymbolTable
 70
     0
  0
ENDTAB
  0
TABLE
  2
UCS
  5
7DE1B343D9DFDFD
330
0
100
AcDbSymbolTable
 70
     0
  0
ENDTAB
  0
TABLE
  2
APPID
  5
7DE1B343D9DFDFF
330
0
100
AcDbSymbolTable
 70
     1
  0
APPID
  5
7DE1B343D9DFE07
330
7DE1B343D9DFDFF
100
AcDbSymbolTableRecord
100
AcDbRegAppTableRecord
  2
ACAD
 70
     0
  0
ENDTAB
  0
TABLE
  2
DIMSTYLE
  5
7DE1B343D9DFE00
330
0
100
AcDbSymbolTable
 70
     1
  0
DIMSTYLE
105
7DE1B343D9DFE1A
330
7DE1B343D9DFE00
100
AcDbSymbolTableRecord
100
AcDbDimStyleTableRecord
  2
STANDARD
 70
     0
  3

  4

  5

  6

  7

 40
1.0
 41
0.125
 42
0.125
 43
0.375
 44
0.125
 45
0.0
 46
0.0
 47
0.0
 48
0.0
140
0.125
141
-0.125
142
0.0
143
25.4
144
1.0
145
0.0
146
1.0
147
0.09
 71
     0
 72
     0
 73
     1
 74
     1
 75
     0
 76
     0
 77
     0
 78
     4
170
     0
171
     2
172
     0
173
     0
174
     1
175
     0
176
     0
177
     0
178
     0
270
     2
271
     3
272
     3
273
     2
274
     2
340
7DE1B343D9DFE22
275
     0
280
     0
281
     0
282
     0
283
     1
284
     4
285
     0
286
     0
287
     3
288
     0
  0
ENDTAB
  0
TABLE
  2
BLOCK_RECORD
  5
7DE1B343D9DFDF7
330
0
100
AcDbSymbolTable
 70
     0
  0
BLOCK_RECORD
  5
7DE1B343D9DFE0E
102
{ACAD_XDICTIONARY
360
7DE1B343D9DFE55
102
}
330
7DE1B343D9DFDF7
100
AcDbSymbolTableRecord
100
AcDbBlockTableRecord
  2
*MODEL_SPACE
  0
BLOCK_RECORD
  5
7DE1B343D9DFE0B
102
{ACAD_XDICTIONARY
360
7DE1B343D9DFE53
102
}
330
7DE1B343D9DFDF7
100
AcDbSymbolTableRecord
100
AcDbBlockTableRecord
  2
*PAPER_SPACE
  0
ENDTAB
  0
ENDSEC
  0
SECTION
  2
BLOCKS
  0
BLOCK
  5
7DE1B343D9DFE18
330
7DE1B343D9DFE0E
100
AcDbEntity
  8
0
100
AcDbBlockBegin
  2
*MODEL_SPACE
 70
     0
 10
0.0
 20
0.0
 30
0.0
  3
*MODEL_SPACE
  1

  0
ENDBLK
  5
7DE1B343D9DFE19
330
7DE1B343D9DFE0E
100
AcDbEntity
  8
0
100
AcDbBlockEnd
  0
BLOCK
  5
7DE1B343D9DFE16
330
7DE1B343D9DFE0B
100
AcDbEntity
 67
     1
  8
0
100
AcDbBlockBegin
  2
*PAPER_SPACE
 70
     0
 10
0.0
 20
0.0
 30
0.0
  3
*PAPER_SPACE
  1

  0
ENDBLK
  5
7DE1B343D9DFE17
330
7DE1B343D9DFE0B
100
AcDbEntity
 67
     1
  8
0
100
AcDbBlockEnd
  0
ENDSEC
  0
SECTION
  2
ENTITIES
  0
CIRCLE
  5
7DE1B343D9DE8CB
330
7DE1B343D9DFE0E
100
AcDbEntity
  8
0
100
AcDbCircle
 10
3.875
 20
4.171875
 30
0.0
 40
1.915
  0
CIRCLE
  5
7DE1B343D9DE8CA
330
7DE1B343D9DFE0E
100
AcDbEntity
  8
0
100
AcDbCircle
 10
3.875
 20
4.171875
 30
0.0
 40
2.0
  0
TEXT
  5
7DE1B343D9DFCB9
330
7DE1B343D9DFE0E
100
AcDbEntity
  8
TEXT
100
AcDbText
 10
3.122023809523809
 20
1.791100532582347
 30
0.0
 40
0.125
  1
PART #110263
  7
ITALICC
 72
     1
 11
3.875
 21
1.791100532582347
 31
0.0
100
AcDbText
  0
TEXT
  5
7DE1B343D9DFCBA
330
7DE1B343D9DFE0E
100
AcDbEntity
  8
TEXT
100
AcDbText
 10
4.28830515825032
 20
1.344177889909972
 30
0.0
 40
0.0522247191011236
  1
Phone  1-800-328-2495
 41
1.272321428571429
 72
     5
 11
5.617237742519984
 21
1.344177889909972
 31
0.0
100
AcDbText
  0
TEXT
  5
7DE1B343D9DFCBB
330
7DE1B343D9DFE0E
100
AcDbEntity
  8
TEXT
100
AcDbText
 10
4.28830515825032
 20
1.623953170808849
 30
0.0
 40
0.0522247191011236
  1
Stylmark  Incorporated
 41
1.221428571428573
 72
     5
 11
5.617237742519984
 21
1.623953170808849
 31
0.0
100
AcDbText
  0
TEXT
  5
7DE1B343D9DFCBC
330
7DE1B343D9DFE0E
100
AcDbEntity
  8
TEXT
100
AcDbText
 10
4.28830515825032
 20
1.530694743842556
 30
0.0
 40
0.0522247191011236
  1
6536 Main St. N.E. * P.O. Box 32008
 41
0.8388932496075366
 72
     5
 11
5.617237742519984
 21
1.530694743842556
 31
0.0
100
AcDbText
  0
TEXT
  5
7DE1B343D9DFCBD
330
7DE1B343D9DFE0E
100
AcDbEntity
  8
TEXT
100
AcDbText
 10
4.28830515825032
 20
1.437436316876264
 30
0.0
 40
0.0522247191011236
  1
Minneapolis, MN 55432-0008
 41
1.11444212721585
 72
     5
 11
5.617237742519984
 21
1.437436316876264
 31
0.0
100
AcDbText
  0
LWPOLYLINE
  5
7DE1B343D9DFCBE
330
7DE1B343D9DFE0E
100
AcDbEntity
  8
TEXT
100
AcDbPolyline
 90
        3
 70
     0
 43
0.0006660908203125
 10
2.132351466183012
 20
1.457822652547407
 10
2.132351466183012
 20
1.344587213094279
 10
2.245586905636135
 20
1.344587213094279
  0
LWPOLYLINE
  5
7DE1B343D9DFCC3
330
7DE1B343D9DFE0E
100
AcDbEntity
  8
TEXT
100
AcDbPolyline
 90
        3
 70
     0
 43
0.0006660908203125
 10
2.15899509899551
 20
1.457822652547407
 10
2.15899509899551
 20
1.37123084590678
 10
2.245586905636135
 20
1.37123084590678
  0
LWPOLYLINE
  5
7DE1B343D9DFCC8
330
7DE1B343D9DFE0E
100
AcDbEntity
  8
TEXT
100
AcDbPolyline
 90
        2
 70
     0
 43
0.0001332181640625
 10
2.205621456417387
 20
1.467814014852092
 10
2.132351466183012
 20
1.457822652547407
  0
LWPOLYLINE
  5
7DE1B343D9DFCCC
330
7DE1B343D9DFE0E
100
AcDbEntity
  8
TEXT
100
AcDbPolyline
 90
        2
 70
     0
 43
0.0001332181640625
 10
2.15899509899551
 20
1.457822652547407
 10
2.218943272823637
 20
1.467814014852092
  0
LWPOLYLINE
  5
7DE1B343D9DFCD0
330
7DE1B343D9DFE0E
100
AcDbEntity
  8
TEXT
100
AcDbPolyline
 90
        2
 70
     0
 43
0.0001332181640625
 10
2.15899509899551
 20
1.37123084590678
 10
2.218943272823637
 20
1.431179019734906
  0
LWPOLYLINE
  5
7DE1B343D9DFCD4
330
7DE1B343D9DFE0E
100
AcDbEntity
  8
TEXT
100
AcDbPolyline
 90
        3
 70
     0
 43
0.0006660908203125
 10
2.245586905636135
 20
1.611023541219283
 10
2.132351466183012
 20
1.611023541219283
 10
2.132351466183012
 20
1.497788101766155
  0
LWPOLYLINE
  5
7DE1B343D9DFCD9
330
7DE1B343D9DFE0E
100
AcDbEntity
  8
TEXT
100
AcDbPolyline
 90
        3
 70
     0
 43
0.0006660908203125
 10
2.245586905636135
 20
1.584379908406782
 10
2.15899509899551
 20
1.584379908406782
 10
2.15899509899551
 20
1.497788101766155
  0
LWPOLYLINE
  5
7DE1B343D9DFCDE
330
7DE1B343D9DFE0E
100
AcDbEntity
  8
TEXT
100
AcDbPolyline
 90
        2
 70
     0
 43
0.0001332181640625
 10
2.15899509899551
 20
1.584379908406782
 10
2.218943272823636
 20
1.524431734578656
  0
LWPOLYLINE
  5
7DE1B343D9DFCE2
330
7DE1B343D9DFE0E
100
AcDbEntity
  8
TEXT
100
AcDbPolyline
 90
        2
 70
     0
 43
0.0001332181640625
 10
2.15899509899551
 20
1.497788101766155
 10
2.218943272823636
 20
1.487796739461466
  0
LWPOLYLINE
  5
7DE1B343D9DFCE6
330
7DE1B343D9DFE0E
100
AcDbEntity
  8
TEXT
100
AcDbPolyline
 90
        2
 70
     0
 43
0.0001332181640625
 10
2.132351466183012
 20
1.497788101766155
 10
2.205621456417387
 20
1.487796739461466
  0
LWPOLYLINE
  5
7DE1B343D9DFCEA
330
7DE1B343D9DFE0E
100
AcDbEntity
  8
TEXT
100
AcDbPolyline
 90
        2
 70
     0
 43
0.0006660908203125
 10
2.15899509899551
 20
1.457822652547407
 10
2.132351466183012
 20
1.457822652547407
  0
LWPOLYLINE
  5
7DE1B343D9DFCEE
330
7DE1B343D9DFE0E
100
AcDbEntity
  8
TEXT
100
AcDbPolyline
 90
        2
 70
     0
 43
0.0006660908203125
 10
2.15899509899551
 20
1.497788101766155
 10
2.132351466183012
 20
1.497788101766155
  0
LINE
  5
7DE1B343D9DFCF2
330
7DE1B343D9DFE0E
100
AcDbEntity
  8
TEXT
100
AcDbLine
 10
3.64754189530951
 20
1.546746846562514
 30
0.0
 11
3.540335621922221
 21
1.546746846562514
 31
0.0
  0
LINE
  5
7DE1B343D9DFCF3
330
7DE1B343D9DFE0E
100
AcDbEntity
  8
TEXT
100
AcDbLine
 10
3.676572793653988
 20
1.611023541219279
 30
0.0
 11
3.541740884436929
 21
1.611023541219279
 31
0.0
  0
ARC
  5
7DE1B343D9DFCF4
330
7DE1B343D9DFE0E
100
AcDbEntity
  8
TEXT
100
AcDbCircle
 10
3.601054980830246
 20
1.441786291956263
 30
0.0
 40
0.0676855811441166
100
AcDbArc
 50
90.0
 51
153.7768192527749
  0
LWPOLYLINE
  5
7DE1B343D9DFCF5
330
7DE1B343D9DFE0E
100
AcDbEntity
  8
TEXT
100
AcDbPolyline
 90
        2
 70
     0
 43
0.0
 10
3.539303126467411
 20
1.388041453181206
 42
0.2901071551932823
 10
3.582379059335046
 20
1.344550508230768
 42
5.328517124445801
  0
ARC
  5
7DE1B343D9DFCF9
330
7DE1B343D9DFE0E
100
AcDbEntity
  8
TEXT
100
AcDbCircle
 10
2.89592360315876
 20
1.404342899568818
 30
0.0
 40
0.0601160179737537
100
AcDbArc
 50
180.0000000000003
 51
264.0521544866073
  0
LINE
  5
7DE1B343D9DFCFA
330
7DE1B343D9DFE0E
100
AcDbEntity
  8
TEXT
100
AcDbLine
 10
2.899438958784308
 20
1.645411458813417
 30
0.0
 11
2.839396353940301
 21
1.645411458813417
 31
0.0
  0
ARC
  5
7DE1B343D9DFCFB
330
7DE1B343D9DFE0E
100
AcDbEntity
  8
TEXT
100
AcDbCircle
 10
2.66366460104179
 20
1.528936081772777
 30
0.0
 40
0.0820874594465043
100
AcDbArc
 50
90.0
 51
270.0
  0
LWPOLYLINE
  5
7DE1B343D9DFCFC
330
7DE1B343D9DFE0E
100
AcDbEntity
  8
TEXT
100
AcDbPolyline
 90
        2
 70
     0
 43
0.0001332181640625
 10
2.255578267940825
 20
1.537753550984903
 10
2.245586905636135
 20
1.611023541219283
  0
LWPOLYLINE
  5
7DE1B343D9DFD00
330
7DE1B343D9DFE0E
100
AcDbEntity
  8
TEXT
100
AcDbPolyline
 90
        2
 70
     0
 43
0.0001332181640625
 10
2.245586905636135
 20
1.584379908406782
 10
2.255578267940825
 20
1.524431734578656
  0
LWPOLYLINE
  5
7DE1B343D9DFD04
330
7DE1B343D9DFE0E
100
AcDbEntity
  8
TEXT
100
AcDbPolyline
 90
        3
 70
     0
 43
0.0006660908203125
 10
2.398787794308012
 20
1.497788101766155
 10
2.398787794308012
 20
1.611023541219283
 10
2.285552354854886
 20
1.611023541219283
  0
LWPOLYLINE
  5
7DE1B343D9DFD09
330
7DE1B343D9DFE0E
100
AcDbEntity
  8
TEXT
100
AcDbPolyline
 90
        3
 70
     0
 43
0.0006660908203125
 10
2.372144161495511
 20
1.497788101766155
 10
2.372144161495511
 20
1.584379908406782
 10
2.285552354854886
 20
1.584379908406782
  0
LWPOLYLINE
  5
7DE1B343D9DFD0E
330
7DE1B343D9DFE0E
100
AcDbEntity
  8
TEXT
100
AcDbPolyline
 90
        2
 70
     0
 43
0.0001332181640625
 10
2.372144161495511
 20
1.584379908406782
 10
2.312195987667387
 20
1.524431734578656
  0
LWPOLYLINE
  5
7DE1B343D9DFD12
330
7DE1B343D9DFE0E
100
AcDbEntity
  8
TEXT
100
AcDbPolyline
 90
        2
 70
     0
 43
0.0001332181640625
 10
2.285552354854886
 20
1.584379908406782
 10
2.275560992550198
 20
1.524431734578656
  0
LWPOLYLINE
  5
7DE1B343D9DFD16
330
7DE1B343D9DFE0E
100
AcDbEntity
  8
TEXT
100
AcDbPolyline
 90
        2
 70
     0
 43
0.0001332181640625
 10
2.285552354854886
 20
1.611023541219283
 10
2.275560992550198
 20
1.537753550984903
  0
LWPOLYLINE
  5
7DE1B343D9DFD1A
330
7DE1B343D9DFE0E
100
AcDbEntity
  8
TEXT
100
AcDbPolyline
 90
        2
 70
     0
 43
0.0001332181640625
 10
2.325517804073636
 20
1.487796739461466
 10
2.398787794308012
 20
1.497788101766155
  0
LWPOLYLINE
  5
7DE1B343D9DFD1E
330
7DE1B343D9DFE0E
100
AcDbEntity
  8
TEXT
100
AcDbPolyline
 90
        2
 70
     0
 43
0.0001332181640625
 10
2.372144161495511
 20
1.497788101766155
 10
2.312195987667387
 20
1.487796739461466
  0
LWPOLYLINE
  5
7DE1B343D9DFD22
330
7DE1B343D9DFE0E
100
AcDbEntity
  8
TEXT
100
AcDbPolyline
 90
        2
 70
     0
 43
0.0001332181640625
 10
2.398787794308012
 20
1.457822652547407
 10
2.325517804073636
 20
1.467814014852092
  0
LWPOLYLINE
  5
7DE1B343D9DFD26
330
7DE1B343D9DFE0E
100
AcDbEntity
  8
TEXT
100
AcDbPolyline
 90
        2
 70
     0
 43
0.0001332181640625
 10
2.372144161495511
 20
1.457822652547407
 10
2.312195987667387
 20
1.467814014852092
  0
LWPOLYLINE
  5
7DE1B343D9DFD2A
330
7DE1B343D9DFE0E
100
AcDbEntity
  8
TEXT
100
AcDbPolyline
 90
        2
 70
     0
 43
0.0001332181640625
 10
2.372144161495511
 20
1.37123084590678
 10
2.312195987667387
 20
1.431179019734906
  0
LWPOLYLINE
  5
7DE1B343D9DFD2E
330
7DE1B343D9DFE0E
100
AcDbEntity
  8
TEXT
100
AcDbPolyline
 90
        3
 70
     0
 43
0.0006660908203125
 10
2.285552354854886
 20
1.37123084590678
 10
2.372144161495511
 20
1.37123084590678
 10
2.372144161495511
 20
1.457822652547407
  0
LWPOLYLINE
  5
7DE1B343D9DFD33
330
7DE1B343D9DFE0E
100
AcDbEntity
  8
TEXT
100
AcDbPolyline
 90
        3
 70
     0
 43
0.0006660908203125
 10
2.285552354854886
 20
1.344587213094279
 10
2.398787794308012
 20
1.344587213094279
 10
2.398787794308012
 20
1.457822652547407
  0
LWPOLYLINE
  5
7DE1B343D9DFD38
330
7DE1B343D9DFE0E
100
AcDbEntity
  8
TEXT
100
AcDbPolyline
 90
        5
 70
     0
 43
0.0001332181640625
 10
2.255578267940825
 20
1.417857203328655
 10
2.255578267940825
 20
1.431179019734906
 10
2.218943272823637
 20
1.431179019734906
 10
2.218943272823637
 20
1.467814014852092
 10
2.205621456417387
 20
1.467814014852092
  0
LWPOLYLINE
  5
7DE1B343D9DFD3F
330
7DE1B343D9DFE0E
100
AcDbEntity
  8
TEXT
100
AcDbPolyline
 90
        2
 70
     0
 43
0.0006660908203125
 10
2.245586905636135
 20
1.37123084590678
 10
2.245586905636135
 20
1.344587213094279
  0
LWPOLYLINE
  5
7DE1B343D9DFD43
330
7DE1B343D9DFE0E
100
AcDbEntity
  8
TEXT
100
AcDbPolyline
 90
        2
 70
     0
 43
0.0001332181640625
 10
2.245586905636135
 20
1.37123084590678
 10
2.255578267940825
 20
1.431179019734906
  0
LWPOLYLINE
  5
7DE1B343D9DFD47
330
7DE1B343D9DFE0E
100
AcDbEntity
  8
TEXT
100
AcDbPolyline
 90
        2
 70
     0
 43
0.0001332181640625
 10
2.245586905636135
 20
1.344587213094279
 10
2.255578267940825
 20
1.417857203328655
  0
LWPOLYLINE
  5
7DE1B343D9DFD4B
330
7DE1B343D9DFE0E
100
AcDbEntity
  8
TEXT
100
AcDbPolyline
 90
        5
 70
     0
 43
0.0001332181640625
 10
2.205621456417387
 20
1.487796739461466
 10
2.218943272823636
 20
1.487796739461466
 10
2.218943272823636
 20
1.524431734578656
 10
2.255578267940825
 20
1.524431734578656
 10
2.255578267940825
 20
1.537753550984903
  0
LWPOLYLINE
  5
7DE1B343D9DFD52
330
7DE1B343D9DFE0E
100
AcDbEntity
  8
TEXT
100
AcDbPolyline
 90
        5
 70
     0
 43
0.0001332181640625
 10
2.275560992550198
 20
1.537753550984903
 10
2.275560992550198
 20
1.524431734578656
 10
2.312195987667387
 20
1.524431734578656
 10
2.312195987667387
 20
1.487796739461466
 10
2.325517804073636
 20
1.487796739461466
  0
LWPOLYLINE
  5
7DE1B343D9DFD59
330
7DE1B343D9DFE0E
100
AcDbEntity
  8
TEXT
100
AcDbPolyline
 90
        2
 70
     0
 43
0.0001332181640625
 10
2.285552354854886
 20
1.37123084590678
 10
2.275560992550198
 20
1.431179019734906
  0
LWPOLYLINE
  5
7DE1B343D9DFD5D
330
7DE1B343D9DFE0E
100
AcDbEntity
  8
TEXT
100
AcDbPolyline
 90
        2
 70
     0
 43
0.0001332181640625
 10
2.275560992550198
 20
1.417857203328655
 10
2.285552354854886
 20
1.344587213094279
  0
LWPOLYLINE
  5
7DE1B343D9DFD61
330
7DE1B343D9DFE0E
100
AcDbEntity
  8
TEXT
100
AcDbPolyline
 90
        2
 70
     0
 43
0.0006660908203125
 10
2.285552354854886
 20
1.37123084590678
 10
2.285552354854886
 20
1.344587213094279
  0
LWPOLYLINE
  5
7DE1B343D9DFD65
330
7DE1B343D9DFE0E
100
AcDbEntity
  8
TEXT
100
AcDbPolyline
 90
        5
 70
     0
 43
0.0001332181640625
 10
2.325517804073636
 20
1.467814014852092
 10
2.312195987667387
 20
1.467814014852092
 10
2.312195987667387
 20
1.431179019734906
 10
2.275560992550198
 20
1.431179019734906
 10
2.275560992550198
 20
1.417857203328655
  0
LWPOLYLINE
  5
7DE1B343D9DFD6C
330
7DE1B343D9DFE0E
100
AcDbEntity
  8
TEXT
100
AcDbPolyline
 90
        2
 70
     0
 43
0.0006660908203125
 10
2.372144161495511
 20
1.497788101766155
 10
2.398787794308012
 20
1.497788101766155
  0
LWPOLYLINE
  5
7DE1B343D9DFD70
330
7DE1B343D9DFE0E
100
AcDbEntity
  8
TEXT
100
AcDbPolyline
 90
        2
 70
     0
 43
0.0006660908203125
 10
2.372144161495511
 20
1.457822652547407
 10
2.398787794308012
 20
1.457822652547407
  0
LINE
  5
7DE1B343D9DFD74
330
7DE1B343D9DFE0E
100
AcDbEntity
  8
TEXT
100
AcDbLine
 10
2.668901931156037
 20
1.546746846562514
 30
0.0
 11
2.835807585185008
 21
1.546746846562514
 31
0.0
  0
LINE
  5
7DE1B343D9DFD75
330
7DE1B343D9DFE0E
100
AcDbEntity
  8
TEXT
100
AcDbLine
 10
2.734502067400338
 20
1.510942124951886
 30
0.0
 11
2.668901931156037
 21
1.510942124951886
 31
0.0
  0
LINE
  5
7DE1B343D9DFD76
330
7DE1B343D9DFE0E
100
AcDbEntity
  8
TEXT
100
AcDbLine
 10
2.581577141595285
 20
1.344550508230768
 30
0.0
 11
2.734502067400338
 21
1.344550508230768
 31
0.0
  0
LINE
  5
7DE1B343D9DFD77
330
7DE1B343D9DFE0E
100
AcDbEntity
  8
TEXT
100
AcDbLine
 10
2.739442441306618
 20
1.412907514564207
 30
0.0
 11
2.581577141595284
 21
1.412907514564207
 31
0.0
  0
LINE
  5
7DE1B343D9DFD78
330
7DE1B343D9DFE0E
100
AcDbEntity
  8
TEXT
100
AcDbLine
 10
2.663664601041789
 20
1.446848622326272
 30
0.0
 11
2.739442441306618
 21
1.446848622326272
 31
0.0
  0
ARC
  5
7DE1B343D9DFD79
330
7DE1B343D9DFE0E
100
AcDbEntity
  8
TEXT
100
AcDbCircle
 10
2.668901931156038
 20
1.528844485757201
 30
0.0
 40
0.017902360805315
100
AcDbArc
 50
90.0
 51
270.0
  0
LINE
  5
7DE1B343D9DFD7A
330
7DE1B343D9DFE0E
100
AcDbEntity
  8
TEXT
100
AcDbLine
 10
2.581577141595284
 20
1.412907514564207
 30
0.0
 11
2.581577141595285
 21
1.344550508230768
 31
0.0
  0
LINE
  5
7DE1B343D9DFD7B
330
7DE1B343D9DFE0E
100
AcDbEntity
  8
TEXT
100
AcDbLine
 10
2.835807585185008
 20
1.546746846562514
 30
0.0
 11
2.835807585185008
 21
1.404342899568818
 31
0.0
  0
ARC
  5
7DE1B343D9DFD7C
330
7DE1B343D9DFE0E
100
AcDbEntity
  8
TEXT
100
AcDbCircle
 10
2.734502067400339
 20
1.427746316591325
 30
0.0
 40
0.0831958083605586
100
AcDbArc
 50
270.0
 51
90.0
  0
ARC
  5
7DE1B343D9DFD7D
330
7DE1B343D9DFE0E
100
AcDbEntity
  8
TEXT
100
AcDbCircle
 10
2.739442441306619
 20
1.429878068445241
 30
0.0
 40
0.0169705538810321
100
AcDbArc
 50
270.0
 51
90.0
  0
LWPOLYLINE
  5
7DE1B343D9DFD7E
330
7DE1B343D9DFE0E
100
AcDbEntity
  8
TEXT
100
AcDbPolyline
 90
        2
 70
     0
 43
0.0006660908203125
 10
2.245586905636135
 20
1.584379908406782
 10
2.245586905636135
 20
1.611023541219283
  0
LWPOLYLINE
  5
7DE1B343D9DFD82
330
7DE1B343D9DFE0E
100
AcDbEntity
  8
TEXT
100
AcDbPolyline
 90
        2
 70
     0
 43
0.0006660908203125
 10
2.285552354854886
 20
1.584379908406782
 10
2.285552354854886
 20
1.611023541219283
  0
LINE
  5
7DE1B343D9DFD86
330
7DE1B343D9DFE0E
100
AcDbEntity
  8
TEXT
100
AcDbLine
 10
2.839396353940301
 20
1.611023541219279
 30
0.0
 11
2.663664601041789
 21
1.611023541219279
 31
0.0
  0
LINE
  5
7DE1B343D9DFD87
330
7DE1B343D9DFE0E
100
AcDbEntity
  8
TEXT
100
AcDbLine
 10
2.839396353940301
 20
1.645411458813417
 30
0.0
 11
2.839396353940301
 21
1.611023541219279
 31
0.0
  0
LINE
  5
7DE1B343D9DFD88
330
7DE1B343D9DFE0E
100
AcDbEntity
  8
TEXT
100
AcDbLine
 10
3.029868245960154
 20
1.510151545106158
 30
0.0
 11
2.971237924928216
 21
1.611023541219279
 31
0.0
  0
LINE
  5
7DE1B343D9DFD89
330
7DE1B343D9DFE0E
100
AcDbEntity
  8
TEXT
100
AcDbLine
 10
3.088616808766019
 20
1.611023541219279
 30
0.0
 11
3.029868245960154
 21
1.510151545106158
 31
0.0
  0
LINE
  5
7DE1B343D9DFD8A
330
7DE1B343D9DFE0E
100
AcDbEntity
  8
TEXT
100
AcDbLine
 10
3.18554743412576
 20
1.426938346333767
 30
0.0
 11
3.18554743412576
 21
1.67903501895809
 31
0.0
  0
LINE
  5
7DE1B343D9DFD8B
330
7DE1B343D9DFE0E
100
AcDbEntity
  8
TEXT
100
AcDbLine
 10
3.21785928826342
 20
1.611023541219279
 30
0.0
 11
3.21785928826342
 21
1.410159334486871
 31
0.0
  0
LINE
  5
7DE1B343D9DFD8C
330
7DE1B343D9DFE0E
100
AcDbEntity
  8
TEXT
100
AcDbLine
 10
3.21785928826342
 20
1.410159334486871
 30
0.0
 11
3.200865651378819
 21
1.410159334486871
 31
0.0
  0
LINE
  5
7DE1B343D9DFD8D
330
7DE1B343D9DFE0E
100
AcDbEntity
  8
TEXT
100
AcDbLine
 10
3.186687007621955
 20
1.344550508230768
 30
0.0
 11
3.28469034132139
 21
1.344550508230768
 31
0.0
  0
LINE
  5
7DE1B343D9DFD8E
330
7DE1B343D9DFE0E
100
AcDbEntity
  8
TEXT
100
AcDbLine
 10
3.020268008963199
 20
1.364509014335781
 30
0.0
 11
3.117567715056644
 21
1.528859225271049
 31
0.0
  0
ARC
  5
7DE1B343D9DFD8F
330
7DE1B343D9DFE0E
100
AcDbEntity
  8
TEXT
100
AcDbCircle
 10
2.986224449050985
 20
1.384098230504464
 30
0.0
 40
0.0392772371940762
100
AcDbArc
 50
270.1604552698595
 51
330.0831797321295
  0
LINE
  5
7DE1B343D9DFD90
330
7DE1B343D9DFE0E
100
AcDbEntity
  8
TEXT
100
AcDbLine
 10
2.889694192665114
 20
1.344550508230768
 30
0.0
 11
2.986334443740108
 21
1.34482114732905
 31
0.0
  0
LWPOLYLINE
  5
7DE1B343D9DFD91
330
7DE1B343D9DFE0E
100
AcDbEntity
  8
TEXT
100
AcDbPolyline
 90
        6
 70
     1
 43
0.0
 10
2.932217996240264
 20
1.546746846562514
 10
2.901901402020055
 20
1.546746846562514
 10
2.901901402020055
 20
1.423635848507619
 42
0.407328721240804
 10
2.913445053181532
 20
1.411816933831233
 10
2.974066752226263
 20
1.411816933831233
 10
2.991532092633581
 20
1.444629162874712
  0
LINE
  5
7DE1B343D9DFD99
330
7DE1B343D9DFE0E
100
AcDbEntity
  8
TEXT
100
AcDbLine
 10
3.117567715056644
 20
1.528859225271049
 30
0.0
 11
3.117567715056644
 21
1.396101850445693
 31
0.0
  0
ARC
  5
7DE1B343D9DFD9A
330
7DE1B343D9DFE0E
100
AcDbEntity
  8
TEXT
100
AcDbCircle
 10
3.200865651378817
 20
1.425541140730296
 30
0.0
 40
0.0153818062434269
100
AcDbArc
 50
174.7883570302258
 51
270.0
  0
LWPOLYLINE
  5
7DE1B343D9DFD9B
330
7DE1B343D9DFE0E
100
AcDbEntity
  8
TEXT
100
AcDbPolyline
 90
        2
 70
     0
 43
0.0
 10
3.117567715056642
 20
1.396101850445696
 42
0.3318488747599744
 10
3.186687007621955
 20
1.344550508230768
 42
-6.868794160588311
  0
LINE
  5
7DE1B343D9DFD9F
330
7DE1B343D9DFE0E
100
AcDbEntity
  8
TEXT
100
AcDbLine
 10
3.342079410310651
 20
1.344550508230768
 30
0.0
 11
3.409137457092491
 21
1.344550508230768
 31
0.0
  0
LINE
  5
7DE1B343D9DFDA0
330
7DE1B343D9DFE0E
100
AcDbEntity
  8
TEXT
100
AcDbLine
 10
3.342079410310651
 20
1.539193057396404
 30
0.0
 11
3.342079410310651
 21
1.344550508230768
 31
0.0
  0
LINE
  5
7DE1B343D9DFDA1
330
7DE1B343D9DFE0E
100
AcDbEntity
  8
TEXT
100
AcDbLine
 10
3.28469034132139
 20
1.546746846562514
 30
0.0
 11
3.334525621144537
 21
1.546746846562514
 31
0.0
  0
LINE
  5
7DE1B343D9DFDA2
330
7DE1B343D9DFE0E
100
AcDbEntity
  8
TEXT
100
AcDbLine
 10
3.28469034132139
 20
1.344550508230768
 30
0.0
 11
3.28469034132139
 21
1.546746846562514
 31
0.0
  0
LWPOLYLINE
  5
7DE1B343D9DFDA3
330
7DE1B343D9DFE0E
100
AcDbEntity
  8
TEXT
100
AcDbPolyline
 90
        2
 70
     0
 43
0.0
 10
3.334525621144535
 20
1.546746846562514
 42
-0.4142135623731017
 10
3.342079410310649
 20
1.539193057396404
 42
-0.9999999999999998
  0
LINE
  5
7DE1B343D9DFDA7
330
7DE1B343D9DFE0E
100
AcDbEntity
  8
TEXT
100
AcDbLine
 10
3.540335621922221
 20
1.546746846562514
 30
0.0
 11
3.540335621922221
 21
1.471694440488307
 31
0.0
  0
LINE
  5
7DE1B343D9DFDA8
330
7DE1B343D9DFE0E
100
AcDbEntity
  8
TEXT
100
AcDbLine
 10
3.409137457092491
 20
1.546746846562514
 30
0.0
 11
3.463271054013441
 21
1.546746846562514
 31
0.0
  0
LINE
  5
7DE1B343D9DFDA9
330
7DE1B343D9DFE0E
100
AcDbEntity
  8
TEXT
100
AcDbLine
 10
3.409137457092491
 20
1.344550508230768
 30
0.0
 11
3.409137457092491
 21
1.546746846562514
 31
0.0
  0
LWPOLYLINE
  5
7DE1B343D9DFDAA
330
7DE1B343D9DFE0E
100
AcDbEntity
  8
TEXT
100
AcDbPolyline
 90
        2
 70
     0
 43
0.0
 10
3.463271054013439
 20
1.546746846562514
 42
-0.4142135623731017
 10
3.470824843179553
 20
1.539193057396404
 42
-0.9999999999999998
  0
LWPOLYLINE
  5
7DE1B343D9DFDAE
330
7DE1B343D9DFE0E
100
AcDbEntity
  8
TEXT
100
AcDbPolyline
 90
        4
 70
     0
 43
0.0
 10
3.470824843179553
 20
1.539193057396404
 10
3.470824843179553
 20
1.344550508230768
 10
3.539303126467411
 20
1.344550508230768
 10
3.539303126467411
 20
1.388041453181206
 42
-1.714843617202739
  0
LINE
  5
7DE1B343D9DFDB4
330
7DE1B343D9DFE0E
100
AcDbEntity
  8
TEXT
100
AcDbLine
 10
2.899438958784308
 20
1.611023541219279
 30
0.0
 11
2.899438958784308
 21
1.645411458813417
 31
0.0
  0
LINE
  5
7DE1B343D9DFDB5
330
7DE1B343D9DFE0E
100
AcDbEntity
  8
TEXT
100
AcDbLine
 10
2.971237924928216
 20
1.611023541219279
 30
0.0
 11
2.899438958784308
 21
1.611023541219279
 31
0.0
  0
LINE
  5
7DE1B343D9DFDB6
330
7DE1B343D9DFE0E
100
AcDbEntity
  8
TEXT
100
AcDbLine
 10
3.118738721559395
 20
1.611023541219279
 30
0.0
 11
3.088616808766019
 21
1.611023541219279
 31
0.0
  0
LINE
  5
7DE1B343D9DFDB7
330
7DE1B343D9DFE0E
100
AcDbEntity
  8
TEXT
100
AcDbLine
 10
3.118738721559395
 20
1.67903501895809
 30
0.0
 11
3.118738721559395
 21
1.611023541219279
 31
0.0
  0
LINE
  5
7DE1B343D9DFDB8
330
7DE1B343D9DFE0E
100
AcDbEntity
  8
TEXT
100
AcDbLine
 10
3.18554743412576
 20
1.67903501895809
 30
0.0
 11
3.118738721559395
 21
1.67903501895809
 31
0.0
  0
LWPOLYLINE
  5
7DE1B343D9DFDB9
330
7DE1B343D9DFE0E
100
AcDbEntity
  8
TEXT
100
AcDbPolyline
 90
        3
 70
     0
 43
0.0
 10
3.505959193723763
 20
1.611023541219283
 10
3.387659034907718
 20
1.611023541219283
 10
3.387659034907718
 20
1.583856044458387
 42
-1.960274751411753
  0
LINE
  5
7DE1B343D9DFDBE
330
7DE1B343D9DFE0E
100
AcDbEntity
  8
TEXT
100
AcDbLine
 10
3.351877344194557
 20
1.611023541219279
 30
0.0
 11
3.21785928826342
 21
1.611023541219279
 31
0.0
  0
LWPOLYLINE
  5
7DE1B343D9DFDBF
330
7DE1B343D9DFE0E
100
AcDbEntity
  8
TEXT
100
AcDbPolyline
 90
        2
 70
     0
 43
0.0
 10
3.351877344194557
 20
1.611023541219283
 42
-0.3328679258950098
 10
3.387659034907718
 20
1.583856044458387
 42
6.772930709997214
  0
LINE
  5
7DE1B343D9DFDC3
330
7DE1B343D9DFE0E
100
AcDbEntity
  8
TEXT
100
AcDbLine
 10
3.541740884436929
 20
1.611023541219279
 30
0.0
 11
3.541740884436929
 21
1.582700995449635
 31
0.0
  0
LWPOLYLINE
  5
7DE1B343D9DFDC4
330
7DE1B343D9DFE0E
100
AcDbEntity
  8
TEXT
100
AcDbPolyline
 90
        2
 70
     0
 43
0.0
 10
3.505959193723763
 20
1.611023541219283
 42
-0.3277054968067132
 10
3.541740884436928
 20
1.582700995449639
 42
6.667889725900311
  0
LINE
  5
7DE1B343D9DFDC8
330
7DE1B343D9DFE0E
100
AcDbEntity
  8
TEXT
100
AcDbLine
 10
3.755532732529029
 20
1.505811562665852
 30
0.0
 11
3.711781961347128
 21
1.588061838661997
 31
0.0
  0
LINE
  5
7DE1B343D9DFDC9
330
7DE1B343D9DFE0E
100
AcDbEntity
  8
TEXT
100
AcDbLine
 10
3.755532732529029
 20
1.611023541219279
 30
0.0
 11
3.755532732529029
 21
1.505811562665852
 31
0.0
  0
LINE
  5
7DE1B343D9DFDCA
330
7DE1B343D9DFE0E
100
AcDbEntity
  8
TEXT
100
AcDbLine
 10
3.983216471467398
 20
1.535158214807741
 30
0.0
 11
3.983216471467398
 21
1.67648774698688
 31
0.0
  0
LINE
  5
7DE1B343D9DFDCB
330
7DE1B343D9DFE0E
100
AcDbEntity
  8
TEXT
100
AcDbLine
 10
4.030314630023383
 20
1.611023541219279
 30
0.0
 11
3.983216471467398
 21
1.535158214807741
 31
0.0
  0
LINE
  5
7DE1B343D9DFDCC
330
7DE1B343D9DFE0E
100
AcDbEntity
  8
TEXT
100
AcDbLine
 10
4.040749346787306
 20
1.501130298278305
 30
0.0
 11
4.105306462753011
 21
1.611023541219279
 31
0.0
  0
LINE
  5
7DE1B343D9DFDCD
330
7DE1B343D9DFE0E
100
AcDbEntity
  8
TEXT
100
AcDbLine
 10
3.919381480244625
 20
1.344550508230768
 30
0.0
 11
3.983759664563246
 21
1.344550508230768
 31
0.0
  0
LWPOLYLINE
  5
7DE1B343D9DFDCE
330
7DE1B343D9DFE0E
100
AcDbEntity
  8
TEXT
100
AcDbPolyline
 90
        2
 70
     0
 43
0.0
 10
3.759472409834067
 20
1.388041453181206
 42
-0.2901071551932486
 10
3.716396476966423
 20
1.344550508230768
 42
-5.328517124445184
  0
ARC
  5
7DE1B343D9DFDD2
330
7DE1B343D9DFE0E
100
AcDbEntity
  8
TEXT
100
AcDbCircle
 10
3.647541895309508
 20
1.518387471562516
 30
0.0
 40
0.028359375
100
AcDbArc
 50
25.78218179591245
 51
90.0
  0
LINE
  5
7DE1B343D9DFDD3
330
7DE1B343D9DFE0E
100
AcDbEntity
  8
TEXT
100
AcDbLine
 10
3.683342970613631
 20
1.509471873100381
 30
0.0
 11
3.673078210200067
 21
1.530722412673076
 31
0.0
  0
LINE
  5
7DE1B343D9DFDD4
330
7DE1B343D9DFE0E
100
AcDbEntity
  8
TEXT
100
AcDbLine
 10
3.601054980830248
 20
1.509471873100381
 30
0.0
 11
3.683342970613631
 21
1.509471873100381
 31
0.0
  0
LWPOLYLINE
  5
7DE1B343D9DFDD5
330
7DE1B343D9DFE0E
100
AcDbEntity
  8
TEXT
100
AcDbPolyline
 90
        4
 70
     1
 43
0.0
 10
3.69627401189653
 20
1.447514486214793
 10
3.607613693236672
 20
1.447514486214793
 42
0.9999999999999998
 10
3.607613693236672
 20
1.405115945710933
 10
3.69627401189653
 20
1.405115945710933
 42
1.0
  0
LWPOLYLINE
  5
7DE1B343D9DFDDB
330
7DE1B343D9DFE0E
100
AcDbEntity
  8
TEXT
100
AcDbPolyline
 90
        2
 70
     0
 43
0.0
 10
3.582379059335046
 20
1.344550508230768
 10
3.716396476966423
 20
1.344550508230768
 42
0.9999999999999998
  0
LINE
  5
7DE1B343D9DFDDF
330
7DE1B343D9DFE0E
100
AcDbEntity
  8
TEXT
100
AcDbLine
 10
3.842733498952062
 20
1.546746846562514
 30
0.0
 11
3.91938148024462
 21
1.546746846562514
 31
0.0
  0
LINE
  5
7DE1B343D9DFDE0
330
7DE1B343D9DFE0E
100
AcDbEntity
  8
TEXT
100
AcDbLine
 10
3.91938148024462
 20
1.546746846562514
 30
0.0
 11
3.919381480244625
 21
1.344550508230768
 31
0.0
  0
ARC
  5
7DE1B343D9DFDE1
330
7DE1B343D9DFE0E
100
AcDbEntity
  8
TEXT
100
AcDbCircle
 10
3.84273349895206
 20
1.521840971279851
 30
0.0
 40
0.0249058752826653
100
AcDbArc
 50
89.99971217465335
 51
179.9999999999985
  0
LINE
  5
7DE1B343D9DFDE2
330
7DE1B343D9DFE0E
100
AcDbEntity
  8
TEXT
100
AcDbLine
 10
3.817827623669403
 20
1.344550508230768
 30
0.0
 11
3.817827623669398
 21
1.521841013662236
 31
0.0
  0
LWPOLYLINE
  5
7DE1B343D9DFDE3
330
7DE1B343D9DFE0E
100
AcDbEntity
  8
TEXT
100
AcDbPolyline
 90
        2
 70
     0
 43
0.0
 10
3.759472409834067
 20
1.344550508230768
 10
3.817827623669401
 20
1.344550508230768
  0
LWPOLYLINE
  5
7DE1B343D9DFDE7
330
7DE1B343D9DFE0E
100
AcDbEntity
  8
TEXT
100
AcDbPolyline
 90
        2
 70
     0
 43
0.0
 10
3.759472409834067
 20
1.388041453181206
 10
3.759472409834067
 20
1.344550508230768
  0
LINE
  5
7DE1B343D9DFDEB
330
7DE1B343D9DFE0E
100
AcDbEntity
  8
TEXT
100
AcDbLine
 10
4.136241570150916
 20
1.344550508230768
 30
0.0
 11
4.040749346787306
 21
1.501130298278305
 31
0.0
  0
LINE
  5
7DE1B343D9DFDEC
330
7DE1B343D9DFE0E
100
AcDbEntity
  8
TEXT
100
AcDbLine
 10
4.05966319777471
 20
1.344550508230768
 30
0.0
 11
4.136241570150916
 21
1.344550508230768
 31
0.0
  0
LINE
  5
7DE1B343D9DFDED
330
7DE1B343D9DFE0E
100
AcDbEntity
  8
TEXT
100
AcDbLine
 10
3.983759664563246
 20
1.476130076706948
 30
0.0
 11
4.05966319777471
 21
1.344550508230768
 31
0.0
  0
LINE
  5
7DE1B343D9DFDEE
330
7DE1B343D9DFE0E
100
AcDbEntity
  8
TEXT
100
AcDbLine
 10
3.983759664563246
 20
1.344550508230768
 30
0.0
 11
3.983759664563246
 21
1.476130076706948
 31
0.0
  0
LINE
  5
7DE1B343D9DFDEF
330
7DE1B343D9DFE0E
100
AcDbEntity
  8
TEXT
100
AcDbLine
 10
3.983216471467398
 20
1.67648774698688
 30
0.0
 11
3.914901592918125
 21
1.67648774698688
 31
0.0
  0
ARC
  5
7DE1B343D9DFDF0
330
7DE1B343D9DFE0E
100
AcDbEntity
  8
TEXT
100
AcDbCircle
 10
3.674545853876919
 20
1.569439974098377
 30
0.0
 40
0.0416329381542859
100
AcDbArc
 50
26.56974201007528
 51
87.20939649401342
  0
LINE
  5
7DE1B343D9DFDF1
330
7DE1B343D9DFE0E
100
AcDbEntity
  8
TEXT
100
AcDbLine
 10
3.81942963882853
 20
1.611023541219279
 30
0.0
 11
3.755532732529029
 21
1.611023541219279
 31
0.0
  0
LINE
  5
7DE1B343D9DFDF2
330
7DE1B343D9DFE0E
100
AcDbEntity
  8
TEXT
100
AcDbLine
 10
3.81942963882853
 20
1.583475891358404
 30
0.0
 11
3.81942963882853
 21
1.611023541219279
 31
0.0
  0
ARC
  5
7DE1B343D9DFDF3
330
7DE1B343D9DFE0E
100
AcDbEntity
  8
TEXT
100
AcDbCircle
 10
3.850622455891638
 20
1.579777813937014
 30
0.0
 40
0.0314112657011332
100
AcDbArc
 50
95.88484768694724
 51
173.2388340632136
  0
LINE
  5
7DE1B343D9DFDF4
330
7DE1B343D9DFE0E
100
AcDbEntity
  8
TEXT
100
AcDbLine
 10
3.91490159291812
 20
1.611023541219279
 30
0.0
 11
3.847401875268603
 21
1.611023541219279
 31
0.0
  0
LINE
  5
7DE1B343D9DFDF5
330
7DE1B343D9DFE0E
100
AcDbEntity
  8
TEXT
100
AcDbLine
 10
3.914901592918125
 20
1.67648774698688
 30
0.0
 11
3.91490159291812
 21
1.611023541219279
 31
0.0
  0
LINE
  5
7DE1B343D9DFDF6
330
7DE1B343D9DFE0E
100
AcDbEntity
  8
TEXT
100
AcDbLine
 10
4.105306462753011
 20
1.611023541219279
 30
0.0
 11
4.030314630023385
 21
1.611023541219279
 31
0.0
  0
ENDSEC
  0
SECTION
  2
OBJECTS
  0
DICTIONARY
  5
7DE1B343D9DFE02
330
0
100
AcDbDictionary
  3
ACAD_GROUP
350
7DE1B343D9DFE03
  3
ACAD_LAYOUT
350
7DE1B343D9DFE28
  3
ACAD_MLINESTYLE
350
7DE1B343D9DFE04
  3
ACAD_PLOTSETTINGS
350
7DE1B343D9DFE29
  3
ACAD_PLOTSTYLENAME
350
7DE1B343D9DFE26
  3
ACDBHEADERROUNDTRIPXREC
350
7DE1B343D9DFE33
  3
ACDBVARIABLEDICTIONARY
350
7DE1B343D9DFE30
  0
DICTIONARY
  5
7DE1B343D9DFE55
330
7DE1B343D9DFE0E
100
AcDbDictionary
280
     1
  3
ACAD_LAYOUTSELFREF
360
7DE1B343D9DFE56
  0
DICTIONARY
  5
7DE1B343D9DFE53
330
7DE1B343D9DFE0B
100
AcDbDictionary
280
     1
  3
ACAD_LAYOUTSELFREF
360
7DE1B343D9DFE54
  0
DICTIONARY
  5
7DE1B343D9DFE03
102
{ACAD_REACTORS
330
7DE1B343D9DFE02
102
}
330
7DE1B343D9DFE02
100
AcDbDictionary
  0
DICTIONARY
  5
7DE1B343D9DFE28
102
{ACAD_REACTORS
330
7DE1B343D9DFE02
102
}
330
7DE1B343D9DFE02
100
AcDbDictionary
  0
DICTIONARY
  5
7DE1B343D9DFE04
102
{ACAD_REACTORS
330
7DE1B343D9DFE02
102
}
330
7DE1B343D9DFE02
100
AcDbDictionary
  3
STANDARD
350
7DE1B343D9DFE11
  0
DICTIONARY
  5
7DE1B343D9DFE29
102
{ACAD_REACTORS
330
7DE1B343D9DFE02
102
}
330
7DE1B343D9DFE02
100
AcDbDictionary
  0
ACDBDICTIONARYWDFLT
  5
7DE1B343D9DFE26
102
{ACAD_REACTORS
330
7DE1B343D9DFE02
102
}
330
7DE1B343D9DFE02
100
AcDbDictionary
281
     1
  3
Normal
350
7DE1B343D9DFE27
100
AcDbDictionaryWithDefault
340
7DE1B343D9DFE27
  0
DICTIONARY
  5
7DE1B343D9DFE33
102
{ACAD_REACTORS
330
7DE1B343D9DFE02
102
}
330
7DE1B343D9DFE02
100
AcDbDictionary
  3
CEPSNTYPE
350
7DE1B343D9DFE3D
  3
FINGERPRINTGUID
350
7DE1B343D9DFE3E
  3
HYPERLINKBASE
350
7DE1B343D9DFE36
  3
INSUNITS
350
7DE1B343D9DFE3C
  3
LAYOUTDICT
350
7DE1B343D9DFE38
  3
LWETCUNION
350
7DE1B343D9DFE3B
  3
PLOTSETDICT
350
7DE1B343D9DFE39
  3
PLOTSTYLNAMDICT
350
7DE1B343D9DFE3A
  3
PSVPSCALE
350
7DE1B343D9DFE40
  3
PUCSBASE
350
7DE1B343D9DFE43
  3
PUCSORGBACK
350
7DE1B343D9DFE49
  3
PUCSORGBOTTOM
350
7DE1B343D9DFE45
  3
PUCSORGFRONT
350
7DE1B343D9DFE48
  3
PUCSORGLEFT
350
7DE1B343D9DFE46
  3
PUCSORGRIGHT
350
7DE1B343D9DFE47
  3
PUCSORGTOP
350
7DE1B343D9DFE44
  3
PUCSORTHOREF
350
7DE1B343D9DFE41
  3
PUCSORTHOVIEW
350
7DE1B343D9DFE42
  3
STYLESHEET
350
7DE1B343D9DFE37
  3
TSTACKALIGN
350
7DE1B343D9DFE34
  3
TSTACKSIZE
350
7DE1B343D9DFE35
  3
UCSBASE
350
7DE1B343D9DFE4C
  3
UCSORGBACK
350
7DE1B343D9DFE52
  3
UCSORGBOTTOM
350
7DE1B343D9DFE4E
  3
UCSORGFRONT
350
7DE1B343D9DFE51
  3
UCSORGLEFT
350
7DE1B343D9DFE4F
  3
UCSORGRIGHT
350
7DE1B343D9DFE50
  3
UCSORGTOP
350
7DE1B343D9DFE4D
  3
UCSORTHOREF
350
7DE1B343D9DFE4A
  3
UCSORTHOVIEW
350
7DE1B343D9DFE4B
  3
VERSIONGUID
350
7DE1B343D9DFE3F
  0
DICTIONARY
  5
7DE1B343D9DFE30
102
{ACAD_REACTORS
330
7DE1B343D9DFE02
102
}
330
7DE1B343D9DFE02
100
AcDbDictionary
  3
DIMASSOC
350
7DE1B343D9DFE31
  0
XRECORD
  5
7DE1B343D9DFE56
102
{ACAD_REACTORS
330
7DE1B343D9DFE55
102
}
330
7DE1B343D9DFE55
100
AcDbXrecord
340
7DE1B343D9DFE0E
  0
XRECORD
  5
7DE1B343D9DFE54
102
{ACAD_REACTORS
330
7DE1B343D9DFE53
102
}
330
7DE1B343D9DFE53
100
AcDbXrecord
340
7DE1B343D9DFE0B
  0
MLINESTYLE
  5
7DE1B343D9DFE11
102
{ACAD_REACTORS
330
7DE1B343D9DFE04
102
}
330
7DE1B343D9DFE04
100
AcDbMlineStyle
  2
STANDARD
 70
     0
  3

 62
     0
 51
90.0
 52
90.0
 71
     2
 49
0.5
 62
   256
  6
BYLAYER
 49
-0.5
 62
   256
  6
BYLAYER
  0
ACDBPLACEHOLDER
  5
7DE1B343D9DFE27
102
{ACAD_REACTORS
330
7DE1B343D9DFE26
102
}
330
7DE1B343D9DFE26
100
AcDbPlaceHolder
280
     0
  0
XRECORD
  5
7DE1B343D9DFE3D
102
{ACAD_REACTORS
330
7DE1B343D9DFE33
102
}
330
7DE1B343D9DFE33
100
AcDbXrecord
 90
        0
  0
XRECORD
  5
7DE1B343D9DFE3E
102
{ACAD_REACTORS
330
7DE1B343D9DFE33
102
}
330
7DE1B343D9DFE33
100
AcDbXrecord
  1
{B4EE4E60-8DB5-11D6-88E6-0090279574E7}
  0
XRECORD
  5
7DE1B343D9DFE36
102
{ACAD_REACTORS
330
7DE1B343D9DFE33
102
}
330
7DE1B343D9DFE33
100
AcDbXrecord
  1

  0
XRECORD
  5
7DE1B343D9DFE3C
102
{ACAD_REACTORS
330
7DE1B343D9DFE33
102
}
330
7DE1B343D9DFE33
100
AcDbXrecord
 90
        0
  0
XRECORD
  5
7DE1B343D9DFE38
102
{ACAD_REACTORS
330
7DE1B343D9DFE33
102
}
330
7DE1B343D9DFE33
100
AcDbXrecord
340
7DE1B343D9DFE28
  0
XRECORD
  5
7DE1B343D9DFE3B
102
{ACAD_REACTORS
330
7DE1B343D9DFE33
102
}
330
7DE1B343D9DFE33
100
AcDbXrecord
 90
    14877
  0
XRECORD
  5
7DE1B343D9DFE39
102
{ACAD_REACTORS
330
7DE1B343D9DFE33
102
}
330
7DE1B343D9DFE33
100
AcDbXrecord
340
7DE1B343D9DFE29
  0
XRECORD
  5
7DE1B343D9DFE3A
102
{ACAD_REACTORS
330
7DE1B343D9DFE33
102
}
330
7DE1B343D9DFE33
100
AcDbXrecord
340
7DE1B343D9DFE26
  0
XRECORD
  5
7DE1B343D9DFE40
102
{ACAD_REACTORS
330
7DE1B343D9DFE33
102
}
330
7DE1B343D9DFE33
100
AcDbXrecord
 40
0.0
  0
XRECORD
  5
7DE1B343D9DFE43
102
{ACAD_REACTORS
330
7DE1B343D9DFE33
102
}
330
7DE1B343D9DFE33
100
AcDbXrecord
340
0
  0
XRECORD
  5
7DE1B343D9DFE49
102
{ACAD_REACTORS
330
7DE1B343D9DFE33
102
}
330
7DE1B343D9DFE33
100
AcDbXrecord
 10
0.0
 20
0.0
 30
0.0
  0
XRECORD
  5
7DE1B343D9DFE45
102
{ACAD_REACTORS
330
7DE1B343D9DFE33
102
}
330
7DE1B343D9DFE33
100
AcDbXrecord
 10
0.0
 20
0.0
 30
0.0
  0
XRECORD
  5
7DE1B343D9DFE48
102
{ACAD_REACTORS
330
7DE1B343D9DFE33
102
}
330
7DE1B343D9DFE33
100
AcDbXrecord
 10
0.0
 20
0.0
 30
0.0
  0
XRECORD
  5
7DE1B343D9DFE46
102
{ACAD_REACTORS
330
7DE1B343D9DFE33
102
}
330
7DE1B343D9DFE33
100
AcDbXrecord
 10
0.0
 20
0.0
 30
0.0
  0
XRECORD
  5
7DE1B343D9DFE47
102
{ACAD_REACTORS
330
7DE1B343D9DFE33
102
}
330
7DE1B343D9DFE33
100
AcDbXrecord
 10
0.0
 20
0.0
 30
0.0
  0
XRECORD
  5
7DE1B343D9DFE44
102
{ACAD_REACTORS
330
7DE1B343D9DFE33
102
}
330
7DE1B343D9DFE33
100
AcDbXrecord
 10
0.0
 20
0.0
 30
0.0
  0
XRECORD
  5
7DE1B343D9DFE41
102
{ACAD_REACTORS
330
7DE1B343D9DFE33
102
}
330
7DE1B343D9DFE33
100
AcDbXrecord
340
0
  0
XRECORD
  5
7DE1B343D9DFE42
102
{ACAD_REACTORS
330
7DE1B343D9DFE33
102
}
330
7DE1B343D9DFE33
100
AcDbXrecord
 70
     0
  0
XRECORD
  5
7DE1B343D9DFE37
102
{ACAD_REACTORS
330
7DE1B343D9DFE33
102
}
330
7DE1B343D9DFE33
100
AcDbXrecord
  1

  0
XRECORD
  5
7DE1B343D9DFE34
102
{ACAD_REACTORS
330
7DE1B343D9DFE33
102
}
330
7DE1B343D9DFE33
100
AcDbXrecord
 90
        1
  0
XRECORD
  5
7DE1B343D9DFE35
102
{ACAD_REACTORS
330
7DE1B343D9DFE33
102
}
330
7DE1B343D9DFE33
100
AcDbXrecord
 90
       70
  0
XRECORD
  5
7DE1B343D9DFE4C
102
{ACAD_REACTORS
330
7DE1B343D9DFE33
102
}
330
7DE1B343D9DFE33
100
AcDbXrecord
340
0
  0
XRECORD
  5
7DE1B343D9DFE52
102
{ACAD_REACTORS
330
7DE1B343D9DFE33
102
}
330
7DE1B343D9DFE33
100
AcDbXrecord
 10
0.0
 20
0.0
 30
0.0
  0
XRECORD
  5
7DE1B343D9DFE4E
102
{ACAD_REACTORS
330
7DE1B343D9DFE33
102
}
330
7DE1B343D9DFE33
100
AcDbXrecord
 10
0.0
 20
0.0
 30
0.0
  0
XRECORD
  5
7DE1B343D9DFE51
102
{ACAD_REACTORS
330
7DE1B343D9DFE33
102
}
330
7DE1B343D9DFE33
100
AcDbXrecord
 10
0.0
 20
0.0
 30
0.0
  0
XRECORD
  5
7DE1B343D9DFE4F
102
{ACAD_REACTORS
330
7DE1B343D9DFE33
102
}
330
7DE1B343D9DFE33
100
AcDbXrecord
 10
0.0
 20
0.0
 30
0.0
  0
XRECORD
  5
7DE1B343D9DFE50
102
{ACAD_REACTORS
330
7DE1B343D9DFE33
102
}
330
7DE1B343D9DFE33
100
AcDbXrecord
 10
0.0
 20
0.0
 30
0.0
  0
XRECORD
  5
7DE1B343D9DFE4D
102
{ACAD_REACTORS
330
7DE1B343D9DFE33
102
}
330
7DE1B343D9DFE33
100
AcDbXrecord
 10
0.0
 20
0.0
 30
0.0
  0
XRECORD
  5
7DE1B343D9DFE4A
102
{ACAD_REACTORS
330
7DE1B343D9DFE33
102
}
330
7DE1B343D9DFE33
100
AcDbXrecord
340
0
  0
XRECORD
  5
7DE1B343D9DFE4B
102
{ACAD_REACTORS
330
7DE1B343D9DFE33
102
}
330
7DE1B343D9DFE33
100
AcDbXrecord
 70
     0
  0
XRECORD
  5
7DE1B343D9DFE3F
102
{ACAD_REACTORS
330
7DE1B343D9DFE33
102
}
330
7DE1B343D9DFE33
100
AcDbXrecord
  1
{B4EE4E62-8DB5-11D6-88E6-0090279574E7}
  0
DICTIONARYVAR
  5
7DE1B343D9DFE31
102
{ACAD_REACTORS
330
7DE1B343D9DFE30
102
}
330
7DE1B343D9DFE30
100
DictionaryVariables
280
     0
  1
1
  0
ENDSEC
  0
EOF
