  0
SECTION
  2
HEADER
  9
$ACADVER
  1
AC1014
  9
$ACADMAINTVER
 70
     9
  9
$DWGCODEPAGE
  3
ANSI_1252
  9
$INSBASE
 10
0.0
 20
0.0
 30
0.0
  9
$EXTMIN
 10
29.4464652159646
 20
5.06940237147022
 30
0.0
  9
$EXTMAX
 10
32.96201074400193
 20
6.135917499392782
 30
0.0
  9
$LIMMIN
 10
0.0
 20
0.0
  9
$LIMMAX
 10
8.5
 20
11.0
  9
$ORTHOMODE
 70
     1
  9
$REGENMODE
 70
     1
  9
$FILLMODE
 70
     1
  9
$QTEXTMODE
 70
     0
  9
$MIRRTEXT
 70
     0
  9
$DRAGMODE
 70
     2
  9
$LTSCALE
 40
1.0
  9
$OSMODE
 70
    39
  9
$ATTMODE
 70
     1
  9
$TEXTSIZE
 40
0.125
  9
$TRACEWID
 40
0.05
  9
$TEXTSTYLE
  7
ROMANS
  9
$CLAYER
  8
DIM
  9
$CELTYPE
  6
BYLAYER
  9
$CECOLOR
 62
   256
  9
$CELTSCALE
 40
1.0
  9
$DELOBJ
 70
     1
  9
$DISPSILH
 70
     1
  9
$DIMSCALE
 40
1.0
  9
$DIMASZ
 40
0.125
  9
$DIMEXO
 40
0.125
  9
$DIMDLI
 40
0.375
  9
$DIMRND
 40
0.0
  9
$DIMDLE
 40
0.0
  9
$DIMEXE
 40
0.125
  9
$DIMTP
 40
0.017
  9
$DIMTM
 40
0.0
  9
$DIMTXT
 40
0.125
  9
$DIMCEN
 40
-0.125
  9
$DIMTSZ
 40
0.0
  9
$DIMTOL
 70
     0
  9
$DIMLIM
 70
     0
  9
$DIMTIH
 70
     1
  9
$DIMTOH
 70
     1
  9
$DIMSE1
 70
     0
  9
$DIMSE2
 70
     0
  9
$DIMTAD
 70
     0
  9
$DIMZIN
 70
     4
  9
$DIMBLK
  1

  9
$DIMASO
 70
     1
  9
$DIMSHO
 70
     1
  9
$DIMPOST
  1

  9
$DIMAPOST
  1

  9
$DIMALT
 70
     0
  9
$DIMALTD
 70
     2
  9
$DIMALTF
 40
25.4
  9
$DIMLFAC
 40
1.0
  9
$DIMTOFL
 70
     0
  9
$DIMTVP
 40
0.0
  9
$DIMTIX
 70
     0
  9
$DIMSOXD
 70
     0
  9
$DIMSAH
 70
     0
  9
$DIMBLK1
  1

  9
$DIMBLK2
  1

  9
$DIMSTYLE
  2
STANDARD
  9
$DIMCLRD
 70
     0
  9
$DIMCLRE
 70
     0
  9
$DIMCLRT
 70
     0
  9
$DIMTFAC
 40
1.0
  9
$DIMGAP
 40
0.09
  9
$DIMJUST
 70
     0
  9
$DIMSD1
 70
     0
  9
$DIMSD2
 70
     0
  9
$DIMTOLJ
 70
     1
  9
$DIMTZIN
 70
     4
  9
$DIMALTZ
 70
     0
  9
$DIMALTTZ
 70
     0
  9
$DIMFIT
 70
     3
  9
$DIMUPT
 70
     0
  9
$DIMUNIT
 70
     2
  9
$DIMDEC
 70
     3
  9
$DIMTDEC
 70
     3
  9
$DIMALTU
 70
     2
  9
$DIMALTTD
 70
     2
  9
$DIMTXSTY
  7
ROMANS
  9
$DIMAUNIT
 70
     0
  9
$LUNITS
 70
     2
  9
$LUPREC
 70
     3
  9
$SKETCHINC
 40
0.1
  9
$FILLETRAD
 40
0.0
  9
$AUNITS
 70
     0
  9
$AUPREC
 70
     0
  9
$MENU
  1
acad
  9
$ELEVATION
 40
0.0
  9
$PELEVATION
 40
0.0
  9
$THICKNESS
 40
0.0
  9
$LIMCHECK
 70
     0
  9
$BLIPMODE
 70
     0
  9
$CHAMFERA
 40
0.0
  9
$CHAMFERB
 40
0.0
  9
$CHAMFERC
 40
0.0
  9
$CHAMFERD
 40
0.0
  9
$SKPOLY
 70
     0
  9
$TDCREATE
 40
2448488.527983912
  9
$TDUPDATE
 40
2452458.303819479
  9
$TDINDWG
 40
0.5038844213
  9
$TDUSRTIMER
 40
0.5038844213
  9
$USRTIMER
 70
     1
  9
$ANGBASE
 50
0.0
  9
$ANGDIR
 70
     0
  9
$PDMODE
 70
     0
  9
$PDSIZE
 40
0.0
  9
$PLINEWID
 40
0.0
  9
$COORDS
 70
     2
  9
$SPLFRAME
 70
     0
  9
$SPLINETYPE
 70
     6
  9
$SPLINESEGS
 70
     8
  9
$ATTDIA
 70
     0
  9
$ATTREQ
 70
     1
  9
$HANDLING
 70
 22529
  9
$HANDSEED
  5
E23
  9
$SURFTAB1
 70
     6
  9
$SURFTAB2
 70
     6
  9
$SURFTYPE
 70
     6
  9
$SURFU
 70
     6
  9
$SURFV
 70
     6
  9
$UCSNAME
  2

  9
$UCSORG
 10
0.0
 20
0.0
 30
0.0
  9
$UCSXDIR
 10
1.0
 20
0.0
 30
0.0
  9
$UCSYDIR
 10
0.0
 20
1.0
 30
0.0
  9
$PUCSNAME
  2

  9
$PUCSORG
 10
0.0
 20
0.0
 30
0.0
  9
$PUCSXDIR
 10
1.0
 20
0.0
 30
0.0
  9
$PUCSYDIR
 10
0.0
 20
1.0
 30
0.0
  9
$USERI1
 70
     0
  9
$USERI2
 70
     0
  9
$USERI3
 70
     0
  9
$USERI4
 70
     0
  9
$USERI5
 70
     0
  9
$USERR1
 40
0.0
  9
$USERR2
 40
0.0
  9
$USERR3
 40
0.0
  9
$USERR4
 40
0.0
  9
$USERR5
 40
0.0
  9
$WORLDVIEW
 70
     1
  9
$SHADEDGE
 70
     3
  9
$SHADEDIF
 70
    70
  9
$TILEMODE
 70
     1
  9
$MAXACTVP
 70
    16
  9
$PINSBASE
 10
0.0
 20
0.0
 30
0.0
  9
$PLIMCHECK
 70
     0
  9
$PEXTMIN
 10
1.000000000000000E+20
 20
1.000000000000000E+20
 30
1.000000000000000E+20
  9
$PEXTMAX
 10
-1.000000000000000E+20
 20
-1.000000000000000E+20
 30
-1.000000000000000E+20
  9
$PLIMMIN
 10
0.0
 20
0.0
  9
$PLIMMAX
 10
12.0
 20
9.0
  9
$UNITMODE
 70
     0
  9
$VISRETAIN
 70
     0
  9
$PLINEGEN
 70
     1
  9
$PSLTSCALE
 70
     0
  9
$TREEDEPTH
 70
  3020
  9
$PICKSTYLE
 70
     1
  9
$CMLSTYLE
  2
STANDARD
  9
$CMLJUST
 70
     0
  9
$CMLSCALE
 40
1.0
  9
$PROXYGRAPHICS
 70
     1
  9
$MEASUREMENT
 70
     0
  0
ENDSEC
  0
SECTION
  2
CLASSES
  0
CLASS
  1
LWPOLYLINE
  2
AcDbPolyline
  3
AutoCAD 2000
 90
        0
280
     0
281
     1
  0
CLASS
  1
ACDBDICTIONARYWDFLT
  2
AcDbDictionaryWithDefault
  3
AutoCAD 2000
 90
        0
280
     0
281
     0
  0
CLASS
  1
ACDBPLACEHOLDER
  2
AcDbPlaceHolder
  3
AutoCAD 2000
 90
        0
280
     0
281
     0
  0
CLASS
  1
LAYOUT
  2
AcDbLayout
  3
AutoCAD 2000
 90
        0
280
     0
281
     0
  0
CLASS
  1
DICTIONARYVAR
  2
AcDbDictionaryVar
  3
AutoCAD 2000
 90
        0
280
     0
281
     0
  0
CLASS
  1
LONG_TRANSACTION
  2
AcDbLongTransaction
  3
AutoCAD 2000
 90
        0
280
     0
281
     0
  0
CLASS
  1
LWPOLYLINE
  2
AcDbPolyline
  3
AutoCAD 2000
 90
        0
280
     0
281
     1
  0
CLASS
  1
HATCH
  2
AcDbHatch
  3
AutoCAD 2000
 90
        0
280
     0
281
     1
  0
CLASS
  1
XRECORD
  2
AcDbXrecord
  3
AutoCAD 2000
 90
        0
280
     0
281
     0
  0
ENDSEC
  0
SECTION
  2
TABLES
  0
TABLE
  2
VPORT
  5
8
330
0
100
AcDbSymbolTable
 70
     2
  0
VPORT
  5
DFE
330
8
100
AcDbSymbolTableRecord
100
AcDbViewportTableRecord
  2
*ACTIVE
 70
     0
 10
0.0
 20
0.0
 11
1.0
 21
1.0
 12
34.1538896243073
 22
5.602386500339942
 13
0.0
 23
0.0
 14
0.015625
 24
0.015625
 15
0.0
 25
0.0
 16
0.0
 26
0.0
 36
1.0
 17
0.0
 27
0.0
 37
0.0
 40
2.184323581350339
 41
4.320930232558139
 42
50.0
 43
0.0
 44
0.0
 50
0.0
 51
0.0
 71
     0
 72
  2000
 73
     1
 74
     1
 75
     0
 76
     0
 77
     0
 78
     0
  0
ENDTAB
  0
TABLE
  2
LTYPE
  5
5
330
0
100
AcDbSymbolTable
 70
     1
  0
LTYPE
  5
12
330
5
100
AcDbSymbolTableRecord
100
AcDbLinetypeTableRecord
  2
BYBLOCK
 70
     0
  3

 72
    65
 73
     0
 40
0.0
  0
LTYPE
  5
13
330
5
100
AcDbSymbolTableRecord
100
AcDbLinetypeTableRecord
  2
BYLAYER
 70
     0
  3

 72
    65
 73
     0
 40
0.0
  0
LTYPE
  5
14
330
5
100
AcDbSymbolTableRecord
100
AcDbLinetypeTableRecord
  2
CONTINUOUS
 70
     0
  3
Solid line
 72
    65
 73
     0
 40
0.0
  0
ENDTAB
  0
TABLE
  2
LAYER
  5
2
330
0
100
AcDbSymbolTable
 70
     3
  0
LAYER
  5
F
330
2
100
AcDbSymbolTableRecord
100
AcDbLayerTableRecord
  2
0
 70
     0
 62
     7
  6
CONTINUOUS
  0
LAYER
  5
28
330
2
100
AcDbSymbolTableRecord
100
AcDbLayerTableRecord
  2
DIM
 70
     0
 62
     4
  6
CONTINUOUS
  0
LAYER
  5
29
330
2
100
AcDbSymbolTableRecord
100
AcDbLayerTableRecord
  2
TEXT
 70
     0
 62
     3
  6
CONTINUOUS
  0
ENDTAB
  0
TABLE
  2
STYLE
  5
3
330
0
100
AcDbSymbolTable
 70
     3
  0
STYLE
  5
10
330
3
100
AcDbSymbolTableRecord
100
AcDbTextStyleTableRecord
  2
STANDARD
 70
     0
 40
0.0
 41
1.0
 50
0.0
 71
     0
 42
0.125
  3
txt
  4

  0
STYLE
  5
27A
330
3
100
AcDbSymbolTableRecord
100
AcDbTextStyleTableRecord
  2
ROMANS
 70
     0
 40
0.0
 41
1.0
 50
0.0
 71
     0
 42
0.125
  3
romans.shx
  4

  0
STYLE
  5
CEB
330
3
100
AcDbSymbolTableRecord
100
AcDbTextStyleTableRecord
  2
ITALICC
 70
     0
 40
0.0
 41
1.0
 50
0.0
 71
     0
 42
0.125
  3
italicc
  4

  0
ENDTAB
  0
TABLE
  2
VIEW
  5
6
330
0
100
AcDbSymbolTable
 70
     0
  0
ENDTAB
  0
TABLE
  2
UCS
  5
7
330
0
100
AcDbSymbolTable
 70
     0
  0
ENDTAB
  0
TABLE
  2
APPID
  5
9
330
0
100
AcDbSymbolTable
 70
     1
  0
APPID
  5
11
330
9
100
AcDbSymbolTableRecord
100
AcDbRegAppTableRecord
  2
ACAD
 70
     0
  0
ENDTAB
  0
TABLE
  2
DIMSTYLE
  5
A
330
0
100
AcDbSymbolTable
 70
     1
  0
DIMSTYLE
105
26F
330
A
100
AcDbSymbolTableRecord
100
AcDbDimStyleTableRecord
  2
STANDARD
 70
     0
  3

  4

  5

  6

  7

 40
1.0
 41
0.125
 42
0.125
 43
0.375
 44
0.125
 45
0.0
 46
0.0
 47
0.017
 48
0.0
140
0.125
141
-0.125
142
0.0
143
25.4
144
1.0
145
0.0
146
1.0
147
0.09
 71
     0
 72
     0
 73
     1
 74
     1
 75
     0
 76
     0
 77
     0
 78
     4
170
     0
171
     2
172
     0
173
     0
174
     0
175
     0
176
     0
177
     0
178
     0
270
     2
271
     3
272
     3
273
     2
274
     2
340
27A
275
     0
280
     0
281
     0
282
     0
283
     1
284
     4
285
     0
286
     0
287
     3
288
     0
  0
ENDTAB
  0
TABLE
  2
BLOCK_RECORD
  5
1
330
0
100
AcDbSymbolTable
 70
     0
  0
BLOCK_RECORD
  5
18
102
{ACAD_XDICTIONARY
360
E21
102
}
330
1
100
AcDbSymbolTableRecord
100
AcDbBlockTableRecord
  2
*MODEL_SPACE
  0
BLOCK_RECORD
  5
15
102
{ACAD_XDICTIONARY
360
E1F
102
}
330
1
100
AcDbSymbolTableRecord
100
AcDbBlockTableRecord
  2
*PAPER_SPACE
  0
ENDTAB
  0
ENDSEC
  0
SECTION
  2
BLOCKS
  0
BLOCK
  5
32
330
18
100
AcDbEntity
  8
0
100
AcDbBlockBegin
  2
*MODEL_SPACE
 70
     0
 10
0.0
 20
0.0
 30
0.0
  3
*MODEL_SPACE
  1

  0
ENDBLK
  5
33
330
18
100
AcDbEntity
  8
0
100
AcDbBlockEnd
  0
BLOCK
  5
30
330
15
100
AcDbEntity
 67
     1
  8
0
100
AcDbBlockBegin
  2
*PAPER_SPACE
 70
     0
 10
0.0
 20
0.0
 30
0.0
  3
*PAPER_SPACE
  1

  0
ENDBLK
  5
31
330
15
100
AcDbEntity
 67
     1
  8
0
100
AcDbBlockEnd
  0
ENDSEC
  0
SECTION
  2
ENTITIES
  0
LWPOLYLINE
  5
CBA
330
18
100
AcDbEntity
  8
0
100
AcDbPolyline
 90
       30
 70
     1
 43
0.0
 10
31.61826074400192
 20
5.979667499392782
 10
31.64951074400192
 20
5.948417499392782
 10
32.45201074400193
 20
5.948417499392782
 10
32.46201074400193
 20
5.938417499392782
 10
32.47201074400193
 20
5.948417499392782
 10
32.55576074400193
 20
5.948417499392782
 10
32.58701074400192
 20
5.979667499392782
 10
32.82012780531928
 20
5.979667499392782
 10
32.77826074400192
 20
6.135917499392782
 10
32.84897871169917
 20
6.135917499392782
 10
32.91826074400193
 20
6.015917499392783
 10
32.86826074400193
 20
6.015917499392782
 10
32.88969667939642
 20
5.935917499392782
 10
32.93701074400193
 20
5.935917499392782
 42
-1.0
 10
32.93701074400193
 20
5.885917499392782
 10
29.79951074400192
 20
5.885917499392782
 42
-1.0
 10
29.79951074400192
 20
5.935917499392782
 10
29.84682480860744
 20
5.935917499392782
 10
29.86826074400193
 20
6.015917499392782
 10
29.81826074400193
 20
6.015917499392783
 10
29.88754277630468
 20
6.135917499392782
 10
29.95826074400193
 20
6.135917499392782
 10
29.91639368268456
 20
5.979667499392782
 10
30.14951074400193
 20
5.979667499392782
 10
30.18076074400193
 20
5.948417499392782
 10
30.26451074400192
 20
5.948417499392782
 10
30.27451074400193
 20
5.938417499392782
 10
30.28451074400193
 20
5.948417499392782
 10
31.08701074400193
 20
5.948417499392782
 10
31.11826074400193
 20
5.979667499392782
  0
TEXT
  5
D70
330
18
100
AcDbEntity
  8
TEXT
100
AcDbText
 10
30.44837536662032
 20
5.527420975552804
 30
0.0
 40
0.125
  1
PART #110261
  7
ITALICC
 72
     1
 11
31.18944679519175
 21
5.527420975552804
 31
0.0
100
AcDbText
  0
LINE
  5
D71
330
18
100
AcDbEntity
  8
TEXT
100
AcDbLine
 10
31.15718029414381
 20
5.28306728953297
 30
0.0
 11
31.23382827543637
 21
5.28306728953297
 31
0.0
  0
LINE
  5
D72
330
18
100
AcDbEntity
  8
TEXT
100
AcDbLine
 10
31.22934838810987
 20
5.347343984189735
 30
0.0
 11
31.16184867046035
 21
5.347343984189735
 31
0.0
  0
LWPOLYLINE
  5
D73
330
18
100
AcDbEntity
  8
TEXT
100
AcDbPolyline
 90
        5
 70
     0
 43
0.0001332181640625
 10
29.52006825160914
 20
5.224117182431922
 10
29.53339006801538
 20
5.224117182431922
 10
29.53339006801538
 20
5.260752177549112
 10
29.57002506313257
 20
5.260752177549112
 10
29.57002506313257
 20
5.274073993955359
  0
LWPOLYLINE
  5
D74
330
18
100
AcDbEntity
  8
TEXT
100
AcDbPolyline
 90
        3
 70
     0
 43
0.0006660908203125
 10
29.56003370082788
 20
5.320700351377237
 10
29.47344189418726
 20
5.320700351377237
 10
29.47344189418726
 20
5.234108544736611
  0
LWPOLYLINE
  5
D75
330
18
100
AcDbEntity
  8
TEXT
100
AcDbPolyline
 90
        3
 70
     0
 43
0.0006660908203125
 10
29.56003370082788
 20
5.347343984189738
 10
29.44679826137476
 20
5.347343984189738
 10
29.44679826137476
 20
5.234108544736611
  0
LWPOLYLINE
  5
D76
330
18
100
AcDbEntity
  8
TEXT
100
AcDbPolyline
 90
        5
 70
     0
 43
0.0001332181640625
 10
29.57002506313257
 20
5.154177646299111
 10
29.57002506313257
 20
5.167499462705362
 10
29.53339006801538
 20
5.167499462705362
 10
29.53339006801538
 20
5.204134457822548
 10
29.52006825160914
 20
5.204134457822548
  0
LWPOLYLINE
  5
D77
330
18
100
AcDbEntity
  8
TEXT
100
AcDbPolyline
 90
        3
 70
     0
 43
0.0006660908203125
 10
29.47344189418726
 20
5.194143095517863
 10
29.47344189418726
 20
5.107551288877236
 10
29.56003370082788
 20
5.107551288877236
  0
LWPOLYLINE
  5
D78
330
18
100
AcDbEntity
  8
TEXT
100
AcDbPolyline
 90
        3
 70
     0
 43
0.0006660908203125
 10
29.44679826137476
 20
5.194143095517863
 10
29.44679826137476
 20
5.080907656064735
 10
29.56003370082788
 20
5.080907656064735
  0
LWPOLYLINE
  5
D79
330
18
100
AcDbEntity
  8
TEXT
100
AcDbPolyline
 90
        2
 70
     0
 43
0.0001332181640625
 10
29.47344189418726
 20
5.194143095517863
 10
29.53339006801538
 20
5.204134457822548
  0
LWPOLYLINE
  5
D7A
330
18
100
AcDbEntity
  8
TEXT
100
AcDbPolyline
 90
        2
 70
     0
 43
0.0001332181640625
 10
29.52006825160914
 20
5.204134457822548
 10
29.44679826137476
 20
5.194143095517863
  0
LWPOLYLINE
  5
D7B
330
18
100
AcDbEntity
  8
TEXT
100
AcDbPolyline
 90
        2
 70
     0
 43
0.0006660908203125
 10
29.47344189418726
 20
5.194143095517863
 10
29.44679826137476
 20
5.194143095517863
  0
LWPOLYLINE
  5
D7C
330
18
100
AcDbEntity
  8
TEXT
100
AcDbPolyline
 90
        2
 70
     0
 43
0.0001332181640625
 10
29.47344189418726
 20
5.107551288877236
 10
29.53339006801538
 20
5.167499462705362
  0
LWPOLYLINE
  5
D7D
330
18
100
AcDbEntity
  8
TEXT
100
AcDbPolyline
 90
        2
 70
     0
 43
0.0006660908203125
 10
29.47344189418726
 20
5.234108544736611
 10
29.44679826137476
 20
5.234108544736611
  0
LWPOLYLINE
  5
D7E
330
18
100
AcDbEntity
  8
TEXT
100
AcDbPolyline
 90
        2
 70
     0
 43
0.0001332181640625
 10
29.44679826137476
 20
5.234108544736611
 10
29.52006825160914
 20
5.224117182431922
  0
LWPOLYLINE
  5
D7F
330
18
100
AcDbEntity
  8
TEXT
100
AcDbPolyline
 90
        2
 70
     0
 43
0.0001332181640625
 10
29.47344189418726
 20
5.234108544736611
 10
29.53339006801538
 20
5.224117182431922
  0
LWPOLYLINE
  5
D80
330
18
100
AcDbEntity
  8
TEXT
100
AcDbPolyline
 90
        2
 70
     0
 43
0.0001332181640625
 10
29.47344189418726
 20
5.320700351377237
 10
29.53339006801538
 20
5.260752177549112
  0
LWPOLYLINE
  5
D81
330
18
100
AcDbEntity
  8
TEXT
100
AcDbPolyline
 90
        5
 70
     0
 43
0.0001332181640625
 10
29.63996459926539
 20
5.204134457822548
 10
29.62664278285913
 20
5.204134457822548
 10
29.62664278285913
 20
5.167499462705362
 10
29.59000778774194
 20
5.167499462705362
 10
29.59000778774194
 20
5.154177646299111
  0
LWPOLYLINE
  5
D82
330
18
100
AcDbEntity
  8
TEXT
100
AcDbPolyline
 90
        2
 70
     0
 43
0.0001332181640625
 10
29.68659095668726
 20
5.194143095517863
 10
29.62664278285913
 20
5.204134457822548
  0
LWPOLYLINE
  5
D83
330
18
100
AcDbEntity
  8
TEXT
100
AcDbPolyline
 90
        2
 70
     0
 43
0.0001332181640625
 10
29.71323458949976
 20
5.194143095517863
 10
29.63996459926539
 20
5.204134457822548
  0
LWPOLYLINE
  5
D84
330
18
100
AcDbEntity
  8
TEXT
100
AcDbPolyline
 90
        3
 70
     0
 43
0.0006660908203125
 10
29.59999915004663
 20
5.080907656064735
 10
29.71323458949976
 20
5.080907656064735
 10
29.71323458949976
 20
5.194143095517863
  0
LWPOLYLINE
  5
D85
330
18
100
AcDbEntity
  8
TEXT
100
AcDbPolyline
 90
        3
 70
     0
 43
0.0006660908203125
 10
29.59999915004663
 20
5.107551288877236
 10
29.68659095668726
 20
5.107551288877236
 10
29.68659095668726
 20
5.194143095517863
  0
LWPOLYLINE
  5
D86
330
18
100
AcDbEntity
  8
TEXT
100
AcDbPolyline
 90
        2
 70
     0
 43
0.0001332181640625
 10
29.68659095668726
 20
5.107551288877236
 10
29.62664278285913
 20
5.167499462705362
  0
LWPOLYLINE
  5
D87
330
18
100
AcDbEntity
  8
TEXT
100
AcDbPolyline
 90
        2
 70
     0
 43
0.0006660908203125
 10
29.59999915004663
 20
5.107551288877236
 10
29.59999915004663
 20
5.080907656064735
  0
LWPOLYLINE
  5
D88
330
18
100
AcDbEntity
  8
TEXT
100
AcDbPolyline
 90
        2
 70
     0
 43
0.0001332181640625
 10
29.59000778774194
 20
5.154177646299111
 10
29.59999915004663
 20
5.080907656064735
  0
LWPOLYLINE
  5
D89
330
18
100
AcDbEntity
  8
TEXT
100
AcDbPolyline
 90
        2
 70
     0
 43
0.0001332181640625
 10
29.59999915004663
 20
5.107551288877236
 10
29.59000778774194
 20
5.167499462705362
  0
LWPOLYLINE
  5
D8A
330
18
100
AcDbEntity
  8
TEXT
100
AcDbPolyline
 90
        2
 70
     0
 43
0.0001332181640625
 10
29.56003370082788
 20
5.080907656064735
 10
29.57002506313257
 20
5.154177646299111
  0
LWPOLYLINE
  5
D8B
330
18
100
AcDbEntity
  8
TEXT
100
AcDbPolyline
 90
        2
 70
     0
 43
0.0001332181640625
 10
29.56003370082788
 20
5.107551288877236
 10
29.57002506313257
 20
5.167499462705362
  0
LWPOLYLINE
  5
D8C
330
18
100
AcDbEntity
  8
TEXT
100
AcDbPolyline
 90
        2
 70
     0
 43
0.0006660908203125
 10
29.56003370082788
 20
5.107551288877236
 10
29.56003370082788
 20
5.080907656064735
  0
LWPOLYLINE
  5
D8D
330
18
100
AcDbEntity
  8
TEXT
100
AcDbPolyline
 90
        2
 70
     0
 43
0.0006660908203125
 10
29.68659095668726
 20
5.194143095517863
 10
29.71323458949976
 20
5.194143095517863
  0
LWPOLYLINE
  5
D8E
330
18
100
AcDbEntity
  8
TEXT
100
AcDbPolyline
 90
        2
 70
     0
 43
0.0001332181640625
 10
29.68659095668726
 20
5.320700351377237
 10
29.62664278285913
 20
5.260752177549112
  0
LWPOLYLINE
  5
D8F
330
18
100
AcDbEntity
  8
TEXT
100
AcDbPolyline
 90
        2
 70
     0
 43
0.0001332181640625
 10
29.68659095668726
 20
5.234108544736611
 10
29.62664278285913
 20
5.224117182431922
  0
LWPOLYLINE
  5
D90
330
18
100
AcDbEntity
  8
TEXT
100
AcDbPolyline
 90
        2
 70
     0
 43
0.0001332181640625
 10
29.63996459926539
 20
5.224117182431922
 10
29.71323458949976
 20
5.234108544736611
  0
LWPOLYLINE
  5
D91
330
18
100
AcDbEntity
  8
TEXT
100
AcDbPolyline
 90
        3
 70
     0
 43
0.0006660908203125
 10
29.68659095668726
 20
5.234108544736611
 10
29.68659095668726
 20
5.320700351377237
 10
29.59999915004663
 20
5.320700351377237
  0
LWPOLYLINE
  5
D92
330
18
100
AcDbEntity
  8
TEXT
100
AcDbPolyline
 90
        3
 70
     0
 43
0.0006660908203125
 10
29.71323458949976
 20
5.234108544736611
 10
29.71323458949976
 20
5.347343984189738
 10
29.59999915004663
 20
5.347343984189738
  0
LWPOLYLINE
  5
D93
330
18
100
AcDbEntity
  8
TEXT
100
AcDbPolyline
 90
        2
 70
     0
 43
0.0001332181640625
 10
29.59999915004663
 20
5.347343984189738
 10
29.59000778774194
 20
5.274073993955359
  0
LWPOLYLINE
  5
D94
330
18
100
AcDbEntity
  8
TEXT
100
AcDbPolyline
 90
        2
 70
     0
 43
0.0001332181640625
 10
29.59999915004663
 20
5.320700351377237
 10
29.59000778774194
 20
5.260752177549112
  0
LWPOLYLINE
  5
D95
330
18
100
AcDbEntity
  8
TEXT
100
AcDbPolyline
 90
        2
 70
     0
 43
0.0006660908203125
 10
29.59999915004663
 20
5.320700351377237
 10
29.59999915004663
 20
5.347343984189738
  0
LWPOLYLINE
  5
D96
330
18
100
AcDbEntity
  8
TEXT
100
AcDbPolyline
 90
        5
 70
     0
 43
0.0001332181640625
 10
29.59000778774194
 20
5.274073993955359
 10
29.59000778774194
 20
5.260752177549112
 10
29.62664278285913
 20
5.260752177549112
 10
29.62664278285913
 20
5.224117182431922
 10
29.63996459926539
 20
5.224117182431922
  0
LWPOLYLINE
  5
D97
330
18
100
AcDbEntity
  8
TEXT
100
AcDbPolyline
 90
        2
 70
     0
 43
0.0001332181640625
 10
29.56003370082788
 20
5.320700351377237
 10
29.57002506313257
 20
5.260752177549112
  0
LWPOLYLINE
  5
D98
330
18
100
AcDbEntity
  8
TEXT
100
AcDbPolyline
 90
        2
 70
     0
 43
0.0001332181640625
 10
29.57002506313257
 20
5.274073993955359
 10
29.56003370082788
 20
5.347343984189738
  0
LWPOLYLINE
  5
D99
330
18
100
AcDbEntity
  8
TEXT
100
AcDbPolyline
 90
        2
 70
     0
 43
0.0006660908203125
 10
29.56003370082788
 20
5.320700351377237
 10
29.56003370082788
 20
5.347343984189738
  0
LWPOLYLINE
  5
D9A
330
18
100
AcDbEntity
  8
TEXT
100
AcDbPolyline
 90
        2
 70
     0
 43
0.0006660908203125
 10
29.68659095668726
 20
5.234108544736611
 10
29.71323458949976
 20
5.234108544736611
  0
LWPOLYLINE
  5
D9B
330
18
100
AcDbEntity
  8
TEXT
100
AcDbPolyline
 90
        2
 70
     0
 43
0.0
 10
30.43201451024839
 20
5.132422293416152
 42
0.3318488747599744
 10
30.5011338028137
 20
5.080870951201224
 42
-6.868794160588311
  0
LINE
  5
D9C
330
18
100
AcDbEntity
  8
TEXT
100
AcDbLine
 10
30.49999422931751
 20
5.415355461928545
 30
0.0
 11
30.43318551675114
 21
5.415355461928545
 31
0.0
  0
LINE
  5
D9D
330
18
100
AcDbEntity
  8
TEXT
100
AcDbLine
 10
30.15384314913205
 20
5.347343984189735
 30
0.0
 11
29.97811139623354
 21
5.347343984189735
 31
0.0
  0
ARC
  5
D9E
330
18
100
AcDbEntity
  8
TEXT
100
AcDbCircle
 10
30.04894886259209
 20
5.164066759561781
 30
0.0
 40
0.0831958083605586
100
AcDbArc
 50
270.0
 51
90.0
  0
LINE
  5
D9F
330
18
100
AcDbEntity
  8
TEXT
100
AcDbLine
 10
29.98334872634778
 20
5.28306728953297
 30
0.0
 11
30.15025438037675
 21
5.28306728953297
 31
0.0
  0
LINE
  5
DA0
330
18
100
AcDbEntity
  8
TEXT
100
AcDbLine
 10
30.05388923649837
 20
5.149227957534663
 30
0.0
 11
29.89602393678703
 21
5.149227957534663
 31
0.0
  0
LINE
  5
DA1
330
18
100
AcDbEntity
  8
TEXT
100
AcDbLine
 10
29.89602393678703
 20
5.080870951201224
 30
0.0
 11
30.04894886259209
 21
5.080870951201224
 31
0.0
  0
ARC
  5
DA2
330
18
100
AcDbEntity
  8
TEXT
100
AcDbCircle
 10
29.97811139623354
 20
5.265256524743233
 30
0.0
 40
0.0820874594465043
100
AcDbArc
 50
90.0
 51
270.0
  0
LINE
  5
DA3
330
18
100
AcDbEntity
  8
TEXT
100
AcDbLine
 10
29.89602393678703
 20
5.149227957534663
 30
0.0
 11
29.89602393678703
 21
5.080870951201224
 31
0.0
  0
LINE
  5
DA4
330
18
100
AcDbEntity
  8
TEXT
100
AcDbLine
 10
29.97811139623354
 20
5.183169065296728
 30
0.0
 11
30.05388923649837
 21
5.183169065296728
 31
0.0
  0
ARC
  5
DA5
330
18
100
AcDbEntity
  8
TEXT
100
AcDbCircle
 10
30.05388923649837
 20
5.166198511415697
 30
0.0
 40
0.0169705538810321
100
AcDbArc
 50
270.0
 51
90.0
  0
LINE
  5
DA6
330
18
100
AcDbEntity
  8
TEXT
100
AcDbLine
 10
30.04894886259209
 20
5.247262567922342
 30
0.0
 11
29.98334872634778
 21
5.247262567922342
 31
0.0
  0
ARC
  5
DA7
330
18
100
AcDbEntity
  8
TEXT
100
AcDbCircle
 10
29.98334872634778
 20
5.265164928727657
 30
0.0
 40
0.017902360805315
100
AcDbArc
 50
90.0
 51
270.0
  0
LINE
  5
DA8
330
18
100
AcDbEntity
  8
TEXT
100
AcDbLine
 10
30.3443150411519
 20
5.246471988076614
 30
0.0
 11
30.28568472011996
 21
5.347343984189735
 31
0.0
  0
LINE
  5
DA9
330
18
100
AcDbEntity
  8
TEXT
100
AcDbLine
 10
30.20414098785686
 20
5.080870951201224
 30
0.0
 11
30.30078123893185
 21
5.081141590299506
 31
0.0
  0
LWPOLYLINE
  5
DAA
330
18
100
AcDbEntity
  8
TEXT
100
AcDbPolyline
 90
        6
 70
     1
 43
0.0
 10
30.24666479143201
 20
5.28306728953297
 10
30.2163481972118
 20
5.28306728953297
 10
30.2163481972118
 20
5.159956291478075
 42
0.407328721240804
 10
30.22789184837328
 20
5.148137376801689
 10
30.28851354741801
 20
5.148137376801689
 10
30.30597888782533
 20
5.180949605845168
  0
LINE
  5
DAB
330
18
100
AcDbEntity
  8
TEXT
100
AcDbLine
 10
30.15025438037675
 20
5.28306728953297
 30
0.0
 11
30.15025438037675
 21
5.140663342539274
 31
0.0
  0
ARC
  5
DAC
330
18
100
AcDbEntity
  8
TEXT
100
AcDbCircle
 10
30.21037039835051
 20
5.140663342539274
 30
0.0
 40
0.0601160179737537
100
AcDbArc
 50
180.0000000000003
 51
264.0521544866073
  0
LINE
  5
DAD
330
18
100
AcDbEntity
  8
TEXT
100
AcDbLine
 10
30.21388575397605
 20
5.381731901783873
 30
0.0
 11
30.15384314913205
 21
5.381731901783873
 31
0.0
  0
LINE
  5
DAE
330
18
100
AcDbEntity
  8
TEXT
100
AcDbLine
 10
30.15384314913205
 20
5.381731901783873
 30
0.0
 11
30.15384314913205
 21
5.347343984189735
 31
0.0
  0
LINE
  5
DAF
330
18
100
AcDbEntity
  8
TEXT
100
AcDbLine
 10
30.21388575397605
 20
5.347343984189735
 30
0.0
 11
30.21388575397605
 21
5.381731901783873
 31
0.0
  0
LINE
  5
DB0
330
18
100
AcDbEntity
  8
TEXT
100
AcDbLine
 10
30.28568472011996
 20
5.347343984189735
 30
0.0
 11
30.21388575397605
 21
5.347343984189735
 31
0.0
  0
LINE
  5
DB1
330
18
100
AcDbEntity
  8
TEXT
100
AcDbLine
 10
30.33471480415494
 20
5.100829457306237
 30
0.0
 11
30.43201451024839
 21
5.265179668241505
 31
0.0
  0
LINE
  5
DB2
330
18
100
AcDbEntity
  8
TEXT
100
AcDbLine
 10
30.43201451024839
 20
5.265179668241505
 30
0.0
 11
30.43201451024839
 21
5.132422293416149
 31
0.0
  0
ARC
  5
DB3
330
18
100
AcDbEntity
  8
TEXT
100
AcDbCircle
 10
30.30067124424273
 20
5.12041867347492
 30
0.0
 40
0.0392772371940762
100
AcDbArc
 50
270.1604552698595
 51
330.0831797321295
  0
LINE
  5
DB4
330
18
100
AcDbEntity
  8
TEXT
100
AcDbLine
 10
30.40306360395776
 20
5.347343984189735
 30
0.0
 11
30.3443150411519
 21
5.246471988076614
 31
0.0
  0
LINE
  5
DB5
330
18
100
AcDbEntity
  8
TEXT
100
AcDbLine
 10
30.43318551675114
 20
5.415355461928545
 30
0.0
 11
30.43318551675114
 21
5.347343984189735
 31
0.0
  0
LINE
  5
DB6
330
18
100
AcDbEntity
  8
TEXT
100
AcDbLine
 10
30.43318551675114
 20
5.347343984189735
 30
0.0
 11
30.40306360395776
 21
5.347343984189735
 31
0.0
  0
LWPOLYLINE
  5
DB7
330
18
100
AcDbEntity
  8
TEXT
100
AcDbPolyline
 90
        4
 70
     0
 43
0.0
 10
30.7852716383713
 20
5.27551350036686
 10
30.7852716383713
 20
5.080870951201224
 10
30.85374992165916
 20
5.080870951201224
 10
30.85374992165916
 20
5.124361896151662
 42
-1.714843617202739
  0
LWPOLYLINE
  5
DB8
330
18
100
AcDbEntity
  8
TEXT
100
AcDbPolyline
 90
        2
 70
     0
 43
0.0
 10
30.82040598891551
 20
5.347343984189738
 42
-0.3277054968067132
 10
30.85618767962868
 20
5.319021438420095
 42
6.667889725900311
  0
LWPOLYLINE
  5
DB9
330
18
100
AcDbEntity
  8
TEXT
100
AcDbPolyline
 90
        2
 70
     0
 43
0.0
 10
30.64897241633628
 20
5.28306728953297
 42
-0.4142135623731017
 10
30.6565262055024
 20
5.27551350036686
 42
-0.9999999999999998
  0
LINE
  5
DBA
330
18
100
AcDbEntity
  8
TEXT
100
AcDbLine
 10
30.66632413938631
 20
5.347343984189735
 30
0.0
 11
30.53230608345517
 21
5.347343984189735
 31
0.0
  0
LINE
  5
DBB
330
18
100
AcDbEntity
  8
TEXT
100
AcDbLine
 10
30.59913713651313
 20
5.080870951201224
 30
0.0
 11
30.59913713651313
 21
5.28306728953297
 31
0.0
  0
LINE
  5
DBC
330
18
100
AcDbEntity
  8
TEXT
100
AcDbLine
 10
30.53230608345517
 20
5.347343984189735
 30
0.0
 11
30.53230608345517
 21
5.146479777457327
 31
0.0
  0
LINE
  5
DBD
330
18
100
AcDbEntity
  8
TEXT
100
AcDbLine
 10
30.49999422931751
 20
5.163258789304223
 30
0.0
 11
30.49999422931751
 21
5.415355461928545
 31
0.0
  0
LINE
  5
DBE
330
18
100
AcDbEntity
  8
TEXT
100
AcDbLine
 10
30.5011338028137
 20
5.080870951201224
 30
0.0
 11
30.59913713651313
 21
5.080870951201224
 31
0.0
  0
LINE
  5
DBF
330
18
100
AcDbEntity
  8
TEXT
100
AcDbLine
 10
30.53230608345517
 20
5.146479777457327
 30
0.0
 11
30.51531244657057
 21
5.146479777457327
 31
0.0
  0
ARC
  5
DC0
330
18
100
AcDbEntity
  8
TEXT
100
AcDbCircle
 10
30.51531244657057
 20
5.161861583700752
 30
0.0
 40
0.0153818062434269
100
AcDbArc
 50
174.7883570302258
 51
270.0
  0
LINE
  5
DC1
330
18
100
AcDbEntity
  8
TEXT
100
AcDbLine
 10
30.59913713651313
 20
5.28306728953297
 30
0.0
 11
30.64897241633628
 21
5.28306728953297
 31
0.0
  0
LINE
  5
DC2
330
18
100
AcDbEntity
  8
TEXT
100
AcDbLine
 10
30.6565262055024
 20
5.27551350036686
 30
0.0
 11
30.6565262055024
 21
5.080870951201224
 31
0.0
  0
LINE
  5
DC3
330
18
100
AcDbEntity
  8
TEXT
100
AcDbLine
 10
30.72358425228424
 20
5.080870951201224
 30
0.0
 11
30.72358425228424
 21
5.28306728953297
 31
0.0
  0
LINE
  5
DC4
330
18
100
AcDbEntity
  8
TEXT
100
AcDbLine
 10
30.6565262055024
 20
5.080870951201224
 30
0.0
 11
30.72358425228424
 21
5.080870951201224
 31
0.0
  0
LWPOLYLINE
  5
DC5
330
18
100
AcDbEntity
  8
TEXT
100
AcDbPolyline
 90
        3
 70
     0
 43
0.0
 10
30.82040598891551
 20
5.347343984189738
 10
30.70210583009947
 20
5.347343984189738
 10
30.70210583009947
 20
5.320176487428843
 42
-1.960274751411753
  0
LINE
  5
DC6
330
18
100
AcDbEntity
  8
TEXT
100
AcDbLine
 10
30.72358425228424
 20
5.28306728953297
 30
0.0
 11
30.77771784920519
 21
5.28306728953297
 31
0.0
  0
LWPOLYLINE
  5
DC7
330
18
100
AcDbEntity
  8
TEXT
100
AcDbPolyline
 90
        2
 70
     0
 43
0.0
 10
30.66632413938631
 20
5.347343984189738
 42
-0.3328679258950098
 10
30.70210583009947
 20
5.320176487428843
 42
6.772930709997214
  0
LWPOLYLINE
  5
DC8
330
18
100
AcDbEntity
  8
TEXT
100
AcDbPolyline
 90
        2
 70
     0
 43
0.0
 10
30.77771784920519
 20
5.28306728953297
 42
-0.4142135623731017
 10
30.7852716383713
 20
5.27551350036686
 42
-0.9999999999999998
  0
ARC
  5
DC9
330
18
100
AcDbEntity
  8
TEXT
100
AcDbCircle
 10
30.98899264906867
 20
5.305760417068833
 30
0.0
 40
0.0416329381542859
100
AcDbArc
 50
26.56974201007528
 51
87.20939649401342
  0
LWPOLYLINE
  5
DCA
330
18
100
AcDbEntity
  8
TEXT
100
AcDbPolyline
 90
        2
 70
     0
 43
0.0
 10
30.89682585452679
 20
5.080870951201224
 10
31.03084327215817
 20
5.080870951201224
 42
0.9999999999999998
  0
LWPOLYLINE
  5
DCB
330
18
100
AcDbEntity
  8
TEXT
100
AcDbPolyline
 90
        4
 70
     1
 43
0.0
 10
31.01072080708828
 20
5.183834929185249
 10
30.92206048842842
 20
5.183834929185249
 42
0.9999999999999998
 10
30.92206048842842
 20
5.141436388681388
 10
31.01072080708828
 20
5.141436388681388
 42
1.0
  0
LWPOLYLINE
  5
DCC
330
18
100
AcDbEntity
  8
TEXT
100
AcDbPolyline
 90
        2
 70
     0
 43
0.0
 10
30.85374992165916
 20
5.124361896151662
 42
0.2901071551932823
 10
30.89682585452679
 20
5.080870951201224
 42
5.328517124445801
  0
LINE
  5
DCD
330
18
100
AcDbEntity
  8
TEXT
100
AcDbLine
 10
30.99101958884574
 20
5.347343984189735
 30
0.0
 11
30.85618767962868
 21
5.347343984189735
 31
0.0
  0
LINE
  5
DCE
330
18
100
AcDbEntity
  8
TEXT
100
AcDbLine
 10
30.91550177602199
 20
5.245792316070837
 30
0.0
 11
30.99778976580538
 21
5.245792316070837
 31
0.0
  0
LINE
  5
DCF
330
18
100
AcDbEntity
  8
TEXT
100
AcDbLine
 10
30.96198869050126
 20
5.28306728953297
 30
0.0
 11
30.85478241711397
 21
5.28306728953297
 31
0.0
  0
LINE
  5
DD0
330
18
100
AcDbEntity
  8
TEXT
100
AcDbLine
 10
30.85618767962868
 20
5.347343984189735
 30
0.0
 11
30.85618767962868
 21
5.319021438420091
 31
0.0
  0
ARC
  5
DD1
330
18
100
AcDbEntity
  8
TEXT
100
AcDbCircle
 10
30.91550177602199
 20
5.178106734926719
 30
0.0
 40
0.0676855811441166
100
AcDbArc
 50
90.0
 51
153.7768192527749
  0
LINE
  5
DD2
330
18
100
AcDbEntity
  8
TEXT
100
AcDbLine
 10
30.85478241711397
 20
5.28306728953297
 30
0.0
 11
30.85478241711397
 21
5.208014883458763
 31
0.0
  0
LINE
  5
DD3
330
18
100
AcDbEntity
  8
TEXT
100
AcDbLine
 10
30.99778976580538
 20
5.245792316070837
 30
0.0
 11
30.98752500539181
 21
5.267042855643532
 31
0.0
  0
ARC
  5
DD4
330
18
100
AcDbEntity
  8
TEXT
100
AcDbCircle
 10
30.96198869050125
 20
5.254707914532972
 30
0.0
 40
0.028359375
100
AcDbArc
 50
25.78218179591245
 51
90.0
  0
LINE
  5
DD5
330
18
100
AcDbEntity
  8
TEXT
100
AcDbLine
 10
31.13227441886115
 20
5.080870951201224
 30
0.0
 11
31.13227441886114
 21
5.258161456632692
 31
0.0
  0
LWPOLYLINE
  5
DD6
330
18
100
AcDbEntity
  8
TEXT
100
AcDbPolyline
 90
        2
 70
     0
 43
0.0
 10
31.07391920502581
 20
5.080870951201224
 10
31.13227441886115
 20
5.080870951201224
  0
LWPOLYLINE
  5
DD7
330
18
100
AcDbEntity
  8
TEXT
100
AcDbPolyline
 90
        2
 70
     0
 43
0.0
 10
31.07391920502581
 20
5.124361896151662
 42
-0.2901071551932486
 10
31.03084327215817
 20
5.080870951201224
 42
-5.328517124445184
  0
LWPOLYLINE
  5
DD8
330
18
100
AcDbEntity
  8
TEXT
100
AcDbPolyline
 90
        2
 70
     0
 43
0.0
 10
31.07391920502581
 20
5.124361896151662
 10
31.07391920502581
 20
5.080870951201224
  0
LINE
  5
DD9
330
18
100
AcDbEntity
  8
TEXT
100
AcDbLine
 10
31.13387643402028
 20
5.347343984189735
 30
0.0
 11
31.06997952772077
 21
5.347343984189735
 31
0.0
  0
LINE
  5
DDA
330
18
100
AcDbEntity
  8
TEXT
100
AcDbLine
 10
31.06997952772077
 20
5.347343984189735
 30
0.0
 11
31.06997952772077
 21
5.242132005636308
 31
0.0
  0
LINE
  5
DDB
330
18
100
AcDbEntity
  8
TEXT
100
AcDbLine
 10
31.06997952772077
 20
5.242132005636308
 30
0.0
 11
31.02622875653887
 21
5.324382281632453
 31
0.0
  0
ARC
  5
DDC
330
18
100
AcDbEntity
  8
TEXT
100
AcDbCircle
 10
31.15718029414381
 20
5.258161414250307
 30
0.0
 40
0.0249058752826653
100
AcDbArc
 50
89.99971217465335
 51
179.9999999999985
  0
ARC
  5
DDD
330
18
100
AcDbEntity
  8
TEXT
100
AcDbCircle
 10
31.16506925108339
 20
5.31609825690747
 30
0.0
 40
0.0314112657011332
100
AcDbArc
 50
95.88484768694724
 51
173.2388340632136
  0
LINE
  5
DDE
330
18
100
AcDbEntity
  8
TEXT
100
AcDbLine
 10
31.13387643402028
 20
5.31979633432886
 30
0.0
 11
31.13387643402028
 21
5.347343984189735
 31
0.0
  0
TEXT
  5
DDF
330
18
100
AcDbEntity
  8
TEXT
100
AcDbText
 10
31.60275195344207
 20
5.17375675984672
 30
0.0
 40
0.0522247191011236
  1
Minneapolis, MN 55432-0008
 41
1.114442127215846
 72
     5
 11
32.93168453771173
 21
5.17375675984672
 31
0.0
100
AcDbText
  0
TEXT
  5
DE0
330
18
100
AcDbEntity
  8
TEXT
100
AcDbText
 10
31.60275195344207
 20
5.267015186813012
 30
0.0
 40
0.0522247191011236
  1
6536 Main St. N.E. * P.O. Box 32008
 41
0.8388932496075323
 72
     5
 11
32.93168453771173
 21
5.267015186813012
 31
0.0
100
AcDbText
  0
TEXT
  5
DE1
330
18
100
AcDbEntity
  8
TEXT
100
AcDbText
 10
31.60275195344207
 20
5.360273613779305
 30
0.0
 40
0.0522247191011236
  1
Stylmark  Incorporated
 41
1.221428571428566
 72
     5
 11
32.93168453771173
 21
5.360273613779305
 31
0.0
100
AcDbText
  0
TEXT
  5
DE2
330
18
100
AcDbEntity
  8
TEXT
100
AcDbText
 10
31.60275195344207
 20
5.080498332880428
 30
0.0
 40
0.0522247191011236
  1
Phone  1-800-328-2495
 41
1.272321428571424
 72
     5
 11
32.93168453771173
 21
5.080498332880428
 31
0.0
100
AcDbText
  0
LINE
  5
DE3
330
18
100
AcDbEntity
  8
TEXT
100
AcDbLine
 10
31.35519614197905
 20
5.237450741248761
 30
0.0
 11
31.41975325794476
 21
5.347343984189735
 31
0.0
  0
LINE
  5
DE4
330
18
100
AcDbEntity
  8
TEXT
100
AcDbLine
 10
31.41975325794476
 20
5.347343984189735
 30
0.0
 11
31.34476142521513
 21
5.347343984189735
 31
0.0
  0
LINE
  5
DE5
330
18
100
AcDbEntity
  8
TEXT
100
AcDbLine
 10
31.37410999296646
 20
5.080870951201224
 30
0.0
 11
31.45068836534266
 21
5.080870951201224
 31
0.0
  0
LINE
  5
DE6
330
18
100
AcDbEntity
  8
TEXT
100
AcDbLine
 10
31.45068836534266
 20
5.080870951201224
 30
0.0
 11
31.35519614197905
 21
5.237450741248761
 31
0.0
  0
LINE
  5
DE7
330
18
100
AcDbEntity
  8
TEXT
100
AcDbLine
 10
31.29820645975499
 20
5.080870951201224
 30
0.0
 11
31.29820645975499
 21
5.212450519677404
 31
0.0
  0
LINE
  5
DE8
330
18
100
AcDbEntity
  8
TEXT
100
AcDbLine
 10
31.29820645975499
 20
5.212450519677404
 30
0.0
 11
31.37410999296646
 21
5.080870951201224
 31
0.0
  0
LINE
  5
DE9
330
18
100
AcDbEntity
  8
TEXT
100
AcDbLine
 10
31.23382827543637
 20
5.28306728953297
 30
0.0
 11
31.23382827543637
 21
5.080870951201224
 31
0.0
  0
LINE
  5
DEA
330
18
100
AcDbEntity
  8
TEXT
100
AcDbLine
 10
31.23382827543637
 20
5.080870951201224
 30
0.0
 11
31.29820645975499
 21
5.080870951201224
 31
0.0
  0
LINE
  5
DEB
330
18
100
AcDbEntity
  8
TEXT
100
AcDbLine
 10
31.29766326665915
 20
5.412808189957336
 30
0.0
 11
31.22934838810987
 21
5.412808189957336
 31
0.0
  0
LINE
  5
DEC
330
18
100
AcDbEntity
  8
TEXT
100
AcDbLine
 10
31.22934838810987
 20
5.412808189957336
 30
0.0
 11
31.22934838810987
 21
5.347343984189735
 31
0.0
  0
LINE
  5
DED
330
18
100
AcDbEntity
  8
TEXT
100
AcDbLine
 10
31.34476142521513
 20
5.347343984189735
 30
0.0
 11
31.29766326665915
 21
5.271478657778197
 31
0.0
  0
LINE
  5
DEE
330
18
100
AcDbEntity
  8
TEXT
100
AcDbLine
 10
31.29766326665915
 20
5.271478657778197
 30
0.0
 11
31.29766326665915
 21
5.412808189957336
 31
0.0
  0
ENDSEC
  0
SECTION
  2
OBJECTS
  0
DICTIONARY
  5
C
330
0
100
AcDbDictionary
  3
ACAD_GROUP
350
D
  3
ACAD_LAYOUT
350
DF4
  3
ACAD_MLINESTYLE
350
E
  3
ACAD_PLOTSETTINGS
350
DF5
  3
ACAD_PLOTSTYLENAME
350
DF2
  3
ACDBHEADERROUNDTRIPXREC
350
DFF
  3
ACDBVARIABLEDICTIONARY
350
DFC
  0
DICTIONARY
  5
E21
330
18
100
AcDbDictionary
280
     1
  3
ACAD_LAYOUTSELFREF
360
E22
  0
DICTIONARY
  5
E1F
330
15
100
AcDbDictionary
280
     1
  3
ACAD_LAYOUTSELFREF
360
E20
  0
DICTIONARY
  5
D
102
{ACAD_REACTORS
330
C
102
}
330
C
100
AcDbDictionary
  3
*A1
350
27B
  3
*A2
350
5E6
  3
*A3
350
7B8
  3
*A4
350
7B9
  3
*A5
350
C94
  0
DICTIONARY
  5
DF4
102
{ACAD_REACTORS
330
C
102
}
330
C
100
AcDbDictionary
  0
DICTIONARY
  5
E
102
{ACAD_REACTORS
330
C
102
}
330
C
100
AcDbDictionary
  3
STANDARD
350
1B
  0
DICTIONARY
  5
DF5
102
{ACAD_REACTORS
330
C
102
}
330
C
100
AcDbDictionary
  0
ACDBDICTIONARYWDFLT
  5
DF2
102
{ACAD_REACTORS
330
C
102
}
330
C
100
AcDbDictionary
281
     1
  3
Normal
350
DF3
100
AcDbDictionaryWithDefault
340
DF3
  0
DICTIONARY
  5
DFF
102
{ACAD_REACTORS
330
C
102
}
330
C
100
AcDbDictionary
  3
CEPSNTYPE
350
E09
  3
FINGERPRINTGUID
350
E0A
  3
HYPERLINKBASE
350
E02
  3
INSUNITS
350
E08
  3
LAYOUTDICT
350
E04
  3
LWETCUNION
350
E07
  3
PLOTSETDICT
350
E05
  3
PLOTSTYLNAMDICT
350
E06
  3
PSVPSCALE
350
E0C
  3
PUCSBASE
350
E0F
  3
PUCSORGBACK
350
E15
  3
PUCSORGBOTTOM
350
E11
  3
PUCSORGFRONT
350
E14
  3
PUCSORGLEFT
350
E12
  3
PUCSORGRIGHT
350
E13
  3
PUCSORGTOP
350
E10
  3
PUCSORTHOREF
350
E0D
  3
PUCSORTHOVIEW
350
E0E
  3
STYLESHEET
350
E03
  3
TSTACKALIGN
350
E00
  3
TSTACKSIZE
350
E01
  3
UCSBASE
350
E18
  3
UCSORGBACK
350
E1E
  3
UCSORGBOTTOM
350
E1A
  3
UCSORGFRONT
350
E1D
  3
UCSORGLEFT
350
E1B
  3
UCSORGRIGHT
350
E1C
  3
UCSORGTOP
350
E19
  3
UCSORTHOREF
350
E16
  3
UCSORTHOVIEW
350
E17
  3
VERSIONGUID
350
E0B
  0
DICTIONARY
  5
DFC
102
{ACAD_REACTORS
330
C
102
}
330
C
100
AcDbDictionary
  3
DIMASSOC
350
DFD
  0
XRECORD
  5
E22
102
{ACAD_REACTORS
330
E21
102
}
330
E21
100
AcDbXrecord
340
18
  0
XRECORD
  5
E20
102
{ACAD_REACTORS
330
E1F
102
}
330
E1F
100
AcDbXrecord
340
15
  0
GROUP
  5
27B
102
{ACAD_REACTORS
330
D
102
}
330
D
100
AcDbGroup
300
BORDER FRAME 10-1-95
 70
     3
 71
     1
  0
GROUP
  5
5E6
102
{ACAD_REACTORS
330
D
102
}
330
D
100
AcDbGroup
300

 70
     1
 71
     1
  0
GROUP
  5
7B8
102
{ACAD_REACTORS
330
D
102
}
330
D
100
AcDbGroup
300
BORDER FRAME 10-1-95
 70
     3
 71
     1
  0
GROUP
  5
7B9
102
{ACAD_REACTORS
330
D
102
}
330
D
100
AcDbGroup
300

 70
     3
 71
     1
  0
GROUP
  5
C94
102
{ACAD_REACTORS
330
D
102
}
330
D
100
AcDbGroup
300

 70
     1
 71
     1
  0
MLINESTYLE
  5
1B
102
{ACAD_REACTORS
330
E
102
}
330
E
100
AcDbMlineStyle
  2
STANDARD
 70
     0
  3

 62
     0
 51
90.0
 52
90.0
 71
     2
 49
0.5
 62
   256
  6
BYLAYER
 49
-0.5
 62
   256
  6
BYLAYER
  0
ACDBPLACEHOLDER
  5
DF3
102
{ACAD_REACTORS
330
DF2
102
}
330
DF2
100
AcDbPlaceHolder
280
     0
  0
XRECORD
  5
E09
102
{ACAD_REACTORS
330
DFF
102
}
330
DFF
100
AcDbXrecord
 90
        0
  0
XRECORD
  5
E0A
102
{ACAD_REACTORS
330
DFF
102
}
330
DFF
100
AcDbXrecord
  1
{AC52D200-8DB5-11D6-88E6-0090279574E7}
  0
XRECORD
  5
E02
102
{ACAD_REACTORS
330
DFF
102
}
330
DFF
100
AcDbXrecord
  1

  0
XRECORD
  5
E08
102
{ACAD_REACTORS
330
DFF
102
}
330
DFF
100
AcDbXrecord
 90
        0
  0
XRECORD
  5
E04
102
{ACAD_REACTORS
330
DFF
102
}
330
DFF
100
AcDbXrecord
340
DF4
  0
XRECORD
  5
E07
102
{ACAD_REACTORS
330
DFF
102
}
330
DFF
100
AcDbXrecord
 90
    14877
  0
XRECORD
  5
E05
102
{ACAD_REACTORS
330
DFF
102
}
330
DFF
100
AcDbXrecord
340
DF5
  0
XRECORD
  5
E06
102
{ACAD_REACTORS
330
DFF
102
}
330
DFF
100
AcDbXrecord
340
DF2
  0
XRECORD
  5
E0C
102
{ACAD_REACTORS
330
DFF
102
}
330
DFF
100
AcDbXrecord
 40
0.0
  0
XRECORD
  5
E0F
102
{ACAD_REACTORS
330
DFF
102
}
330
DFF
100
AcDbXrecord
340
0
  0
XRECORD
  5
E15
102
{ACAD_REACTORS
330
DFF
102
}
330
DFF
100
AcDbXrecord
 10
0.0
 20
0.0
 30
0.0
  0
XRECORD
  5
E11
102
{ACAD_REACTORS
330
DFF
102
}
330
DFF
100
AcDbXrecord
 10
0.0
 20
0.0
 30
0.0
  0
XRECORD
  5
E14
102
{ACAD_REACTORS
330
DFF
102
}
330
DFF
100
AcDbXrecord
 10
0.0
 20
0.0
 30
0.0
  0
XRECORD
  5
E12
102
{ACAD_REACTORS
330
DFF
102
}
330
DFF
100
AcDbXrecord
 10
0.0
 20
0.0
 30
0.0
  0
XRECORD
  5
E13
102
{ACAD_REACTORS
330
DFF
102
}
330
DFF
100
AcDbXrecord
 10
0.0
 20
0.0
 30
0.0
  0
XRECORD
  5
E10
102
{ACAD_REACTORS
330
DFF
102
}
330
DFF
100
AcDbXrecord
 10
0.0
 20
0.0
 30
0.0
  0
XRECORD
  5
E0D
102
{ACAD_REACTORS
330
DFF
102
}
330
DFF
100
AcDbXrecord
340
0
  0
XRECORD
  5
E0E
102
{ACAD_REACTORS
330
DFF
102
}
330
DFF
100
AcDbXrecord
 70
     0
  0
XRECORD
  5
E03
102
{ACAD_REACTORS
330
DFF
102
}
330
DFF
100
AcDbXrecord
  1

  0
XRECORD
  5
E00
102
{ACAD_REACTORS
330
DFF
102
}
330
DFF
100
AcDbXrecord
 90
        1
  0
XRECORD
  5
E01
102
{ACAD_REACTORS
330
DFF
102
}
330
DFF
100
AcDbXrecord
 90
       70
  0
XRECORD
  5
E18
102
{ACAD_REACTORS
330
DFF
102
}
330
DFF
100
AcDbXrecord
340
0
  0
XRECORD
  5
E1E
102
{ACAD_REACTORS
330
DFF
102
}
330
DFF
100
AcDbXrecord
 10
0.0
 20
0.0
 30
0.0
  0
XRECORD
  5
E1A
102
{ACAD_REACTORS
330
DFF
102
}
330
DFF
100
AcDbXrecord
 10
0.0
 20
0.0
 30
0.0
  0
XRECORD
  5
E1D
102
{ACAD_REACTORS
330
DFF
102
}
330
DFF
100
AcDbXrecord
 10
0.0
 20
0.0
 30
0.0
  0
XRECORD
  5
E1B
102
{ACAD_REACTORS
330
DFF
102
}
330
DFF
100
AcDbXrecord
 10
0.0
 20
0.0
 30
0.0
  0
XRECORD
  5
E1C
102
{ACAD_REACTORS
330
DFF
102
}
330
DFF
100
AcDbXrecord
 10
0.0
 20
0.0
 30
0.0
  0
XRECORD
  5
E19
102
{ACAD_REACTORS
330
DFF
102
}
330
DFF
100
AcDbXrecord
 10
0.0
 20
0.0
 30
0.0
  0
XRECORD
  5
E16
102
{ACAD_REACTORS
330
DFF
102
}
330
DFF
100
AcDbXrecord
340
0
  0
XRECORD
  5
E17
102
{ACAD_REACTORS
330
DFF
102
}
330
DFF
100
AcDbXrecord
 70
     0
  0
XRECORD
  5
E0B
102
{ACAD_REACTORS
330
DFF
102
}
330
DFF
100
AcDbXrecord
  1
{AC52D202-8DB5-11D6-88E6-0090279574E7}
  0
DICTIONARYVAR
  5
DFD
102
{ACAD_REACTORS
330
DFC
102
}
330
DFC
100
DictionaryVariables
280
     0
  1
1
  0
ENDSEC
  0
EOF
