  0
SECTION
  2
HEADER
  9
$ACADVER
  1
AC1014
  9
$ACADMAINTVER
 70
     9
  9
$DWGCODEPAGE
  3
ANSI_1252
  9
$INSBASE
 10
0.0
 20
0.0
 30
0.0
  9
$EXTMIN
 10
1.515625
 20
3.348279039937601
 30
0.0
  9
$EXTMAX
 10
6.515625
 20
4.921875
 30
0.0
  9
$LIMMIN
 10
0.0
 20
0.0
  9
$LIMMAX
 10
8.5
 20
11.0
  9
$ORTHOMODE
 70
     1
  9
$REGENMODE
 70
     1
  9
$FILLMODE
 70
     1
  9
$QTEXTMODE
 70
     0
  9
$MIRRTEXT
 70
     0
  9
$DRAGMODE
 70
     2
  9
$LTSCALE
 40
1.0
  9
$OSMODE
 70
    39
  9
$ATTMODE
 70
     1
  9
$TEXTSIZE
 40
0.125
  9
$TRACEWID
 40
0.05
  9
$TEXTSTYLE
  7
ROMANS
  9
$CLAYER
  8
0
  9
$CELTYPE
  6
BYLAYER
  9
$CECOLOR
 62
   256
  9
$CELTSCALE
 40
1.0
  9
$DELOBJ
 70
     1
  9
$DISPSILH
 70
     1
  9
$DIMSCALE
 40
2.0
  9
$DIMASZ
 40
0.125
  9
$DIMEXO
 40
0.125
  9
$DIMDLI
 40
0.375
  9
$DIMRND
 40
0.0
  9
$DIMDLE
 40
0.0
  9
$DIMEXE
 40
0.125
  9
$DIMTP
 40
0.0
  9
$DIMTM
 40
0.032
  9
$DIMTXT
 40
0.125
  9
$DIMCEN
 40
-0.125
  9
$DIMTSZ
 40
0.0
  9
$DIMTOL
 70
     0
  9
$DIMLIM
 70
     0
  9
$DIMTIH
 70
     1
  9
$DIMTOH
 70
     1
  9
$DIMSE1
 70
     0
  9
$DIMSE2
 70
     0
  9
$DIMTAD
 70
     0
  9
$DIMZIN
 70
     4
  9
$DIMBLK
  1

  9
$DIMASO
 70
     1
  9
$DIMSHO
 70
     1
  9
$DIMPOST
  1

  9
$DIMAPOST
  1

  9
$DIMALT
 70
     0
  9
$DIMALTD
 70
     2
  9
$DIMALTF
 40
25.4
  9
$DIMLFAC
 40
1.0
  9
$DIMTOFL
 70
     0
  9
$DIMTVP
 40
0.0
  9
$DIMTIX
 70
     0
  9
$DIMSOXD
 70
     0
  9
$DIMSAH
 70
     0
  9
$DIMBLK1
  1

  9
$DIMBLK2
  1

  9
$DIMSTYLE
  2
STANDARD
  9
$DIMCLRD
 70
     0
  9
$DIMCLRE
 70
     0
  9
$DIMCLRT
 70
     0
  9
$DIMTFAC
 40
1.0
  9
$DIMGAP
 40
0.09
  9
$DIMJUST
 70
     0
  9
$DIMSD1
 70
     0
  9
$DIMSD2
 70
     0
  9
$DIMTOLJ
 70
     1
  9
$DIMTZIN
 70
     0
  9
$DIMALTZ
 70
     0
  9
$DIMALTTZ
 70
     0
  9
$DIMFIT
 70
     3
  9
$DIMUPT
 70
     0
  9
$DIMUNIT
 70
     2
  9
$DIMDEC
 70
     3
  9
$DIMTDEC
 70
     4
  9
$DIMALTU
 70
     2
  9
$DIMALTTD
 70
     2
  9
$DIMTXSTY
  7
ROMANS
  9
$DIMAUNIT
 70
     0
  9
$LUNITS
 70
     2
  9
$LUPREC
 70
     3
  9
$SKETCHINC
 40
0.1
  9
$FILLETRAD
 40
0.0
  9
$AUNITS
 70
     0
  9
$AUPREC
 70
     0
  9
$MENU
  1
AUTOMSTR
  9
$ELEVATION
 40
0.0
  9
$PELEVATION
 40
0.0
  9
$THICKNESS
 40
0.0
  9
$LIMCHECK
 70
     0
  9
$BLIPMODE
 70
     0
  9
$CHAMFERA
 40
0.0
  9
$CHAMFERB
 40
0.0
  9
$CHAMFERC
 40
0.0
  9
$CHAMFERD
 40
0.0
  9
$SKPOLY
 70
     0
  9
$TDCREATE
 40
2448349.498331134
  9
$TDUPDATE
 40
2452458.303738692
  9
$TDINDWG
 40
0.0532387616
  9
$TDUSRTIMER
 40
0.0532387616
  9
$USRTIMER
 70
     1
  9
$ANGBASE
 50
0.0
  9
$ANGDIR
 70
     0
  9
$PDMODE
 70
     0
  9
$PDSIZE
 40
0.0
  9
$PLINEWID
 40
0.0
  9
$COORDS
 70
     2
  9
$SPLFRAME
 70
     0
  9
$SPLINETYPE
 70
     6
  9
$SPLINESEGS
 70
     8
  9
$ATTDIA
 70
     0
  9
$ATTREQ
 70
     1
  9
$HANDLING
 70
 22529
  9
$HANDSEED
  5
4EC
  9
$SURFTAB1
 70
     6
  9
$SURFTAB2
 70
     6
  9
$SURFTYPE
 70
     6
  9
$SURFU
 70
     6
  9
$SURFV
 70
     6
  9
$UCSNAME
  2

  9
$UCSORG
 10
0.0
 20
0.0
 30
0.0
  9
$UCSXDIR
 10
1.0
 20
0.0
 30
0.0
  9
$UCSYDIR
 10
0.0
 20
1.0
 30
0.0
  9
$PUCSNAME
  2

  9
$PUCSORG
 10
0.0
 20
0.0
 30
0.0
  9
$PUCSXDIR
 10
1.0
 20
0.0
 30
0.0
  9
$PUCSYDIR
 10
0.0
 20
1.0
 30
0.0
  9
$USERI1
 70
     0
  9
$USERI2
 70
     0
  9
$USERI3
 70
     0
  9
$USERI4
 70
     0
  9
$USERI5
 70
     0
  9
$USERR1
 40
0.0
  9
$USERR2
 40
0.0
  9
$USERR3
 40
0.0
  9
$USERR4
 40
0.0
  9
$USERR5
 40
0.0
  9
$WORLDVIEW
 70
     1
  9
$SHADEDGE
 70
     3
  9
$SHADEDIF
 70
    70
  9
$TILEMODE
 70
     1
  9
$MAXACTVP
 70
    16
  9
$PINSBASE
 10
0.0
 20
0.0
 30
0.0
  9
$PLIMCHECK
 70
     0
  9
$PEXTMIN
 10
1.000000000000000E+20
 20
1.000000000000000E+20
 30
1.000000000000000E+20
  9
$PEXTMAX
 10
-1.000000000000000E+20
 20
-1.000000000000000E+20
 30
-1.000000000000000E+20
  9
$PLIMMIN
 10
0.0
 20
0.0
  9
$PLIMMAX
 10
12.0
 20
9.0
  9
$UNITMODE
 70
     0
  9
$VISRETAIN
 70
     0
  9
$PLINEGEN
 70
     1
  9
$PSLTSCALE
 70
     0
  9
$TREEDEPTH
 70
  3020
  9
$PICKSTYLE
 70
     1
  9
$CMLSTYLE
  2
STANDARD
  9
$CMLJUST
 70
     0
  9
$CMLSCALE
 40
1.0
  9
$PROXYGRAPHICS
 70
     1
  9
$MEASUREMENT
 70
     0
  0
ENDSEC
  0
SECTION
  2
CLASSES
  0
CLASS
  1
LWPOLYLINE
  2
AcDbPolyline
  3
AutoCAD 2000
 90
        0
280
     0
281
     1
  0
CLASS
  1
ACDBDICTIONARYWDFLT
  2
AcDbDictionaryWithDefault
  3
AutoCAD 2000
 90
        0
280
     0
281
     0
  0
CLASS
  1
ACDBPLACEHOLDER
  2
AcDbPlaceHolder
  3
AutoCAD 2000
 90
        0
280
     0
281
     0
  0
CLASS
  1
LAYOUT
  2
AcDbLayout
  3
AutoCAD 2000
 90
        0
280
     0
281
     0
  0
CLASS
  1
DICTIONARYVAR
  2
AcDbDictionaryVar
  3
AutoCAD 2000
 90
        0
280
     0
281
     0
  0
CLASS
  1
LONG_TRANSACTION
  2
AcDbLongTransaction
  3
AutoCAD 2000
 90
        0
280
     0
281
     0
  0
CLASS
  1
LWPOLYLINE
  2
AcDbPolyline
  3
AutoCAD 2000
 90
        0
280
     0
281
     1
  0
CLASS
  1
HATCH
  2
AcDbHatch
  3
AutoCAD 2000
 90
        0
280
     0
281
     1
  0
CLASS
  1
XRECORD
  2
AcDbXrecord
  3
AutoCAD 2000
 90
        0
280
     0
281
     0
  0
ENDSEC
  0
SECTION
  2
TABLES
  0
TABLE
  2
VPORT
  5
8
330
0
100
AcDbSymbolTable
 70
     2
  0
VPORT
  5
4C7
330
8
100
AcDbSymbolTableRecord
100
AcDbViewportTableRecord
  2
*ACTIVE
 70
     0
 10
0.0
 20
0.0
 11
1.0
 21
1.0
 12
8.207089883464512
 22
4.134992680780987
 13
0.0
 23
0.0
 14
0.015625
 24
0.015625
 15
0.0
 25
0.0
 16
0.0
 26
0.0
 36
1.0
 17
0.0
 27
0.0
 37
0.0
 40
3.103669132146933
 41
4.320930232558139
 42
50.0
 43
0.0
 44
0.0
 50
0.0
 51
0.0
 71
     0
 72
  2000
 73
     1
 74
     1
 75
     1
 76
     0
 77
     0
 78
     0
  0
ENDTAB
  0
TABLE
  2
LTYPE
  5
5
330
0
100
AcDbSymbolTable
 70
     1
  0
LTYPE
  5
12
330
5
100
AcDbSymbolTableRecord
100
AcDbLinetypeTableRecord
  2
BYBLOCK
 70
     0
  3

 72
    65
 73
     0
 40
0.0
  0
LTYPE
  5
13
330
5
100
AcDbSymbolTableRecord
100
AcDbLinetypeTableRecord
  2
BYLAYER
 70
     0
  3

 72
    65
 73
     0
 40
0.0
  0
LTYPE
  5
14
330
5
100
AcDbSymbolTableRecord
100
AcDbLinetypeTableRecord
  2
CONTINUOUS
 70
     0
  3
Solid line
 72
    65
 73
     0
 40
0.0
  0
ENDTAB
  0
TABLE
  2
LAYER
  5
2
330
0
100
AcDbSymbolTable
 70
     2
  0
LAYER
  5
F
330
2
100
AcDbSymbolTableRecord
100
AcDbLayerTableRecord
  2
0
 70
     0
 62
     7
  6
CONTINUOUS
  0
LAYER
  5
2A
330
2
100
AcDbSymbolTableRecord
100
AcDbLayerTableRecord
  2
TEXT
 70
     0
 62
     3
  6
CONTINUOUS
  0
ENDTAB
  0
TABLE
  2
STYLE
  5
3
330
0
100
AcDbSymbolTable
 70
     3
  0
STYLE
  5
10
330
3
100
AcDbSymbolTableRecord
100
AcDbTextStyleTableRecord
  2
STANDARD
 70
     0
 40
0.0
 41
1.0
 50
0.0
 71
     0
 42
0.125
  3
txt
  4

  0
STYLE
  5
3B3
330
3
100
AcDbSymbolTableRecord
100
AcDbTextStyleTableRecord
  2
ITALICC
 70
     0
 40
0.0
 41
1.0
 50
0.0
 71
     0
 42
0.125
  3
italicc
  4

  0
STYLE
  5
4C3
330
3
100
AcDbSymbolTableRecord
100
AcDbTextStyleTableRecord
  2
ROMANS
 70
     0
 40
0.0
 41
1.0
 50
0.0
 71
     0
 42
0.125
  3
romans.shx
  4

  0
ENDTAB
  0
TABLE
  2
VIEW
  5
6
330
0
100
AcDbSymbolTable
 70
     0
  0
ENDTAB
  0
TABLE
  2
UCS
  5
7
330
0
100
AcDbSymbolTable
 70
     0
  0
ENDTAB
  0
TABLE
  2
APPID
  5
9
330
0
100
AcDbSymbolTable
 70
     1
  0
APPID
  5
11
330
9
100
AcDbSymbolTableRecord
100
AcDbRegAppTableRecord
  2
ACAD
 70
     0
  0
ENDTAB
  0
TABLE
  2
DIMSTYLE
  5
A
330
0
100
AcDbSymbolTable
 70
     1
  0
DIMSTYLE
105
3A6
330
A
100
AcDbSymbolTableRecord
100
AcDbDimStyleTableRecord
  2
STANDARD
 70
     0
  3

  4

  5

  6

  7

 40
1.0
 41
0.18
 42
0.0625
 43
0.38
 44
0.18
 45
0.0
 46
0.0
 47
0.0
 48
0.0
140
0.18
141
0.09
142
0.0
143
25.4
144
1.0
145
0.0
146
1.0
147
0.09
 71
     0
 72
     0
 73
     1
 74
     1
 75
     0
 76
     0
 77
     0
 78
     0
170
     0
171
     2
172
     0
173
     0
174
     0
175
     0
176
     0
177
     0
178
     0
270
     2
271
     4
272
     4
273
     2
274
     2
340
10
275
     0
280
     0
281
     0
282
     0
283
     1
284
     0
285
     0
286
     0
287
     3
288
     0
  0
ENDTAB
  0
TABLE
  2
BLOCK_RECORD
  5
1
330
0
100
AcDbSymbolTable
 70
     0
  0
BLOCK_RECORD
  5
18
102
{ACAD_XDICTIONARY
360
4EA
102
}
330
1
100
AcDbSymbolTableRecord
100
AcDbBlockTableRecord
  2
*MODEL_SPACE
  0
BLOCK_RECORD
  5
15
102
{ACAD_XDICTIONARY
360
4E8
102
}
330
1
100
AcDbSymbolTableRecord
100
AcDbBlockTableRecord
  2
*PAPER_SPACE
  0
ENDTAB
  0
ENDSEC
  0
SECTION
  2
BLOCKS
  0
BLOCK
  5
33
330
18
100
AcDbEntity
  8
0
100
AcDbBlockBegin
  2
*MODEL_SPACE
 70
     0
 10
0.0
 20
0.0
 30
0.0
  3
*MODEL_SPACE
  1

  0
ENDBLK
  5
34
330
18
100
AcDbEntity
  8
0
100
AcDbBlockEnd
  0
BLOCK
  5
31
330
15
100
AcDbEntity
 67
     1
  8
0
100
AcDbBlockBegin
  2
*PAPER_SPACE
 70
     0
 10
0.0
 20
0.0
 30
0.0
  3
*PAPER_SPACE
  1

  0
ENDBLK
  5
32
330
15
100
AcDbEntity
 67
     1
  8
0
100
AcDbBlockEnd
  0
ENDSEC
  0
SECTION
  2
ENTITIES
  0
LWPOLYLINE
  5
1E4
330
18
100
AcDbEntity
  8
0
100
AcDbPolyline
 90
       18
 70
     1
 43
0.0
 10
1.590625
 20
4.846874999999999
 10
1.590625
 20
4.296875
 10
1.765625
 20
4.296875
 10
1.738561706131736
 20
4.25
 42
-0.2679491924311231
 10
1.711498412263472
 20
4.234375
 10
1.578125
 20
4.234375
 10
1.578125
 20
4.203125
 42
-1.0
 10
1.515625
 20
4.203125
 10
1.515625
 20
4.921875
 10
6.515625
 20
4.921875
 10
6.515625
 20
4.203125
 42
-1.000000000000014
 10
6.453124999999999
 20
4.203125
 10
6.453125
 20
4.234375
 10
6.319751587736527
 20
4.234375
 42
-0.2679491924311207
 10
6.292688293868263
 20
4.25
 10
6.265625
 20
4.296875
 10
6.440624999999999
 20
4.296875
 10
6.440624999999999
 20
4.846874999999999
  0
TEXT
  5
439
330
18
100
AcDbEntity
  8
TEXT
100
AcDbText
 10
3.083755385676699
 20
3.806297644020183
 30
0.0
 40
0.125
  1
PART #110260
  7
ITALICC
 72
     1
 11
3.83673157615289
 21
3.806297644020183
 31
0.0
100
AcDbText
  0
LINE
  5
43A
330
18
100
AcDbEntity
  8
TEXT
100
AcDbLine
 10
3.804465075104952
 20
3.561943958000349
 30
0.0
 11
3.88111305639751
 21
3.561943958000349
 31
0.0
  0
LINE
  5
43B
330
18
100
AcDbEntity
  8
TEXT
100
AcDbLine
 10
3.87663316907101
 20
3.626220652657115
 30
0.0
 11
3.809133451421494
 21
3.626220652657115
 31
0.0
  0
LWPOLYLINE
  5
43C
330
18
100
AcDbEntity
  8
TEXT
100
AcDbPolyline
 90
        5
 70
     0
 43
0.0001332181640625
 10
2.167353032570277
 20
3.502993850899302
 10
2.180674848976526
 20
3.502993850899302
 10
2.180674848976526
 20
3.539628846016491
 10
2.217309844093716
 20
3.539628846016491
 10
2.217309844093716
 20
3.552950662422738
  0
LWPOLYLINE
  5
43D
330
18
100
AcDbEntity
  8
TEXT
100
AcDbPolyline
 90
        3
 70
     0
 43
0.0006660908203125
 10
2.207318481789025
 20
3.599577019844617
 10
2.120726675148401
 20
3.599577019844617
 10
2.120726675148401
 20
3.51298521320399
  0
LWPOLYLINE
  5
43E
330
18
100
AcDbEntity
  8
TEXT
100
AcDbPolyline
 90
        3
 70
     0
 43
0.0006660908203125
 10
2.207318481789025
 20
3.626220652657118
 10
2.094083042335903
 20
3.626220652657118
 10
2.094083042335903
 20
3.51298521320399
  0
LWPOLYLINE
  5
43F
330
18
100
AcDbEntity
  8
TEXT
100
AcDbPolyline
 90
        5
 70
     0
 43
0.0001332181640625
 10
2.217309844093716
 20
3.433054314766491
 10
2.217309844093716
 20
3.446376131172741
 10
2.180674848976528
 20
3.446376131172741
 10
2.180674848976528
 20
3.483011126289928
 10
2.167353032570277
 20
3.483011126289928
  0
LWPOLYLINE
  5
440
330
18
100
AcDbEntity
  8
TEXT
100
AcDbPolyline
 90
        3
 70
     0
 43
0.0006660908203125
 10
2.120726675148401
 20
3.473019763985242
 10
2.120726675148401
 20
3.386427957344616
 10
2.207318481789025
 20
3.386427957344616
  0
LWPOLYLINE
  5
441
330
18
100
AcDbEntity
  8
TEXT
100
AcDbPolyline
 90
        3
 70
     0
 43
0.0006660908203125
 10
2.094083042335903
 20
3.473019763985242
 10
2.094083042335903
 20
3.359784324532115
 10
2.207318481789025
 20
3.359784324532115
  0
LWPOLYLINE
  5
442
330
18
100
AcDbEntity
  8
TEXT
100
AcDbPolyline
 90
        2
 70
     0
 43
0.0001332181640625
 10
2.120726675148401
 20
3.473019763985242
 10
2.180674848976528
 20
3.483011126289928
  0
LWPOLYLINE
  5
443
330
18
100
AcDbEntity
  8
TEXT
100
AcDbPolyline
 90
        2
 70
     0
 43
0.0001332181640625
 10
2.167353032570277
 20
3.483011126289928
 10
2.094083042335903
 20
3.473019763985242
  0
LWPOLYLINE
  5
444
330
18
100
AcDbEntity
  8
TEXT
100
AcDbPolyline
 90
        2
 70
     0
 43
0.0006660908203125
 10
2.120726675148401
 20
3.473019763985242
 10
2.094083042335903
 20
3.473019763985242
  0
LWPOLYLINE
  5
445
330
18
100
AcDbEntity
  8
TEXT
100
AcDbPolyline
 90
        2
 70
     0
 43
0.0001332181640625
 10
2.120726675148401
 20
3.386427957344616
 10
2.180674848976528
 20
3.446376131172741
  0
LWPOLYLINE
  5
446
330
18
100
AcDbEntity
  8
TEXT
100
AcDbPolyline
 90
        2
 70
     0
 43
0.0006660908203125
 10
2.120726675148401
 20
3.51298521320399
 10
2.094083042335903
 20
3.51298521320399
  0
LWPOLYLINE
  5
447
330
18
100
AcDbEntity
  8
TEXT
100
AcDbPolyline
 90
        2
 70
     0
 43
0.0001332181640625
 10
2.094083042335903
 20
3.51298521320399
 10
2.167353032570277
 20
3.502993850899302
  0
LWPOLYLINE
  5
448
330
18
100
AcDbEntity
  8
TEXT
100
AcDbPolyline
 90
        2
 70
     0
 43
0.0001332181640625
 10
2.120726675148401
 20
3.51298521320399
 10
2.180674848976526
 20
3.502993850899302
  0
LWPOLYLINE
  5
449
330
18
100
AcDbEntity
  8
TEXT
100
AcDbPolyline
 90
        2
 70
     0
 43
0.0001332181640625
 10
2.120726675148401
 20
3.599577019844617
 10
2.180674848976526
 20
3.539628846016491
  0
LWPOLYLINE
  5
44A
330
18
100
AcDbEntity
  8
TEXT
100
AcDbPolyline
 90
        5
 70
     0
 43
0.0001332181640625
 10
2.287249380226527
 20
3.483011126289928
 10
2.273927563820278
 20
3.483011126289928
 10
2.273927563820278
 20
3.446376131172741
 10
2.237292568703088
 20
3.446376131172741
 10
2.237292568703088
 20
3.433054314766491
  0
LWPOLYLINE
  5
44B
330
18
100
AcDbEntity
  8
TEXT
100
AcDbPolyline
 90
        2
 70
     0
 43
0.0001332181640625
 10
2.333875737648402
 20
3.473019763985242
 10
2.273927563820278
 20
3.483011126289928
  0
LWPOLYLINE
  5
44C
330
18
100
AcDbEntity
  8
TEXT
100
AcDbPolyline
 90
        2
 70
     0
 43
0.0001332181640625
 10
2.360519370460903
 20
3.473019763985242
 10
2.287249380226527
 20
3.483011126289928
  0
LWPOLYLINE
  5
44D
330
18
100
AcDbEntity
  8
TEXT
100
AcDbPolyline
 90
        3
 70
     0
 43
0.0006660908203125
 10
2.247283931007777
 20
3.359784324532115
 10
2.360519370460903
 20
3.359784324532115
 10
2.360519370460903
 20
3.473019763985242
  0
LWPOLYLINE
  5
44E
330
18
100
AcDbEntity
  8
TEXT
100
AcDbPolyline
 90
        3
 70
     0
 43
0.0006660908203125
 10
2.247283931007777
 20
3.386427957344616
 10
2.333875737648402
 20
3.386427957344616
 10
2.333875737648402
 20
3.473019763985242
  0
LWPOLYLINE
  5
44F
330
18
100
AcDbEntity
  8
TEXT
100
AcDbPolyline
 90
        2
 70
     0
 43
0.0001332181640625
 10
2.333875737648402
 20
3.386427957344616
 10
2.273927563820278
 20
3.446376131172741
  0
LWPOLYLINE
  5
450
330
18
100
AcDbEntity
  8
TEXT
100
AcDbPolyline
 90
        2
 70
     0
 43
0.0006660908203125
 10
2.247283931007777
 20
3.386427957344616
 10
2.247283931007777
 20
3.359784324532115
  0
LWPOLYLINE
  5
451
330
18
100
AcDbEntity
  8
TEXT
100
AcDbPolyline
 90
        2
 70
     0
 43
0.0001332181640625
 10
2.237292568703088
 20
3.433054314766491
 10
2.247283931007777
 20
3.359784324532115
  0
LWPOLYLINE
  5
452
330
18
100
AcDbEntity
  8
TEXT
100
AcDbPolyline
 90
        2
 70
     0
 43
0.0001332181640625
 10
2.247283931007777
 20
3.386427957344616
 10
2.237292568703088
 20
3.446376131172741
  0
LWPOLYLINE
  5
453
330
18
100
AcDbEntity
  8
TEXT
100
AcDbPolyline
 90
        2
 70
     0
 43
0.0001332181640625
 10
2.207318481789025
 20
3.359784324532115
 10
2.217309844093716
 20
3.433054314766491
  0
LWPOLYLINE
  5
454
330
18
100
AcDbEntity
  8
TEXT
100
AcDbPolyline
 90
        2
 70
     0
 43
0.0001332181640625
 10
2.207318481789025
 20
3.386427957344616
 10
2.217309844093716
 20
3.446376131172741
  0
LWPOLYLINE
  5
455
330
18
100
AcDbEntity
  8
TEXT
100
AcDbPolyline
 90
        2
 70
     0
 43
0.0006660908203125
 10
2.207318481789025
 20
3.386427957344616
 10
2.207318481789025
 20
3.359784324532115
  0
LWPOLYLINE
  5
456
330
18
100
AcDbEntity
  8
TEXT
100
AcDbPolyline
 90
        2
 70
     0
 43
0.0006660908203125
 10
2.333875737648402
 20
3.473019763985242
 10
2.360519370460903
 20
3.473019763985242
  0
LWPOLYLINE
  5
457
330
18
100
AcDbEntity
  8
TEXT
100
AcDbPolyline
 90
        2
 70
     0
 43
0.0001332181640625
 10
2.333875737648402
 20
3.599577019844617
 10
2.273927563820278
 20
3.539628846016491
  0
LWPOLYLINE
  5
458
330
18
100
AcDbEntity
  8
TEXT
100
AcDbPolyline
 90
        2
 70
     0
 43
0.0001332181640625
 10
2.333875737648402
 20
3.51298521320399
 10
2.273927563820278
 20
3.502993850899302
  0
LWPOLYLINE
  5
459
330
18
100
AcDbEntity
  8
TEXT
100
AcDbPolyline
 90
        2
 70
     0
 43
0.0001332181640625
 10
2.287249380226527
 20
3.502993850899302
 10
2.360519370460903
 20
3.51298521320399
  0
LWPOLYLINE
  5
45A
330
18
100
AcDbEntity
  8
TEXT
100
AcDbPolyline
 90
        3
 70
     0
 43
0.0006660908203125
 10
2.333875737648402
 20
3.51298521320399
 10
2.333875737648402
 20
3.599577019844617
 10
2.247283931007777
 20
3.599577019844617
  0
LWPOLYLINE
  5
45B
330
18
100
AcDbEntity
  8
TEXT
100
AcDbPolyline
 90
        3
 70
     0
 43
0.0006660908203125
 10
2.360519370460903
 20
3.51298521320399
 10
2.360519370460903
 20
3.626220652657118
 10
2.247283931007777
 20
3.626220652657118
  0
LWPOLYLINE
  5
45C
330
18
100
AcDbEntity
  8
TEXT
100
AcDbPolyline
 90
        2
 70
     0
 43
0.0001332181640625
 10
2.247283931007777
 20
3.626220652657118
 10
2.237292568703088
 20
3.552950662422738
  0
LWPOLYLINE
  5
45D
330
18
100
AcDbEntity
  8
TEXT
100
AcDbPolyline
 90
        2
 70
     0
 43
0.0001332181640625
 10
2.247283931007777
 20
3.599577019844617
 10
2.237292568703088
 20
3.539628846016491
  0
LWPOLYLINE
  5
45E
330
18
100
AcDbEntity
  8
TEXT
100
AcDbPolyline
 90
        2
 70
     0
 43
0.0006660908203125
 10
2.247283931007777
 20
3.599577019844617
 10
2.247283931007777
 20
3.626220652657118
  0
LWPOLYLINE
  5
45F
330
18
100
AcDbEntity
  8
TEXT
100
AcDbPolyline
 90
        5
 70
     0
 43
0.0001332181640625
 10
2.237292568703088
 20
3.552950662422738
 10
2.237292568703088
 20
3.539628846016491
 10
2.273927563820278
 20
3.539628846016491
 10
2.273927563820278
 20
3.502993850899302
 10
2.287249380226527
 20
3.502993850899302
  0
LWPOLYLINE
  5
460
330
18
100
AcDbEntity
  8
TEXT
100
AcDbPolyline
 90
        2
 70
     0
 43
0.0001332181640625
 10
2.207318481789025
 20
3.599577019844617
 10
2.217309844093716
 20
3.539628846016491
  0
LWPOLYLINE
  5
461
330
18
100
AcDbEntity
  8
TEXT
100
AcDbPolyline
 90
        2
 70
     0
 43
0.0001332181640625
 10
2.217309844093716
 20
3.552950662422738
 10
2.207318481789025
 20
3.626220652657118
  0
LWPOLYLINE
  5
462
330
18
100
AcDbEntity
  8
TEXT
100
AcDbPolyline
 90
        2
 70
     0
 43
0.0006660908203125
 10
2.207318481789025
 20
3.599577019844617
 10
2.207318481789025
 20
3.626220652657118
  0
LWPOLYLINE
  5
463
330
18
100
AcDbEntity
  8
TEXT
100
AcDbPolyline
 90
        2
 70
     0
 43
0.0006660908203125
 10
2.333875737648402
 20
3.51298521320399
 10
2.360519370460903
 20
3.51298521320399
  0
LWPOLYLINE
  5
464
330
18
100
AcDbEntity
  8
TEXT
100
AcDbPolyline
 90
        2
 70
     0
 43
0.0
 10
3.079299291209533
 20
3.411298961883532
 42
0.3318488747599744
 10
3.148418583774846
 20
3.359747619668604
 42
-6.868794160588311
  0
LINE
  5
465
330
18
100
AcDbEntity
  8
TEXT
100
AcDbLine
 10
3.14727901027865
 20
3.694232130395925
 30
0.0
 11
3.080470297712285
 21
3.694232130395925
 31
0.0
  0
LINE
  5
466
330
18
100
AcDbEntity
  8
TEXT
100
AcDbLine
 10
2.801127930093191
 20
3.626220652657115
 30
0.0
 11
2.62539617719468
 21
3.626220652657115
 31
0.0
  0
ARC
  5
467
330
18
100
AcDbEntity
  8
TEXT
100
AcDbCircle
 10
2.69623364355323
 20
3.442943428029161
 30
0.0
 40
0.0831958083605586
100
AcDbArc
 50
270.0
 51
90.0
  0
LINE
  5
468
330
18
100
AcDbEntity
  8
TEXT
100
AcDbLine
 10
2.630633507308928
 20
3.561943958000349
 30
0.0
 11
2.797539161337899
 21
3.561943958000349
 31
0.0
  0
LINE
  5
469
330
18
100
AcDbEntity
  8
TEXT
100
AcDbLine
 10
2.701174017459509
 20
3.428104626002043
 30
0.0
 11
2.543308717748175
 21
3.428104626002043
 31
0.0
  0
LINE
  5
46A
330
18
100
AcDbEntity
  8
TEXT
100
AcDbLine
 10
2.543308717748177
 20
3.359747619668604
 30
0.0
 11
2.696233643553229
 21
3.359747619668604
 31
0.0
  0
ARC
  5
46B
330
18
100
AcDbEntity
  8
TEXT
100
AcDbCircle
 10
2.62539617719468
 20
3.544133193210613
 30
0.0
 40
0.0820874594465043
100
AcDbArc
 50
90.0
 51
270.0
  0
LINE
  5
46C
330
18
100
AcDbEntity
  8
TEXT
100
AcDbLine
 10
2.543308717748175
 20
3.428104626002043
 30
0.0
 11
2.543308717748177
 21
3.359747619668604
 31
0.0
  0
LINE
  5
46D
330
18
100
AcDbEntity
  8
TEXT
100
AcDbLine
 10
2.62539617719468
 20
3.462045733764107
 30
0.0
 11
2.701174017459509
 21
3.462045733764107
 31
0.0
  0
ARC
  5
46E
330
18
100
AcDbEntity
  8
TEXT
100
AcDbCircle
 10
2.701174017459509
 20
3.445075179883077
 30
0.0
 40
0.0169705538810321
100
AcDbArc
 50
270.0
 51
90.0
  0
LINE
  5
46F
330
18
100
AcDbEntity
  8
TEXT
100
AcDbLine
 10
2.696233643553229
 20
3.526139236389721
 30
0.0
 11
2.630633507308928
 21
3.526139236389721
 31
0.0
  0
ARC
  5
470
330
18
100
AcDbEntity
  8
TEXT
100
AcDbCircle
 10
2.630633507308929
 20
3.544041597195037
 30
0.0
 40
0.017902360805315
100
AcDbArc
 50
90.0
 51
270.0
  0
LINE
  5
471
330
18
100
AcDbEntity
  8
TEXT
100
AcDbLine
 10
2.991599822113044
 20
3.525348656543994
 30
0.0
 11
2.932969501081106
 21
3.626220652657115
 31
0.0
  0
LINE
  5
472
330
18
100
AcDbEntity
  8
TEXT
100
AcDbLine
 10
2.851425768818004
 20
3.359747619668604
 30
0.0
 11
2.948066019892999
 21
3.360018258766886
 31
0.0
  0
LWPOLYLINE
  5
473
330
18
100
AcDbEntity
  8
TEXT
100
AcDbPolyline
 90
        6
 70
     1
 43
0.0
 10
2.893949572393154
 20
3.561943958000349
 10
2.863632978172946
 20
3.561943958000349
 10
2.863632978172946
 20
3.438832959945455
 42
0.407328721240804
 10
2.875176629334422
 20
3.427014045269069
 10
2.935798328379153
 20
3.427014045269069
 10
2.953263668786471
 20
3.459826274312548
  0
LINE
  5
474
330
18
100
AcDbEntity
  8
TEXT
100
AcDbLine
 10
2.797539161337899
 20
3.561943958000349
 30
0.0
 11
2.797539161337899
 21
3.419540011006653
 31
0.0
  0
ARC
  5
475
330
18
100
AcDbEntity
  8
TEXT
100
AcDbCircle
 10
2.857655179311651
 20
3.419540011006653
 30
0.0
 40
0.0601160179737537
100
AcDbArc
 50
180.0000000000003
 51
264.0521544866073
  0
LINE
  5
476
330
18
100
AcDbEntity
  8
TEXT
100
AcDbLine
 10
2.861170534937198
 20
3.660608570251253
 30
0.0
 11
2.801127930093191
 21
3.660608570251253
 31
0.0
  0
LINE
  5
477
330
18
100
AcDbEntity
  8
TEXT
100
AcDbLine
 10
2.801127930093191
 20
3.660608570251253
 30
0.0
 11
2.801127930093191
 21
3.626220652657115
 31
0.0
  0
LINE
  5
478
330
18
100
AcDbEntity
  8
TEXT
100
AcDbLine
 10
2.861170534937198
 20
3.626220652657115
 30
0.0
 11
2.861170534937198
 21
3.660608570251253
 31
0.0
  0
LINE
  5
479
330
18
100
AcDbEntity
  8
TEXT
100
AcDbLine
 10
2.932969501081106
 20
3.626220652657115
 30
0.0
 11
2.861170534937198
 21
3.626220652657115
 31
0.0
  0
LINE
  5
47A
330
18
100
AcDbEntity
  8
TEXT
100
AcDbLine
 10
2.981999585116089
 20
3.379706125773616
 30
0.0
 11
3.079299291209534
 21
3.544056336708885
 31
0.0
  0
LINE
  5
47B
330
18
100
AcDbEntity
  8
TEXT
100
AcDbLine
 10
3.079299291209534
 20
3.544056336708885
 30
0.0
 11
3.079299291209534
 21
3.411298961883528
 31
0.0
  0
ARC
  5
47C
330
18
100
AcDbEntity
  8
TEXT
100
AcDbCircle
 10
2.947956025203876
 20
3.399295341942299
 30
0.0
 40
0.0392772371940762
100
AcDbArc
 50
270.1604552698595
 51
330.0831797321295
  0
LINE
  5
47D
330
18
100
AcDbEntity
  8
TEXT
100
AcDbLine
 10
3.050348384918909
 20
3.626220652657115
 30
0.0
 11
2.991599822113044
 21
3.525348656543994
 31
0.0
  0
LINE
  5
47E
330
18
100
AcDbEntity
  8
TEXT
100
AcDbLine
 10
3.080470297712285
 20
3.694232130395925
 30
0.0
 11
3.080470297712285
 21
3.626220652657115
 31
0.0
  0
LINE
  5
47F
330
18
100
AcDbEntity
  8
TEXT
100
AcDbLine
 10
3.080470297712285
 20
3.626220652657115
 30
0.0
 11
3.050348384918909
 21
3.626220652657115
 31
0.0
  0
LWPOLYLINE
  5
480
330
18
100
AcDbEntity
  8
TEXT
100
AcDbPolyline
 90
        4
 70
     0
 43
0.0
 10
3.432556419332444
 20
3.554390168834239
 10
3.432556419332444
 20
3.359747619668604
 10
3.501034702620302
 20
3.359747619668604
 10
3.501034702620302
 20
3.403238564619042
 42
-1.714843617202739
  0
LWPOLYLINE
  5
481
330
18
100
AcDbEntity
  8
TEXT
100
AcDbPolyline
 90
        2
 70
     0
 43
0.0
 10
3.467690769876654
 20
3.626220652657118
 42
-0.3277054968067132
 10
3.503472460589819
 20
3.597898106887474
 42
6.667889725900311
  0
LWPOLYLINE
  5
482
330
18
100
AcDbEntity
  8
TEXT
100
AcDbPolyline
 90
        2
 70
     0
 43
0.0
 10
3.296257197297427
 20
3.561943958000349
 42
-0.4142135623731017
 10
3.30381098646354
 20
3.554390168834239
 42
-0.9999999999999998
  0
LINE
  5
483
330
18
100
AcDbEntity
  8
TEXT
100
AcDbLine
 10
3.313608920347447
 20
3.626220652657115
 30
0.0
 11
3.179590864416311
 21
3.626220652657115
 31
0.0
  0
LINE
  5
484
330
18
100
AcDbEntity
  8
TEXT
100
AcDbLine
 10
3.24642191747428
 20
3.359747619668604
 30
0.0
 11
3.24642191747428
 21
3.561943958000349
 31
0.0
  0
LINE
  5
485
330
18
100
AcDbEntity
  8
TEXT
100
AcDbLine
 10
3.179590864416311
 20
3.626220652657115
 30
0.0
 11
3.179590864416311
 21
3.425356445924706
 31
0.0
  0
LINE
  5
486
330
18
100
AcDbEntity
  8
TEXT
100
AcDbLine
 10
3.14727901027865
 20
3.442135457771603
 30
0.0
 11
3.14727901027865
 21
3.694232130395925
 31
0.0
  0
LINE
  5
487
330
18
100
AcDbEntity
  8
TEXT
100
AcDbLine
 10
3.148418583774845
 20
3.359747619668604
 30
0.0
 11
3.24642191747428
 21
3.359747619668604
 31
0.0
  0
LINE
  5
488
330
18
100
AcDbEntity
  8
TEXT
100
AcDbLine
 10
3.179590864416311
 20
3.425356445924706
 30
0.0
 11
3.162597227531709
 21
3.425356445924706
 31
0.0
  0
ARC
  5
489
330
18
100
AcDbEntity
  8
TEXT
100
AcDbCircle
 10
3.162597227531708
 20
3.440738252168132
 30
0.0
 40
0.0153818062434269
100
AcDbArc
 50
174.7883570302258
 51
270.0
  0
LINE
  5
48A
330
18
100
AcDbEntity
  8
TEXT
100
AcDbLine
 10
3.24642191747428
 20
3.561943958000349
 30
0.0
 11
3.296257197297427
 21
3.561943958000349
 31
0.0
  0
LINE
  5
48B
330
18
100
AcDbEntity
  8
TEXT
100
AcDbLine
 10
3.303810986463541
 20
3.554390168834239
 30
0.0
 11
3.303810986463541
 21
3.359747619668604
 31
0.0
  0
LINE
  5
48C
330
18
100
AcDbEntity
  8
TEXT
100
AcDbLine
 10
3.370869033245381
 20
3.359747619668604
 30
0.0
 11
3.370869033245381
 21
3.561943958000349
 31
0.0
  0
LINE
  5
48D
330
18
100
AcDbEntity
  8
TEXT
100
AcDbLine
 10
3.303810986463541
 20
3.359747619668604
 30
0.0
 11
3.370869033245381
 21
3.359747619668604
 31
0.0
  0
LWPOLYLINE
  5
48E
330
18
100
AcDbEntity
  8
TEXT
100
AcDbPolyline
 90
        3
 70
     0
 43
0.0
 10
3.467690769876654
 20
3.626220652657118
 10
3.349390611060609
 20
3.626220652657118
 10
3.349390611060609
 20
3.599053155896222
 42
-1.960274751411753
  0
LINE
  5
48F
330
18
100
AcDbEntity
  8
TEXT
100
AcDbLine
 10
3.370869033245381
 20
3.561943958000349
 30
0.0
 11
3.425002630166331
 21
3.561943958000349
 31
0.0
  0
LWPOLYLINE
  5
490
330
18
100
AcDbEntity
  8
TEXT
100
AcDbPolyline
 90
        2
 70
     0
 43
0.0
 10
3.313608920347448
 20
3.626220652657118
 42
-0.3328679258950098
 10
3.349390611060609
 20
3.599053155896222
 42
6.772930709997214
  0
LWPOLYLINE
  5
491
330
18
100
AcDbEntity
  8
TEXT
100
AcDbPolyline
 90
        2
 70
     0
 43
0.0
 10
3.42500263016633
 20
3.561943958000349
 42
-0.4142135623731017
 10
3.432556419332444
 20
3.554390168834239
 42
-0.9999999999999998
  0
ARC
  5
492
330
18
100
AcDbEntity
  8
TEXT
100
AcDbCircle
 10
3.63627743002981
 20
3.584637085536212
 30
0.0
 40
0.0416329381542859
100
AcDbArc
 50
26.56974201007528
 51
87.20939649401342
  0
LWPOLYLINE
  5
493
330
18
100
AcDbEntity
  8
TEXT
100
AcDbPolyline
 90
        2
 70
     0
 43
0.0
 10
3.544110635487937
 20
3.359747619668604
 10
3.678128053119314
 20
3.359747619668604
 42
0.9999999999999998
  0
LWPOLYLINE
  5
494
330
18
100
AcDbEntity
  8
TEXT
100
AcDbPolyline
 90
        4
 70
     1
 43
0.0
 10
3.658005588049421
 20
3.462711597652629
 10
3.569345269389563
 20
3.462711597652629
 42
0.9999999999999998
 10
3.569345269389563
 20
3.420313057148768
 10
3.658005588049421
 20
3.420313057148768
 42
1.0
  0
LWPOLYLINE
  5
495
330
18
100
AcDbEntity
  8
TEXT
100
AcDbPolyline
 90
        2
 70
     0
 43
0.0
 10
3.501034702620302
 20
3.403238564619042
 42
0.2901071551932823
 10
3.544110635487937
 20
3.359747619668604
 42
5.328517124445801
  0
LINE
  5
496
330
18
100
AcDbEntity
  8
TEXT
100
AcDbLine
 10
3.638304369806879
 20
3.626220652657115
 30
0.0
 11
3.503472460589819
 21
3.626220652657115
 31
0.0
  0
LINE
  5
497
330
18
100
AcDbEntity
  8
TEXT
100
AcDbLine
 10
3.562786556983138
 20
3.524668984538217
 30
0.0
 11
3.645074546766521
 21
3.524668984538217
 31
0.0
  0
LINE
  5
498
330
18
100
AcDbEntity
  8
TEXT
100
AcDbLine
 10
3.6092734714624
 20
3.561943958000349
 30
0.0
 11
3.502067198075111
 21
3.561943958000349
 31
0.0
  0
LINE
  5
499
330
18
100
AcDbEntity
  8
TEXT
100
AcDbLine
 10
3.503472460589819
 20
3.626220652657115
 30
0.0
 11
3.503472460589819
 21
3.597898106887471
 31
0.0
  0
ARC
  5
49A
330
18
100
AcDbEntity
  8
TEXT
100
AcDbCircle
 10
3.562786556983137
 20
3.456983403394098
 30
0.0
 40
0.0676855811441166
100
AcDbArc
 50
90.0
 51
153.7768192527749
  0
LINE
  5
49B
330
18
100
AcDbEntity
  8
TEXT
100
AcDbLine
 10
3.502067198075111
 20
3.561943958000349
 30
0.0
 11
3.502067198075111
 21
3.486891551926142
 31
0.0
  0
LINE
  5
49C
330
18
100
AcDbEntity
  8
TEXT
100
AcDbLine
 10
3.645074546766521
 20
3.524668984538217
 30
0.0
 11
3.634809786352957
 21
3.545919524110911
 31
0.0
  0
ARC
  5
49D
330
18
100
AcDbEntity
  8
TEXT
100
AcDbCircle
 10
3.609273471462399
 20
3.533584583000352
 30
0.0
 40
0.028359375
100
AcDbArc
 50
25.78218179591245
 51
90.0
  0
LINE
  5
49E
330
18
100
AcDbEntity
  8
TEXT
100
AcDbLine
 10
3.779559199822293
 20
3.359747619668604
 30
0.0
 11
3.779559199822288
 21
3.537038125100072
 31
0.0
  0
LWPOLYLINE
  5
49F
330
18
100
AcDbEntity
  8
TEXT
100
AcDbPolyline
 90
        2
 70
     0
 43
0.0
 10
3.721203985986958
 20
3.359747619668604
 10
3.779559199822292
 20
3.359747619668604
  0
LWPOLYLINE
  5
4A0
330
18
100
AcDbEntity
  8
TEXT
100
AcDbPolyline
 90
        2
 70
     0
 43
0.0
 10
3.721203985986958
 20
3.403238564619042
 42
-0.2901071551932486
 10
3.678128053119314
 20
3.359747619668604
 42
-5.328517124445184
  0
LWPOLYLINE
  5
4A1
330
18
100
AcDbEntity
  8
TEXT
100
AcDbPolyline
 90
        2
 70
     0
 43
0.0
 10
3.721203985986958
 20
3.403238564619042
 10
3.721203985986958
 20
3.359747619668604
  0
LINE
  5
4A2
330
18
100
AcDbEntity
  8
TEXT
100
AcDbLine
 10
3.781161214981421
 20
3.626220652657115
 30
0.0
 11
3.71726430868192
 21
3.626220652657115
 31
0.0
  0
LINE
  5
4A3
330
18
100
AcDbEntity
  8
TEXT
100
AcDbLine
 10
3.71726430868192
 20
3.626220652657115
 30
0.0
 11
3.71726430868192
 21
3.521008674103687
 31
0.0
  0
LINE
  5
4A4
330
18
100
AcDbEntity
  8
TEXT
100
AcDbLine
 10
3.71726430868192
 20
3.521008674103687
 30
0.0
 11
3.673513537500018
 21
3.603258950099832
 31
0.0
  0
ARC
  5
4A5
330
18
100
AcDbEntity
  8
TEXT
100
AcDbCircle
 10
3.804465075104952
 20
3.537038082717686
 30
0.0
 40
0.0249058752826653
100
AcDbArc
 50
89.99971217465335
 51
179.9999999999985
  0
ARC
  5
4A6
330
18
100
AcDbEntity
  8
TEXT
100
AcDbCircle
 10
3.812354032044529
 20
3.59497492537485
 30
0.0
 40
0.0314112657011332
100
AcDbArc
 50
95.88484768694724
 51
173.2388340632136
  0
LINE
  5
4A7
330
18
100
AcDbEntity
  8
TEXT
100
AcDbLine
 10
3.781161214981421
 20
3.59867300279624
 30
0.0
 11
3.781161214981421
 21
3.626220652657115
 31
0.0
  0
TEXT
  5
4A8
330
18
100
AcDbEntity
  8
TEXT
100
AcDbText
 10
4.250036734403211
 20
3.4526334283141
 30
0.0
 40
0.0522247191011236
  1
Minneapolis, MN 55432-0008
 41
1.11444212721585
 72
     5
 11
5.578969318672875
 21
3.4526334283141
 31
0.0
100
AcDbText
  0
TEXT
  5
4A9
330
18
100
AcDbEntity
  8
TEXT
100
AcDbText
 10
4.250036734403211
 20
3.545891855280392
 30
0.0
 40
0.0522247191011236
  1
6536 Main St. N.E. * P.O. Box 32008
 41
0.8388932496075355
 72
     5
 11
5.578969318672875
 21
3.545891855280392
 31
0.0
100
AcDbText
  0
TEXT
  5
4AA
330
18
100
AcDbEntity
  8
TEXT
100
AcDbText
 10
4.250036734403211
 20
3.639150282246684
 30
0.0
 40
0.0522247191011236
  1
Stylmark  Incorporated
 41
1.221428571428571
 72
     5
 11
5.578969318672875
 21
3.639150282246684
 31
0.0
100
AcDbText
  0
TEXT
  5
4AB
330
18
100
AcDbEntity
  8
TEXT
100
AcDbText
 10
4.250036734403211
 20
3.359375001347808
 30
0.0
 40
0.0522247191011236
  1
Phone  1-800-328-2495
 41
1.272321428571429
 72
     5
 11
5.578969318672875
 21
3.359375001347808
 31
0.0
100
AcDbText
  0
LINE
  5
4AC
330
18
100
AcDbEntity
  8
TEXT
100
AcDbLine
 10
4.002480922940196
 20
3.516327409716141
 30
0.0
 11
4.067038038905901
 21
3.626220652657115
 31
0.0
  0
LINE
  5
4AD
330
18
100
AcDbEntity
  8
TEXT
100
AcDbLine
 10
4.067038038905901
 20
3.626220652657115
 30
0.0
 11
3.992046206176275
 21
3.626220652657115
 31
0.0
  0
LINE
  5
4AE
330
18
100
AcDbEntity
  8
TEXT
100
AcDbLine
 10
4.021394773927601
 20
3.359747619668604
 30
0.0
 11
4.097973146303806
 21
3.359747619668604
 31
0.0
  0
LINE
  5
4AF
330
18
100
AcDbEntity
  8
TEXT
100
AcDbLine
 10
4.097973146303806
 20
3.359747619668604
 30
0.0
 11
4.002480922940196
 21
3.516327409716141
 31
0.0
  0
LINE
  5
4B0
330
18
100
AcDbEntity
  8
TEXT
100
AcDbLine
 10
3.945491240716136
 20
3.359747619668604
 30
0.0
 11
3.945491240716136
 21
3.491327188144784
 31
0.0
  0
LINE
  5
4B1
330
18
100
AcDbEntity
  8
TEXT
100
AcDbLine
 10
3.945491240716136
 20
3.491327188144784
 30
0.0
 11
4.021394773927601
 21
3.359747619668604
 31
0.0
  0
LINE
  5
4B2
330
18
100
AcDbEntity
  8
TEXT
100
AcDbLine
 10
3.88111305639751
 20
3.561943958000349
 30
0.0
 11
3.881113056397516
 21
3.359747619668604
 31
0.0
  0
LINE
  5
4B3
330
18
100
AcDbEntity
  8
TEXT
100
AcDbLine
 10
3.881113056397516
 20
3.359747619668604
 30
0.0
 11
3.945491240716136
 21
3.359747619668604
 31
0.0
  0
LINE
  5
4B4
330
18
100
AcDbEntity
  8
TEXT
100
AcDbLine
 10
3.944948047620289
 20
3.691684858424715
 30
0.0
 11
3.876633169071015
 21
3.691684858424715
 31
0.0
  0
LINE
  5
4B5
330
18
100
AcDbEntity
  8
TEXT
100
AcDbLine
 10
3.876633169071015
 20
3.691684858424715
 30
0.0
 11
3.87663316907101
 21
3.626220652657115
 31
0.0
  0
LINE
  5
4B6
330
18
100
AcDbEntity
  8
TEXT
100
AcDbLine
 10
3.992046206176273
 20
3.626220652657115
 30
0.0
 11
3.944948047620289
 21
3.550355326245576
 31
0.0
  0
LINE
  5
4B7
330
18
100
AcDbEntity
  8
TEXT
100
AcDbLine
 10
3.944948047620289
 20
3.550355326245576
 30
0.0
 11
3.944948047620289
 21
3.691684858424715
 31
0.0
  0
ENDSEC
  0
SECTION
  2
OBJECTS
  0
DICTIONARY
  5
C
330
0
100
AcDbDictionary
  3
ACAD_GROUP
350
D
  3
ACAD_LAYOUT
350
4BC
  3
ACAD_MLINESTYLE
350
E
  3
ACAD_PLOTSETTINGS
350
4BD
  3
ACAD_PLOTSTYLENAME
350
4BA
  3
ACDBHEADERROUNDTRIPXREC
350
4C8
  3
ACDBVARIABLEDICTIONARY
350
4C5
  0
DICTIONARY
  5
4EA
330
18
100
AcDbDictionary
280
     1
  3
ACAD_LAYOUTSELFREF
360
4EB
  0
DICTIONARY
  5
4E8
330
15
100
AcDbDictionary
280
     1
  3
ACAD_LAYOUTSELFREF
360
4E9
  0
DICTIONARY
  5
D
102
{ACAD_REACTORS
330
C
102
}
330
C
100
AcDbDictionary
  0
DICTIONARY
  5
4BC
102
{ACAD_REACTORS
330
C
102
}
330
C
100
AcDbDictionary
  0
DICTIONARY
  5
E
102
{ACAD_REACTORS
330
C
102
}
330
C
100
AcDbDictionary
  3
STANDARD
350
1B
  0
DICTIONARY
  5
4BD
102
{ACAD_REACTORS
330
C
102
}
330
C
100
AcDbDictionary
  0
ACDBDICTIONARYWDFLT
  5
4BA
102
{ACAD_REACTORS
330
C
102
}
330
C
100
AcDbDictionary
281
     1
  3
Normal
350
4BB
100
AcDbDictionaryWithDefault
340
4BB
  0
DICTIONARY
  5
4C8
102
{ACAD_REACTORS
330
C
102
}
330
C
100
AcDbDictionary
  3
CEPSNTYPE
350
4D2
  3
FINGERPRINTGUID
350
4D3
  3
HYPERLINKBASE
350
4CB
  3
INSUNITS
350
4D1
  3
LAYOUTDICT
350
4CD
  3
LWETCUNION
350
4D0
  3
PLOTSETDICT
350
4CE
  3
PLOTSTYLNAMDICT
350
4CF
  3
PSVPSCALE
350
4D5
  3
PUCSBASE
350
4D8
  3
PUCSORGBACK
350
4DE
  3
PUCSORGBOTTOM
350
4DA
  3
PUCSORGFRONT
350
4DD
  3
PUCSORGLEFT
350
4DB
  3
PUCSORGRIGHT
350
4DC
  3
PUCSORGTOP
350
4D9
  3
PUCSORTHOREF
350
4D6
  3
PUCSORTHOVIEW
350
4D7
  3
STYLESHEET
350
4CC
  3
TSTACKALIGN
350
4C9
  3
TSTACKSIZE
350
4CA
  3
UCSBASE
350
4E1
  3
UCSORGBACK
350
4E7
  3
UCSORGBOTTOM
350
4E3
  3
UCSORGFRONT
350
4E6
  3
UCSORGLEFT
350
4E4
  3
UCSORGRIGHT
350
4E5
  3
UCSORGTOP
350
4E2
  3
UCSORTHOREF
350
4DF
  3
UCSORTHOVIEW
350
4E0
  3
VERSIONGUID
350
4D4
  0
DICTIONARY
  5
4C5
102
{ACAD_REACTORS
330
C
102
}
330
C
100
AcDbDictionary
  3
DIMASSOC
350
4C6
  0
XRECORD
  5
4EB
102
{ACAD_REACTORS
330
4EA
102
}
330
4EA
100
AcDbXrecord
340
18
  0
XRECORD
  5
4E9
102
{ACAD_REACTORS
330
4E8
102
}
330
4E8
100
AcDbXrecord
340
15
  0
MLINESTYLE
  5
1B
102
{ACAD_REACTORS
330
E
102
}
330
E
100
AcDbMlineStyle
  2
STANDARD
 70
     0
  3

 62
     0
 51
90.0
 52
90.0
 71
     2
 49
0.5
 62
   256
  6
BYLAYER
 49
-0.5
 62
   256
  6
BYLAYER
  0
ACDBPLACEHOLDER
  5
4BB
102
{ACAD_REACTORS
330
4BA
102
}
330
4BA
100
AcDbPlaceHolder
280
     0
  0
XRECORD
  5
4D2
102
{ACAD_REACTORS
330
4C8
102
}
330
4C8
100
AcDbXrecord
 90
        0
  0
XRECORD
  5
4D3
102
{ACAD_REACTORS
330
4C8
102
}
330
4C8
100
AcDbXrecord
  1
{A826B1F0-8DB5-11D6-88E6-0090279574E7}
  0
XRECORD
  5
4CB
102
{ACAD_REACTORS
330
4C8
102
}
330
4C8
100
AcDbXrecord
  1

  0
XRECORD
  5
4D1
102
{ACAD_REACTORS
330
4C8
102
}
330
4C8
100
AcDbXrecord
 90
        0
  0
XRECORD
  5
4CD
102
{ACAD_REACTORS
330
4C8
102
}
330
4C8
100
AcDbXrecord
340
4BC
  0
XRECORD
  5
4D0
102
{ACAD_REACTORS
330
4C8
102
}
330
4C8
100
AcDbXrecord
 90
    14877
  0
XRECORD
  5
4CE
102
{ACAD_REACTORS
330
4C8
102
}
330
4C8
100
AcDbXrecord
340
4BD
  0
XRECORD
  5
4CF
102
{ACAD_REACTORS
330
4C8
102
}
330
4C8
100
AcDbXrecord
340
4BA
  0
XRECORD
  5
4D5
102
{ACAD_REACTORS
330
4C8
102
}
330
4C8
100
AcDbXrecord
 40
0.0
  0
XRECORD
  5
4D8
102
{ACAD_REACTORS
330
4C8
102
}
330
4C8
100
AcDbXrecord
340
0
  0
XRECORD
  5
4DE
102
{ACAD_REACTORS
330
4C8
102
}
330
4C8
100
AcDbXrecord
 10
0.0
 20
0.0
 30
0.0
  0
XRECORD
  5
4DA
102
{ACAD_REACTORS
330
4C8
102
}
330
4C8
100
AcDbXrecord
 10
0.0
 20
0.0
 30
0.0
  0
XRECORD
  5
4DD
102
{ACAD_REACTORS
330
4C8
102
}
330
4C8
100
AcDbXrecord
 10
0.0
 20
0.0
 30
0.0
  0
XRECORD
  5
4DB
102
{ACAD_REACTORS
330
4C8
102
}
330
4C8
100
AcDbXrecord
 10
0.0
 20
0.0
 30
0.0
  0
XRECORD
  5
4DC
102
{ACAD_REACTORS
330
4C8
102
}
330
4C8
100
AcDbXrecord
 10
0.0
 20
0.0
 30
0.0
  0
XRECORD
  5
4D9
102
{ACAD_REACTORS
330
4C8
102
}
330
4C8
100
AcDbXrecord
 10
0.0
 20
0.0
 30
0.0
  0
XRECORD
  5
4D6
102
{ACAD_REACTORS
330
4C8
102
}
330
4C8
100
AcDbXrecord
340
0
  0
XRECORD
  5
4D7
102
{ACAD_REACTORS
330
4C8
102
}
330
4C8
100
AcDbXrecord
 70
     0
  0
XRECORD
  5
4CC
102
{ACAD_REACTORS
330
4C8
102
}
330
4C8
100
AcDbXrecord
  1

  0
XRECORD
  5
4C9
102
{ACAD_REACTORS
330
4C8
102
}
330
4C8
100
AcDbXrecord
 90
        1
  0
XRECORD
  5
4CA
102
{ACAD_REACTORS
330
4C8
102
}
330
4C8
100
AcDbXrecord
 90
       70
  0
XRECORD
  5
4E1
102
{ACAD_REACTORS
330
4C8
102
}
330
4C8
100
AcDbXrecord
340
0
  0
XRECORD
  5
4E7
102
{ACAD_REACTORS
330
4C8
102
}
330
4C8
100
AcDbXrecord
 10
0.0
 20
0.0
 30
0.0
  0
XRECORD
  5
4E3
102
{ACAD_REACTORS
330
4C8
102
}
330
4C8
100
AcDbXrecord
 10
0.0
 20
0.0
 30
0.0
  0
XRECORD
  5
4E6
102
{ACAD_REACTORS
330
4C8
102
}
330
4C8
100
AcDbXrecord
 10
0.0
 20
0.0
 30
0.0
  0
XRECORD
  5
4E4
102
{ACAD_REACTORS
330
4C8
102
}
330
4C8
100
AcDbXrecord
 10
0.0
 20
0.0
 30
0.0
  0
XRECORD
  5
4E5
102
{ACAD_REACTORS
330
4C8
102
}
330
4C8
100
AcDbXrecord
 10
0.0
 20
0.0
 30
0.0
  0
XRECORD
  5
4E2
102
{ACAD_REACTORS
330
4C8
102
}
330
4C8
100
AcDbXrecord
 10
0.0
 20
0.0
 30
0.0
  0
XRECORD
  5
4DF
102
{ACAD_REACTORS
330
4C8
102
}
330
4C8
100
AcDbXrecord
340
0
  0
XRECORD
  5
4E0
102
{ACAD_REACTORS
330
4C8
102
}
330
4C8
100
AcDbXrecord
 70
     0
  0
XRECORD
  5
4D4
102
{ACAD_REACTORS
330
4C8
102
}
330
4C8
100
AcDbXrecord
  1
{A826B1F2-8DB5-11D6-88E6-0090279574E7}
  0
DICTIONARYVAR
  5
4C6
102
{ACAD_REACTORS
330
4C5
102
}
330
4C5
100
DictionaryVariables
280
     0
  1
1
  0
ENDSEC
  0
EOF
