  0
SECTION
  2
HEADER
  9
$ACADVER
  1
AC1014
  9
$ACADMAINTVER
 70
     9
  9
$DWGCODEPAGE
  3
ANSI_1252
  9
$INSBASE
 10
2.511051832532731
 20
0.5305515408266776
 30
0.0
  9
$EXTMIN
 10
0.7993202533055884
 20
-0.2431460592986296
 30
0.0
  9
$EXTMAX
 10
4.284539575052717
 20
2.287023627738757
 30
0.0
  9
$LIMMIN
 10
0.0
 20
0.0
  9
$LIMMAX
 10
18.0
 20
12.0
  9
$ORTHOMODE
 70
     1
  9
$REGENMODE
 70
     1
  9
$FILLMODE
 70
     1
  9
$QTEXTMODE
 70
     0
  9
$MIRRTEXT
 70
     0
  9
$DRAGMODE
 70
     2
  9
$LTSCALE
 40
1.0
  9
$OSMODE
 70
    39
  9
$ATTMODE
 70
     1
  9
$TEXTSIZE
 40
0.125
  9
$TRACEWID
 40
0.05
  9
$TEXTSTYLE
  7
ROMANS
  9
$CLAYER
  8
0
  9
$CELTYPE
  6
BYLAYER
  9
$CECOLOR
 62
   256
  9
$CELTSCALE
 40
1.0
  9
$DELOBJ
 70
     1
  9
$DISPSILH
 70
     1
  9
$DIMSCALE
 40
1.0
  9
$DIMASZ
 40
0.125
  9
$DIMEXO
 40
0.125
  9
$DIMDLI
 40
0.375
  9
$DIMRND
 40
0.0
  9
$DIMDLE
 40
0.0
  9
$DIMEXE
 40
0.125
  9
$DIMTP
 40
0.0
  9
$DIMTM
 40
0.0
  9
$DIMTXT
 40
0.125
  9
$DIMCEN
 40
-0.125
  9
$DIMTSZ
 40
0.0
  9
$DIMTOL
 70
     0
  9
$DIMLIM
 70
     0
  9
$DIMTIH
 70
     1
  9
$DIMTOH
 70
     1
  9
$DIMSE1
 70
     0
  9
$DIMSE2
 70
     0
  9
$DIMTAD
 70
     0
  9
$DIMZIN
 70
     4
  9
$DIMBLK
  1

  9
$DIMASO
 70
     1
  9
$DIMSHO
 70
     1
  9
$DIMPOST
  1

  9
$DIMAPOST
  1

  9
$DIMALT
 70
     0
  9
$DIMALTD
 70
     2
  9
$DIMALTF
 40
25.4
  9
$DIMLFAC
 40
1.0
  9
$DIMTOFL
 70
     0
  9
$DIMTVP
 40
0.0
  9
$DIMTIX
 70
     1
  9
$DIMSOXD
 70
     0
  9
$DIMSAH
 70
     0
  9
$DIMBLK1
  1

  9
$DIMBLK2
  1

  9
$DIMSTYLE
  2
STANDARD
  9
$DIMCLRD
 70
     0
  9
$DIMCLRE
 70
     0
  9
$DIMCLRT
 70
     0
  9
$DIMTFAC
 40
1.0
  9
$DIMGAP
 40
0.09
  9
$DIMJUST
 70
     0
  9
$DIMSD1
 70
     0
  9
$DIMSD2
 70
     0
  9
$DIMTOLJ
 70
     1
  9
$DIMTZIN
 70
     4
  9
$DIMALTZ
 70
     0
  9
$DIMALTTZ
 70
     0
  9
$DIMFIT
 70
     3
  9
$DIMUPT
 70
     0
  9
$DIMUNIT
 70
     2
  9
$DIMDEC
 70
     3
  9
$DIMTDEC
 70
     3
  9
$DIMALTU
 70
     2
  9
$DIMALTTD
 70
     2
  9
$DIMTXSTY
  7
ROMANS
  9
$DIMAUNIT
 70
     0
  9
$LUNITS
 70
     2
  9
$LUPREC
 70
     3
  9
$SKETCHINC
 40
0.1
  9
$FILLETRAD
 40
0.03125
  9
$AUNITS
 70
     0
  9
$AUPREC
 70
     0
  9
$MENU
  1
ACAD
  9
$ELEVATION
 40
0.0
  9
$PELEVATION
 40
0.0
  9
$THICKNESS
 40
0.0
  9
$LIMCHECK
 70
     0
  9
$BLIPMODE
 70
     0
  9
$CHAMFERA
 40
0.0
  9
$CHAMFERB
 40
0.0
  9
$CHAMFERC
 40
0.0
  9
$CHAMFERD
 40
0.0
  9
$SKPOLY
 70
     0
  9
$TDCREATE
 40
2448994.527322222
  9
$TDUPDATE
 40
2452458.303656053
  9
$TDINDWG
 40
0.0004826273
  9
$TDUSRTIMER
 40
0.0004826273
  9
$USRTIMER
 70
     1
  9
$ANGBASE
 50
0.0
  9
$ANGDIR
 70
     0
  9
$PDMODE
 70
     0
  9
$PDSIZE
 40
0.0
  9
$PLINEWID
 40
0.0
  9
$COORDS
 70
     2
  9
$SPLFRAME
 70
     0
  9
$SPLINETYPE
 70
     6
  9
$SPLINESEGS
 70
     8
  9
$ATTDIA
 70
     0
  9
$ATTREQ
 70
     1
  9
$HANDLING
 70
 22529
  9
$HANDSEED
  5
7DE1B343D9E3C98
  9
$SURFTAB1
 70
     6
  9
$SURFTAB2
 70
     6
  9
$SURFTYPE
 70
     6
  9
$SURFU
 70
     6
  9
$SURFV
 70
     6
  9
$UCSNAME
  2

  9
$UCSORG
 10
0.0
 20
0.0
 30
0.0
  9
$UCSXDIR
 10
1.0
 20
0.0
 30
0.0
  9
$UCSYDIR
 10
0.0
 20
1.0
 30
0.0
  9
$PUCSNAME
  2

  9
$PUCSORG
 10
0.0
 20
0.0
 30
0.0
  9
$PUCSXDIR
 10
1.0
 20
0.0
 30
0.0
  9
$PUCSYDIR
 10
0.0
 20
1.0
 30
0.0
  9
$USERI1
 70
     0
  9
$USERI2
 70
     0
  9
$USERI3
 70
     0
  9
$USERI4
 70
     0
  9
$USERI5
 70
     0
  9
$USERR1
 40
0.0
  9
$USERR2
 40
0.0
  9
$USERR3
 40
0.0
  9
$USERR4
 40
0.0
  9
$USERR5
 40
0.0
  9
$WORLDVIEW
 70
     1
  9
$SHADEDGE
 70
     3
  9
$SHADEDIF
 70
    70
  9
$TILEMODE
 70
     1
  9
$MAXACTVP
 70
    16
  9
$PINSBASE
 10
0.673326038733036
 20
50.00000000000001
 30
2.887195126899726
  9
$PLIMCHECK
 70
     0
  9
$PEXTMIN
 10
1.000000000000000E+20
 20
1.000000000000000E+20
 30
1.000000000000000E+20
  9
$PEXTMAX
 10
-1.000000000000000E+20
 20
-1.000000000000000E+20
 30
-1.000000000000000E+20
  9
$PLIMMIN
 10
0.0
 20
0.0
  9
$PLIMMAX
 10
12.0
 20
9.0
  9
$UNITMODE
 70
     0
  9
$VISRETAIN
 70
     0
  9
$PLINEGEN
 70
     1
  9
$PSLTSCALE
 70
     0
  9
$TREEDEPTH
 70
  3020
  9
$PICKSTYLE
 70
     1
  9
$CMLSTYLE
  2
STANDARD
  9
$CMLJUST
 70
     0
  9
$CMLSCALE
 40
1.0
  9
$PROXYGRAPHICS
 70
     1
  9
$MEASUREMENT
 70
     0
  0
ENDSEC
  0
SECTION
  2
CLASSES
  0
CLASS
  1
LWPOLYLINE
  2
AcDbPolyline
  3
AutoCAD 2000
 90
        0
280
     0
281
     1
  0
CLASS
  1
ACDBDICTIONARYWDFLT
  2
AcDbDictionaryWithDefault
  3
AutoCAD 2000
 90
        0
280
     0
281
     0
  0
CLASS
  1
ACDBPLACEHOLDER
  2
AcDbPlaceHolder
  3
AutoCAD 2000
 90
        0
280
     0
281
     0
  0
CLASS
  1
LAYOUT
  2
AcDbLayout
  3
AutoCAD 2000
 90
        0
280
     0
281
     0
  0
CLASS
  1
DICTIONARYVAR
  2
AcDbDictionaryVar
  3
AutoCAD 2000
 90
        0
280
     0
281
     0
  0
CLASS
  1
LONG_TRANSACTION
  2
AcDbLongTransaction
  3
AutoCAD 2000
 90
        0
280
     0
281
     0
  0
CLASS
  1
LWPOLYLINE
  2
AcDbPolyline
  3
AutoCAD 2000
 90
        0
280
     0
281
     1
  0
CLASS
  1
HATCH
  2
AcDbHatch
  3
AutoCAD 2000
 90
        0
280
     0
281
     1
  0
CLASS
  1
XRECORD
  2
AcDbXrecord
  3
AutoCAD 2000
 90
        0
280
     0
281
     0
  0
ENDSEC
  0
SECTION
  2
TABLES
  0
TABLE
  2
VPORT
  5
7DE1B343D9E3C3F
330
0
100
AcDbSymbolTable
 70
     2
  0
VPORT
  5
7DE1B343D9E3C73
330
7DE1B343D9E3C3F
100
AcDbSymbolTableRecord
100
AcDbViewportTableRecord
  2
*ACTIVE
 70
     0
 10
0.0
 20
0.0
 11
1.0
 21
1.0
 12
6.268289768187733
 22
1.022155908433323
 13
0.0
 23
0.0
 14
0.015625
 24
0.015625
 15
0.0
 25
0.0
 16
0.0
 26
0.0
 36
1.0
 17
0.0
 27
0.0
 37
0.0
 40
2.857734502372683
 41
4.320930232558139
 42
50.0
 43
0.0
 44
0.0
 50
0.0
 51
0.0
 71
     0
 72
  2000
 73
     1
 74
     0
 75
     0
 76
     0
 77
     0
 78
     0
  0
ENDTAB
  0
TABLE
  2
LTYPE
  5
7DE1B343D9E3C3C
330
0
100
AcDbSymbolTable
 70
     1
  0
LTYPE
  5
7DE1B343D9E3C49
330
7DE1B343D9E3C3C
100
AcDbSymbolTableRecord
100
AcDbLinetypeTableRecord
  2
BYBLOCK
 70
     0
  3

 72
    65
 73
     0
 40
0.0
  0
LTYPE
  5
7DE1B343D9E3C4A
330
7DE1B343D9E3C3C
100
AcDbSymbolTableRecord
100
AcDbLinetypeTableRecord
  2
BYLAYER
 70
     0
  3

 72
    65
 73
     0
 40
0.0
  0
LTYPE
  5
7DE1B343D9E3C4B
330
7DE1B343D9E3C3C
100
AcDbSymbolTableRecord
100
AcDbLinetypeTableRecord
  2
CONTINUOUS
 70
     0
  3
Solid line
 72
    65
 73
     0
 40
0.0
  0
ENDTAB
  0
TABLE
  2
LAYER
  5
7DE1B343D9E3C39
330
0
100
AcDbSymbolTable
 70
     2
  0
LAYER
  5
7DE1B343D9E3C46
330
7DE1B343D9E3C39
100
AcDbSymbolTableRecord
100
AcDbLayerTableRecord
  2
0
 70
     0
 62
     7
  6
CONTINUOUS
  0
LAYER
  5
7DE1B343D9E3C56
330
7DE1B343D9E3C39
100
AcDbSymbolTableRecord
100
AcDbLayerTableRecord
  2
TEXT
 70
     0
 62
     3
  6
CONTINUOUS
  0
ENDTAB
  0
TABLE
  2
STYLE
  5
7DE1B343D9E3C3A
330
0
100
AcDbSymbolTable
 70
     3
  0
STYLE
  5
7DE1B343D9E3C47
330
7DE1B343D9E3C3A
100
AcDbSymbolTableRecord
100
AcDbTextStyleTableRecord
  2
STANDARD
 70
     0
 40
0.0
 41
1.0
 50
0.0
 71
     0
 42
0.3125
  3
txt
  4

  0
STYLE
  5
7DE1B343D9E3C53
330
7DE1B343D9E3C3A
100
AcDbSymbolTableRecord
100
AcDbTextStyleTableRecord
  2
ITALICC
 70
     0
 40
0.0
 41
1.0
 50
0.0
 71
     0
 42
0.125
  3
italicc
  4

  0
STYLE
  5
7DE1B343D9E3C63
330
7DE1B343D9E3C3A
100
AcDbSymbolTableRecord
100
AcDbTextStyleTableRecord
  2
ROMANS
 70
     0
 40
0.0
 41
1.0
 50
0.0
 71
     0
 42
0.125
  3
romans.shx
  4

  0
ENDTAB
  0
TABLE
  2
VIEW
  5
7DE1B343D9E3C3D
330
0
100
AcDbSymbolTable
 70
     0
  0
ENDTAB
  0
TABLE
  2
UCS
  5
7DE1B343D9E3C3E
330
0
100
AcDbSymbolTable
 70
     0
  0
ENDTAB
  0
TABLE
  2
APPID
  5
7DE1B343D9E3C40
330
0
100
AcDbSymbolTable
 70
     1
  0
APPID
  5
7DE1B343D9E3C48
330
7DE1B343D9E3C40
100
AcDbSymbolTableRecord
100
AcDbRegAppTableRecord
  2
ACAD
 70
     0
  0
ENDTAB
  0
TABLE
  2
DIMSTYLE
  5
7DE1B343D9E3C41
330
0
100
AcDbSymbolTable
 70
     1
  0
DIMSTYLE
105
7DE1B343D9E3C5B
330
7DE1B343D9E3C41
100
AcDbSymbolTableRecord
100
AcDbDimStyleTableRecord
  2
STANDARD
 70
     0
  3

  4

  5

  6

  7

 40
1.0
 41
0.125
 42
0.125
 43
0.375
 44
0.125
 45
0.0
 46
0.0
 47
0.0
 48
0.0
140
0.125
141
-0.125
142
0.0
143
25.4
144
1.0
145
0.0
146
1.0
147
0.09
 71
     0
 72
     0
 73
     1
 74
     1
 75
     0
 76
     0
 77
     0
 78
     4
170
     0
171
     2
172
     0
173
     0
174
     1
175
     0
176
     0
177
     0
178
     0
270
     2
271
     3
272
     3
273
     2
274
     2
340
7DE1B343D9E3C63
275
     0
280
     0
281
     0
282
     0
283
     1
284
     4
285
     0
286
     0
287
     3
288
     0
  0
ENDTAB
  0
TABLE
  2
BLOCK_RECORD
  5
7DE1B343D9E3C38
330
0
100
AcDbSymbolTable
 70
     0
  0
BLOCK_RECORD
  5
7DE1B343D9E3C4F
102
{ACAD_XDICTIONARY
360
7DE1B343D9E3C96
102
}
330
7DE1B343D9E3C38
100
AcDbSymbolTableRecord
100
AcDbBlockTableRecord
  2
*MODEL_SPACE
  0
BLOCK_RECORD
  5
7DE1B343D9E3C4C
102
{ACAD_XDICTIONARY
360
7DE1B343D9E3C94
102
}
330
7DE1B343D9E3C38
100
AcDbSymbolTableRecord
100
AcDbBlockTableRecord
  2
*PAPER_SPACE
  0
ENDTAB
  0
ENDSEC
  0
SECTION
  2
BLOCKS
  0
BLOCK
  5
7DE1B343D9E3C59
330
7DE1B343D9E3C4F
100
AcDbEntity
  8
0
100
AcDbBlockBegin
  2
*MODEL_SPACE
 70
     0
 10
0.0
 20
0.0
 30
0.0
  3
*MODEL_SPACE
  1

  0
ENDBLK
  5
7DE1B343D9E3C5A
330
7DE1B343D9E3C4F
100
AcDbEntity
  8
0
100
AcDbBlockEnd
  0
BLOCK
  5
7DE1B343D9E3C57
330
7DE1B343D9E3C4C
100
AcDbEntity
 67
     1
  8
0
100
AcDbBlockBegin
  2
*PAPER_SPACE
 70
     0
 10
0.0
 20
0.0
 30
0.0
  3
*PAPER_SPACE
  1

  0
ENDBLK
  5
7DE1B343D9E3C58
330
7DE1B343D9E3C4C
100
AcDbEntity
 67
     1
  8
0
100
AcDbBlockEnd
  0
ENDSEC
  0
SECTION
  2
ENTITIES
  0
LWPOLYLINE
  5
7DE1B343D9E280E
330
7DE1B343D9E3C4F
100
AcDbEntity
  8
0
100
AcDbPolyline
 90
       34
 70
     1
 43
0.0
 10
2.840830403489454
 20
1.067788823009823
 10
2.306273261576008
 20
1.211022977493819
 42
-0.3394542588633759
 10
2.167301832532731
 20
1.39213406992302
 10
2.167301832532731
 20
2.030551540826677
 42
-0.4142135623730951
 10
2.354801832532731
 20
2.218051540826677
 10
2.698551832532731
 20
2.218051540826677
 42
-0.4142135623730951
 10
2.886051832532731
 20
2.030551540826677
 10
2.886051832532731
 20
2.014926540826677
 42
1.0
 10
2.979801832532731
 20
2.014926540826677
 10
2.979801832532731
 20
2.249301540826677
 42
0.4142135623730951
 10
2.948551832532731
 20
2.280551540826677
 10
2.136051832532731
 20
2.280551540826677
 42
0.4142135623730951
 10
2.104801832532731
 20
2.249301540826677
 10
2.104801832532731
 20
0.9055515408266778
 10
2.486051832532731
 20
0.9055515408266778
 10
2.486051832532731
 20
0.8430515408266778
 10
2.464176832532731
 20
0.8430515408266778
 10
2.486051832532731
 20
0.7493015408266779
 10
2.464176832532731
 20
0.7493015408266779
 10
2.486051832532731
 20
0.6555515408266779
 10
2.464176832532731
 20
0.6555515408266779
 10
2.496623847601798
 20
0.5414487063390638
 42
0.7552797957962065
 10
2.525479817463665
 20
0.5414487063390638
 10
2.557926832532731
 20
0.6555515408266779
 10
2.536051832532731
 20
0.6555515408266779
 10
2.557926832532731
 20
0.7493015408266779
 10
2.536051832532731
 20
0.7493015408266779
 10
2.557926832532731
 20
0.8430515408266778
 10
2.536051832532731
 20
0.8430515408266778
 10
2.536051832532731
 20
0.9055515408266778
 10
2.917301832532731
 20
0.9055515408266778
 10
2.917301832532731
 20
0.8743015408266778
 42
1.0
 10
2.979801832532731
 20
0.8743015408266778
 10
2.979801832532731
 20
0.8866777305806225
 42
0.3394542588633759
  0
TEXT
  5
7DE1B343D9E3AFA
330
7DE1B343D9E3C4F
100
AcDbEntity
  8
TEXT
100
AcDbText
 10
1.789325642056541
 20
0.2148725447839519
 30
0.0
 40
0.125
  1
PART #110258
  7
ITALICC
 72
     1
 11
2.542301832532731
 21
0.2148725447839519
 31
0.0
100
AcDbText
  0
TEXT
  5
7DE1B343D9E3AFB
330
7DE1B343D9E3C4F
100
AcDbEntity
  8
TEXT
100
AcDbText
 10
2.955606990783052
 20
-0.2320500978884232
 30
0.0
 40
0.0522247191011236
  1
Phone  1-800-328-2495
 41
1.272321428571429
 72
     5
 11
4.284539575052716
 21
-0.2320500978884232
 31
0.0
100
AcDbText
  0
TEXT
  5
7DE1B343D9E3AFC
330
7DE1B343D9E3C4F
100
AcDbEntity
  8
TEXT
100
AcDbText
 10
2.955606990783052
 20
0.0477251830104533
 30
0.0
 40
0.0522247191011236
  1
Stylmark  Incorporated
 41
1.221428571428573
 72
     5
 11
4.284539575052716
 21
0.0477251830104533
 31
0.0
100
AcDbText
  0
TEXT
  5
7DE1B343D9E3AFD
330
7DE1B343D9E3C4F
100
AcDbEntity
  8
TEXT
100
AcDbText
 10
2.955606990783052
 20
-0.0455332439558389
 30
0.0
 40
0.0522247191011236
  1
6536 Main St. N.E. * P.O. Box 32008
 41
0.8388932496075366
 72
     5
 11
4.284539575052716
 21
-0.0455332439558389
 31
0.0
100
AcDbText
  0
TEXT
  5
7DE1B343D9E3AFE
330
7DE1B343D9E3C4F
100
AcDbEntity
  8
TEXT
100
AcDbText
 10
2.955606990783052
 20
-0.1387916709221311
 30
0.0
 40
0.0522247191011236
  1
Minneapolis, MN 55432-0008
 41
1.11444212721585
 72
     5
 11
4.284539575052716
 21
-0.1387916709221311
 31
0.0
100
AcDbText
  0
LWPOLYLINE
  5
7DE1B343D9E3AFF
330
7DE1B343D9E3C4F
100
AcDbEntity
  8
TEXT
100
AcDbPolyline
 90
        3
 70
     0
 43
0.0006660908203125
 10
0.7996532987157448
 20
-0.1184053352509884
 10
0.7996532987157448
 20
-0.231640774704116
 10
0.912888738168867
 20
-0.231640774704116
  0
LWPOLYLINE
  5
7DE1B343D9E3B04
330
7DE1B343D9E3C4F
100
AcDbEntity
  8
TEXT
100
AcDbPolyline
 90
        3
 70
     0
 43
0.0006660908203125
 10
0.8262969315282422
 20
-0.1184053352509884
 10
0.8262969315282422
 20
-0.204997141891615
 10
0.912888738168867
 20
-0.204997141891615
  0
LWPOLYLINE
  5
7DE1B343D9E3B09
330
7DE1B343D9E3C4F
100
AcDbEntity
  8
TEXT
100
AcDbPolyline
 90
        2
 70
     0
 43
0.0001332181640625
 10
0.872923288950119
 20
-0.1084139729463032
 10
0.7996532987157448
 20
-0.1184053352509884
  0
LWPOLYLINE
  5
7DE1B343D9E3B0D
330
7DE1B343D9E3C4F
100
AcDbEntity
  8
TEXT
100
AcDbPolyline
 90
        2
 70
     0
 43
0.0001332181640625
 10
0.8262969315282422
 20
-0.1184053352509884
 10
0.8862451053563695
 20
-0.1084139729463032
  0
LWPOLYLINE
  5
7DE1B343D9E3B11
330
7DE1B343D9E3C4F
100
AcDbEntity
  8
TEXT
100
AcDbPolyline
 90
        2
 70
     0
 43
0.0001332181640625
 10
0.8262969315282422
 20
-0.204997141891615
 10
0.8862451053563695
 20
-0.1450489680634894
  0
LWPOLYLINE
  5
7DE1B343D9E3B15
330
7DE1B343D9E3C4F
100
AcDbEntity
  8
TEXT
100
AcDbPolyline
 90
        3
 70
     0
 43
0.0006660908203125
 10
0.912888738168867
 20
0.0347955534208873
 10
0.7996532987157448
 20
0.0347955534208873
 10
0.7996532987157448
 20
-0.0784398860322404
  0
LWPOLYLINE
  5
7DE1B343D9E3B1A
330
7DE1B343D9E3C4F
100
AcDbEntity
  8
TEXT
100
AcDbPolyline
 90
        3
 70
     0
 43
0.0006660908203125
 10
0.912888738168867
 20
0.0081519206083862
 10
0.8262969315282422
 20
0.0081519206083862
 10
0.8262969315282422
 20
-0.0784398860322404
  0
LWPOLYLINE
  5
7DE1B343D9E3B1F
330
7DE1B343D9E3C4F
100
AcDbEntity
  8
TEXT
100
AcDbPolyline
 90
        2
 70
     0
 43
0.0001332181640625
 10
0.8262969315282422
 20
0.0081519206083862
 10
0.8862451053563678
 20
-0.0517962532197394
  0
LWPOLYLINE
  5
7DE1B343D9E3B23
330
7DE1B343D9E3C4F
100
AcDbEntity
  8
TEXT
100
AcDbPolyline
 90
        2
 70
     0
 43
0.0001332181640625
 10
0.8262969315282422
 20
-0.0784398860322404
 10
0.8862451053563678
 20
-0.0884312483369292
  0
LWPOLYLINE
  5
7DE1B343D9E3B27
330
7DE1B343D9E3C4F
100
AcDbEntity
  8
TEXT
100
AcDbPolyline
 90
        2
 70
     0
 43
0.0001332181640625
 10
0.7996532987157448
 20
-0.0784398860322404
 10
0.872923288950119
 20
-0.0884312483369292
  0
LWPOLYLINE
  5
7DE1B343D9E3B2B
330
7DE1B343D9E3C4F
100
AcDbEntity
  8
TEXT
100
AcDbPolyline
 90
        2
 70
     0
 43
0.0006660908203125
 10
0.8262969315282422
 20
-0.1184053352509884
 10
0.7996532987157448
 20
-0.1184053352509884
  0
LWPOLYLINE
  5
7DE1B343D9E3B2F
330
7DE1B343D9E3C4F
100
AcDbEntity
  8
TEXT
100
AcDbPolyline
 90
        2
 70
     0
 43
0.0006660908203125
 10
0.8262969315282422
 20
-0.0784398860322404
 10
0.7996532987157448
 20
-0.0784398860322404
  0
LINE
  5
7DE1B343D9E3B33
330
7DE1B343D9E3C4F
100
AcDbEntity
  8
TEXT
100
AcDbLine
 10
2.314843727842242
 20
-0.0294811412358818
 30
0.0
 11
2.207637454454952
 21
-0.0294811412358818
 31
0.0
  0
LINE
  5
7DE1B343D9E3B34
330
7DE1B343D9E3C4F
100
AcDbEntity
  8
TEXT
100
AcDbLine
 10
2.34387462618672
 20
0.0347955534208837
 30
0.0
 11
2.209042716969661
 21
0.0347955534208837
 31
0.0
  0
ARC
  5
7DE1B343D9E3B35
330
7DE1B343D9E3C4F
100
AcDbEntity
  8
TEXT
100
AcDbCircle
 10
2.268356813362978
 20
-0.1344416958421326
 30
0.0
 40
0.0676855811441166
100
AcDbArc
 50
90.0
 51
153.7768192527749
  0
LWPOLYLINE
  5
7DE1B343D9E3B36
330
7DE1B343D9E3C4F
100
AcDbEntity
  8
TEXT
100
AcDbPolyline
 90
        2
 70
     0
 43
0.0
 10
2.206604959000142
 20
-0.1881865346171892
 42
0.2901071551932823
 10
2.249680891867778
 20
-0.2316774795676273
 42
5.328517124445801
  0
ARC
  5
7DE1B343D9E3B3A
330
7DE1B343D9E3C4F
100
AcDbEntity
  8
TEXT
100
AcDbCircle
 10
1.563225435691492
 20
-0.1718850882295775
 30
0.0
 40
0.0601160179737537
100
AcDbArc
 50
180.0000000000003
 51
264.0521544866073
  0
LINE
  5
7DE1B343D9E3B3B
330
7DE1B343D9E3C4F
100
AcDbEntity
  8
TEXT
100
AcDbLine
 10
1.56674079131704
 20
0.0691834710150219
 30
0.0
 11
1.506698186473033
 21
0.0691834710150219
 31
0.0
  0
ARC
  5
7DE1B343D9E3B3C
330
7DE1B343D9E3C4F
100
AcDbEntity
  8
TEXT
100
AcDbCircle
 10
1.330966433574522
 20
-0.0472919060256181
 30
0.0
 40
0.0820874594465043
100
AcDbArc
 50
90.0
 51
270.0
  0
LWPOLYLINE
  5
7DE1B343D9E3B3D
330
7DE1B343D9E3C4F
100
AcDbEntity
  8
TEXT
100
AcDbPolyline
 90
        2
 70
     0
 43
0.0001332181640625
 10
0.9228801004735576
 20
-0.0384744368134924
 10
0.912888738168867
 20
0.0347955534208873
  0
LWPOLYLINE
  5
7DE1B343D9E3B41
330
7DE1B343D9E3C4F
100
AcDbEntity
  8
TEXT
100
AcDbPolyline
 90
        2
 70
     0
 43
0.0001332181640625
 10
0.912888738168867
 20
0.0081519206083862
 10
0.9228801004735576
 20
-0.0517962532197394
  0
LWPOLYLINE
  5
7DE1B343D9E3B45
330
7DE1B343D9E3C4F
100
AcDbEntity
  8
TEXT
100
AcDbPolyline
 90
        3
 70
     0
 43
0.0006660908203125
 10
1.066089626840744
 20
-0.0784398860322404
 10
1.066089626840744
 20
0.0347955534208873
 10
0.9528541873876186
 20
0.0347955534208873
  0
LWPOLYLINE
  5
7DE1B343D9E3B4A
330
7DE1B343D9E3C4F
100
AcDbEntity
  8
TEXT
100
AcDbPolyline
 90
        3
 70
     0
 43
0.0006660908203125
 10
1.039445994028243
 20
-0.0784398860322404
 10
1.039445994028243
 20
0.0081519206083862
 10
0.9528541873876186
 20
0.0081519206083862
  0
LWPOLYLINE
  5
7DE1B343D9E3B4F
330
7DE1B343D9E3C4F
100
AcDbEntity
  8
TEXT
100
AcDbPolyline
 90
        2
 70
     0
 43
0.0001332181640625
 10
1.039445994028243
 20
0.0081519206083862
 10
0.9794978202001196
 20
-0.0517962532197394
  0
LWPOLYLINE
  5
7DE1B343D9E3B53
330
7DE1B343D9E3C4F
100
AcDbEntity
  8
TEXT
100
AcDbPolyline
 90
        2
 70
     0
 43
0.0001332181640625
 10
0.9528541873876186
 20
0.0081519206083862
 10
0.9428628250829298
 20
-0.0517962532197394
  0
LWPOLYLINE
  5
7DE1B343D9E3B57
330
7DE1B343D9E3C4F
100
AcDbEntity
  8
TEXT
100
AcDbPolyline
 90
        2
 70
     0
 43
0.0001332181640625
 10
0.9528541873876186
 20
0.0347955534208873
 10
0.9428628250829298
 20
-0.0384744368134924
  0
LWPOLYLINE
  5
7DE1B343D9E3B5B
330
7DE1B343D9E3C4F
100
AcDbEntity
  8
TEXT
100
AcDbPolyline
 90
        2
 70
     0
 43
0.0001332181640625
 10
0.9928196366063684
 20
-0.0884312483369292
 10
1.066089626840744
 20
-0.0784398860322404
  0
LWPOLYLINE
  5
7DE1B343D9E3B5F
330
7DE1B343D9E3C4F
100
AcDbEntity
  8
TEXT
100
AcDbPolyline
 90
        2
 70
     0
 43
0.0001332181640625
 10
1.039445994028243
 20
-0.0784398860322404
 10
0.9794978202001196
 20
-0.0884312483369292
  0
LWPOLYLINE
  5
7DE1B343D9E3B63
330
7DE1B343D9E3C4F
100
AcDbEntity
  8
TEXT
100
AcDbPolyline
 90
        2
 70
     0
 43
0.0001332181640625
 10
1.066089626840744
 20
-0.1184053352509884
 10
0.9928196366063684
 20
-0.1084139729463032
  0
LWPOLYLINE
  5
7DE1B343D9E3B67
330
7DE1B343D9E3C4F
100
AcDbEntity
  8
TEXT
100
AcDbPolyline
 90
        2
 70
     0
 43
0.0001332181640625
 10
1.039445994028243
 20
-0.1184053352509884
 10
0.9794978202001196
 20
-0.1084139729463032
  0
LWPOLYLINE
  5
7DE1B343D9E3B6B
330
7DE1B343D9E3C4F
100
AcDbEntity
  8
TEXT
100
AcDbPolyline
 90
        2
 70
     0
 43
0.0001332181640625
 10
1.039445994028243
 20
-0.204997141891615
 10
0.9794978202001196
 20
-0.1450489680634894
  0
LWPOLYLINE
  5
7DE1B343D9E3B6F
330
7DE1B343D9E3C4F
100
AcDbEntity
  8
TEXT
100
AcDbPolyline
 90
        3
 70
     0
 43
0.0006660908203125
 10
0.9528541873876186
 20
-0.204997141891615
 10
1.039445994028243
 20
-0.204997141891615
 10
1.039445994028243
 20
-0.1184053352509884
  0
LWPOLYLINE
  5
7DE1B343D9E3B74
330
7DE1B343D9E3C4F
100
AcDbEntity
  8
TEXT
100
AcDbPolyline
 90
        3
 70
     0
 43
0.0006660908203125
 10
0.9528541873876186
 20
-0.231640774704116
 10
1.066089626840744
 20
-0.231640774704116
 10
1.066089626840744
 20
-0.1184053352509884
  0
LWPOLYLINE
  5
7DE1B343D9E3B79
330
7DE1B343D9E3C4F
100
AcDbEntity
  8
TEXT
100
AcDbPolyline
 90
        5
 70
     0
 43
0.0001332181640625
 10
0.9228801004735576
 20
-0.15837078446974
 10
0.9228801004735576
 20
-0.1450489680634894
 10
0.8862451053563695
 20
-0.1450489680634894
 10
0.8862451053563695
 20
-0.1084139729463032
 10
0.872923288950119
 20
-0.1084139729463032
  0
LWPOLYLINE
  5
7DE1B343D9E3B80
330
7DE1B343D9E3C4F
100
AcDbEntity
  8
TEXT
100
AcDbPolyline
 90
        2
 70
     0
 43
0.0006660908203125
 10
0.912888738168867
 20
-0.204997141891615
 10
0.912888738168867
 20
-0.231640774704116
  0
LWPOLYLINE
  5
7DE1B343D9E3B84
330
7DE1B343D9E3C4F
100
AcDbEntity
  8
TEXT
100
AcDbPolyline
 90
        2
 70
     0
 43
0.0001332181640625
 10
0.912888738168867
 20
-0.204997141891615
 10
0.9228801004735576
 20
-0.1450489680634894
  0
LWPOLYLINE
  5
7DE1B343D9E3B88
330
7DE1B343D9E3C4F
100
AcDbEntity
  8
TEXT
100
AcDbPolyline
 90
        2
 70
     0
 43
0.0001332181640625
 10
0.912888738168867
 20
-0.231640774704116
 10
0.9228801004735576
 20
-0.15837078446974
  0
LWPOLYLINE
  5
7DE1B343D9E3B8C
330
7DE1B343D9E3C4F
100
AcDbEntity
  8
TEXT
100
AcDbPolyline
 90
        5
 70
     0
 43
0.0001332181640625
 10
0.872923288950119
 20
-0.0884312483369292
 10
0.8862451053563678
 20
-0.0884312483369292
 10
0.8862451053563678
 20
-0.0517962532197394
 10
0.9228801004735576
 20
-0.0517962532197394
 10
0.9228801004735576
 20
-0.0384744368134924
  0
LWPOLYLINE
  5
7DE1B343D9E3B93
330
7DE1B343D9E3C4F
100
AcDbEntity
  8
TEXT
100
AcDbPolyline
 90
        5
 70
     0
 43
0.0001332181640625
 10
0.9428628250829298
 20
-0.0384744368134924
 10
0.9428628250829298
 20
-0.0517962532197394
 10
0.9794978202001196
 20
-0.0517962532197394
 10
0.9794978202001196
 20
-0.0884312483369292
 10
0.9928196366063684
 20
-0.0884312483369292
  0
LWPOLYLINE
  5
7DE1B343D9E3B9A
330
7DE1B343D9E3C4F
100
AcDbEntity
  8
TEXT
100
AcDbPolyline
 90
        2
 70
     0
 43
0.0001332181640625
 10
0.9528541873876186
 20
-0.204997141891615
 10
0.9428628250829298
 20
-0.1450489680634894
  0
LWPOLYLINE
  5
7DE1B343D9E3B9E
330
7DE1B343D9E3C4F
100
AcDbEntity
  8
TEXT
100
AcDbPolyline
 90
        2
 70
     0
 43
0.0001332181640625
 10
0.9428628250829298
 20
-0.15837078446974
 10
0.9528541873876186
 20
-0.231640774704116
  0
LWPOLYLINE
  5
7DE1B343D9E3BA2
330
7DE1B343D9E3C4F
100
AcDbEntity
  8
TEXT
100
AcDbPolyline
 90
        2
 70
     0
 43
0.0006660908203125
 10
0.9528541873876186
 20
-0.204997141891615
 10
0.9528541873876186
 20
-0.231640774704116
  0
LWPOLYLINE
  5
7DE1B343D9E3BA6
330
7DE1B343D9E3C4F
100
AcDbEntity
  8
TEXT
100
AcDbPolyline
 90
        5
 70
     0
 43
0.0001332181640625
 10
0.9928196366063684
 20
-0.1084139729463032
 10
0.9794978202001196
 20
-0.1084139729463032
 10
0.9794978202001196
 20
-0.1450489680634894
 10
0.9428628250829298
 20
-0.1450489680634894
 10
0.9428628250829298
 20
-0.15837078446974
  0
LWPOLYLINE
  5
7DE1B343D9E3BAD
330
7DE1B343D9E3C4F
100
AcDbEntity
  8
TEXT
100
AcDbPolyline
 90
        2
 70
     0
 43
0.0006660908203125
 10
1.039445994028243
 20
-0.0784398860322404
 10
1.066089626840744
 20
-0.0784398860322404
  0
LWPOLYLINE
  5
7DE1B343D9E3BB1
330
7DE1B343D9E3C4F
100
AcDbEntity
  8
TEXT
100
AcDbPolyline
 90
        2
 70
     0
 43
0.0006660908203125
 10
1.039445994028243
 20
-0.1184053352509884
 10
1.066089626840744
 20
-0.1184053352509884
  0
LINE
  5
7DE1B343D9E3BB5
330
7DE1B343D9E3C4F
100
AcDbEntity
  8
TEXT
100
AcDbLine
 10
1.336203763688769
 20
-0.0294811412358818
 30
0.0
 11
1.50310941771774
 21
-0.0294811412358818
 31
0.0
  0
LINE
  5
7DE1B343D9E3BB6
330
7DE1B343D9E3C4F
100
AcDbEntity
  8
TEXT
100
AcDbLine
 10
1.40180389993307
 20
-0.0652858628465096
 30
0.0
 11
1.336203763688769
 21
-0.0652858628465096
 31
0.0
  0
LINE
  5
7DE1B343D9E3BB7
330
7DE1B343D9E3C4F
100
AcDbEntity
  8
TEXT
100
AcDbLine
 10
1.248878974128017
 20
-0.2316774795676273
 30
0.0
 11
1.40180389993307
 21
-0.2316774795676273
 31
0.0
  0
LINE
  5
7DE1B343D9E3BB8
330
7DE1B343D9E3C4F
100
AcDbEntity
  8
TEXT
100
AcDbLine
 10
1.40674427383935
 20
-0.163320473234188
 30
0.0
 11
1.248878974128015
 21
-0.163320473234188
 31
0.0
  0
LINE
  5
7DE1B343D9E3BB9
330
7DE1B343D9E3C4F
100
AcDbEntity
  8
TEXT
100
AcDbLine
 10
1.330966433574521
 20
-0.1293793654721234
 30
0.0
 11
1.40674427383935
 21
-0.1293793654721234
 31
0.0
  0
ARC
  5
7DE1B343D9E3BBA
330
7DE1B343D9E3C4F
100
AcDbEntity
  8
TEXT
100
AcDbCircle
 10
1.33620376368877
 20
-0.0473835020411939
 30
0.0
 40
0.017902360805315
100
AcDbArc
 50
90.0
 51
270.0
  0
LINE
  5
7DE1B343D9E3BBB
330
7DE1B343D9E3C4F
100
AcDbEntity
  8
TEXT
100
AcDbLine
 10
1.248878974128015
 20
-0.163320473234188
 30
0.0
 11
1.248878974128017
 21
-0.2316774795676273
 31
0.0
  0
LINE
  5
7DE1B343D9E3BBC
330
7DE1B343D9E3C4F
100
AcDbEntity
  8
TEXT
100
AcDbLine
 10
1.50310941771774
 20
-0.0294811412358818
 30
0.0
 11
1.50310941771774
 21
-0.1718850882295775
 31
0.0
  0
ARC
  5
7DE1B343D9E3BBD
330
7DE1B343D9E3C4F
100
AcDbEntity
  8
TEXT
100
AcDbCircle
 10
1.401803899933071
 20
-0.1484816712070702
 30
0.0
 40
0.0831958083605586
100
AcDbArc
 50
270.0
 51
90.0
  0
ARC
  5
7DE1B343D9E3BBE
330
7DE1B343D9E3C4F
100
AcDbEntity
  8
TEXT
100
AcDbCircle
 10
1.40674427383935
 20
-0.1463499193531539
 30
0.0
 40
0.0169705538810321
100
AcDbArc
 50
270.0
 51
90.0
  0
LWPOLYLINE
  5
7DE1B343D9E3BBF
330
7DE1B343D9E3C4F
100
AcDbEntity
  8
TEXT
100
AcDbPolyline
 90
        2
 70
     0
 43
0.0006660908203125
 10
0.912888738168867
 20
0.0081519206083862
 10
0.912888738168867
 20
0.0347955534208873
  0
LWPOLYLINE
  5
7DE1B343D9E3BC3
330
7DE1B343D9E3C4F
100
AcDbEntity
  8
TEXT
100
AcDbPolyline
 90
        2
 70
     0
 43
0.0006660908203125
 10
0.9528541873876186
 20
0.0081519206083862
 10
0.9528541873876186
 20
0.0347955534208873
  0
LINE
  5
7DE1B343D9E3BC7
330
7DE1B343D9E3C4F
100
AcDbEntity
  8
TEXT
100
AcDbLine
 10
1.506698186473033
 20
0.0347955534208837
 30
0.0
 11
1.330966433574521
 21
0.0347955534208837
 31
0.0
  0
LINE
  5
7DE1B343D9E3BC8
330
7DE1B343D9E3C4F
100
AcDbEntity
  8
TEXT
100
AcDbLine
 10
1.506698186473033
 20
0.0691834710150219
 30
0.0
 11
1.506698186473033
 21
0.0347955534208837
 31
0.0
  0
LINE
  5
7DE1B343D9E3BC9
330
7DE1B343D9E3C4F
100
AcDbEntity
  8
TEXT
100
AcDbLine
 10
1.697170078492885
 20
-0.0660764426922369
 30
0.0
 11
1.638539757460947
 21
0.0347955534208837
 31
0.0
  0
LINE
  5
7DE1B343D9E3BCA
330
7DE1B343D9E3C4F
100
AcDbEntity
  8
TEXT
100
AcDbLine
 10
1.755918641298751
 20
0.0347955534208837
 30
0.0
 11
1.697170078492885
 21
-0.0660764426922369
 31
0.0
  0
LINE
  5
7DE1B343D9E3BCB
330
7DE1B343D9E3C4F
100
AcDbEntity
  8
TEXT
100
AcDbLine
 10
1.852849266658492
 20
-0.1492896414646281
 30
0.0
 11
1.852849266658492
 21
0.1028070311596942
 31
0.0
  0
LINE
  5
7DE1B343D9E3BCC
330
7DE1B343D9E3C4F
100
AcDbEntity
  8
TEXT
100
AcDbLine
 10
1.885161120796152
 20
0.0347955534208837
 30
0.0
 11
1.885161120796152
 21
-0.1660686533115245
 31
0.0
  0
LINE
  5
7DE1B343D9E3BCD
330
7DE1B343D9E3C4F
100
AcDbEntity
  8
TEXT
100
AcDbLine
 10
1.885161120796152
 20
-0.1660686533115245
 30
0.0
 11
1.868167483911551
 21
-0.1660686533115245
 31
0.0
  0
LINE
  5
7DE1B343D9E3BCE
330
7DE1B343D9E3C4F
100
AcDbEntity
  8
TEXT
100
AcDbLine
 10
1.853988840154687
 20
-0.2316774795676273
 30
0.0
 11
1.951992173854121
 21
-0.2316774795676273
 31
0.0
  0
LINE
  5
7DE1B343D9E3BCF
330
7DE1B343D9E3C4F
100
AcDbEntity
  8
TEXT
100
AcDbLine
 10
1.687569841495931
 20
-0.2117189734626144
 30
0.0
 11
1.784869547589376
 21
-0.0473687625273462
 31
0.0
  0
ARC
  5
7DE1B343D9E3BD0
330
7DE1B343D9E3C4F
100
AcDbEntity
  8
TEXT
100
AcDbCircle
 10
1.653526281583717
 20
-0.1921297572939316
 30
0.0
 40
0.0392772371940762
100
AcDbArc
 50
270.1604552698595
 51
330.0831797321295
  0
LINE
  5
7DE1B343D9E3BD1
330
7DE1B343D9E3C4F
100
AcDbEntity
  8
TEXT
100
AcDbLine
 10
1.556996025197846
 20
-0.2316774795676273
 30
0.0
 11
1.65363627627284
 21
-0.231406840469345
 31
0.0
  0
LWPOLYLINE
  5
7DE1B343D9E3BD2
330
7DE1B343D9E3C4F
100
AcDbEntity
  8
TEXT
100
AcDbPolyline
 90
        6
 70
     1
 43
0.0
 10
1.599519828772995
 20
-0.0294811412358818
 10
1.569203234552787
 20
-0.0294811412358818
 10
1.569203234552787
 20
-0.1525921392907761
 42
0.407328721240804
 10
1.580746885714264
 20
-0.1644110539671622
 10
1.641368584758994
 20
-0.1644110539671622
 10
1.658833925166312
 20
-0.131598824923683
  0
LINE
  5
7DE1B343D9E3BDA
330
7DE1B343D9E3C4F
100
AcDbEntity
  8
TEXT
100
AcDbLine
 10
1.784869547589376
 20
-0.0473687625273462
 30
0.0
 11
1.784869547589376
 21
-0.1801261373527026
 31
0.0
  0
ARC
  5
7DE1B343D9E3BDB
330
7DE1B343D9E3C4F
100
AcDbEntity
  8
TEXT
100
AcDbCircle
 10
1.868167483911549
 20
-0.1506868470680991
 30
0.0
 40
0.0153818062434269
100
AcDbArc
 50
174.7883570302258
 51
270.0
  0
LWPOLYLINE
  5
7DE1B343D9E3BDC
330
7DE1B343D9E3C4F
100
AcDbEntity
  8
TEXT
100
AcDbPolyline
 90
        2
 70
     0
 43
0.0
 10
1.784869547589374
 20
-0.180126137352699
 42
0.3318488747599744
 10
1.853988840154687
 20
-0.2316774795676273
 42
-6.868794160588311
  0
LINE
  5
7DE1B343D9E3BE0
330
7DE1B343D9E3C4F
100
AcDbEntity
  8
TEXT
100
AcDbLine
 10
2.009381242843383
 20
-0.2316774795676273
 30
0.0
 11
2.076439289625223
 21
-0.2316774795676273
 31
0.0
  0
LINE
  5
7DE1B343D9E3BE1
330
7DE1B343D9E3C4F
100
AcDbEntity
  8
TEXT
100
AcDbLine
 10
2.009381242843383
 20
-0.0370349304019917
 30
0.0
 11
2.009381242843383
 21
-0.2316774795676273
 31
0.0
  0
LINE
  5
7DE1B343D9E3BE2
330
7DE1B343D9E3C4F
100
AcDbEntity
  8
TEXT
100
AcDbLine
 10
1.951992173854121
 20
-0.0294811412358818
 30
0.0
 11
2.001827453677269
 21
-0.0294811412358818
 31
0.0
  0
LINE
  5
7DE1B343D9E3BE3
330
7DE1B343D9E3C4F
100
AcDbEntity
  8
TEXT
100
AcDbLine
 10
1.951992173854121
 20
-0.2316774795676273
 30
0.0
 11
1.951992173854121
 21
-0.0294811412358818
 31
0.0
  0
LWPOLYLINE
  5
7DE1B343D9E3BE4
330
7DE1B343D9E3C4F
100
AcDbEntity
  8
TEXT
100
AcDbPolyline
 90
        2
 70
     0
 43
0.0
 10
2.001827453677267
 20
-0.0294811412358818
 42
-0.4142135623731017
 10
2.009381242843381
 20
-0.0370349304019917
 42
-0.9999999999999998
  0
LINE
  5
7DE1B343D9E3BE8
330
7DE1B343D9E3C4F
100
AcDbEntity
  8
TEXT
100
AcDbLine
 10
2.207637454454952
 20
-0.0294811412358818
 30
0.0
 11
2.207637454454952
 21
-0.1045335473100883
 31
0.0
  0
LINE
  5
7DE1B343D9E3BE9
330
7DE1B343D9E3C4F
100
AcDbEntity
  8
TEXT
100
AcDbLine
 10
2.076439289625223
 20
-0.0294811412358818
 30
0.0
 11
2.130572886546173
 21
-0.0294811412358818
 31
0.0
  0
LINE
  5
7DE1B343D9E3BEA
330
7DE1B343D9E3C4F
100
AcDbEntity
  8
TEXT
100
AcDbLine
 10
2.076439289625223
 20
-0.2316774795676273
 30
0.0
 11
2.076439289625223
 21
-0.0294811412358818
 31
0.0
  0
LWPOLYLINE
  5
7DE1B343D9E3BEB
330
7DE1B343D9E3C4F
100
AcDbEntity
  8
TEXT
100
AcDbPolyline
 90
        2
 70
     0
 43
0.0
 10
2.130572886546171
 20
-0.0294811412358818
 42
-0.4142135623731017
 10
2.138126675712284
 20
-0.0370349304019917
 42
-0.9999999999999998
  0
LWPOLYLINE
  5
7DE1B343D9E3BEF
330
7DE1B343D9E3C4F
100
AcDbEntity
  8
TEXT
100
AcDbPolyline
 90
        4
 70
     0
 43
0.0
 10
2.138126675712284
 20
-0.0370349304019917
 10
2.138126675712284
 20
-0.2316774795676273
 10
2.206604959000142
 20
-0.2316774795676273
 10
2.206604959000142
 20
-0.1881865346171892
 42
-1.714843617202739
  0
LINE
  5
7DE1B343D9E3BF5
330
7DE1B343D9E3C4F
100
AcDbEntity
  8
TEXT
100
AcDbLine
 10
1.56674079131704
 20
0.0347955534208837
 30
0.0
 11
1.56674079131704
 21
0.0691834710150219
 31
0.0
  0
LINE
  5
7DE1B343D9E3BF6
330
7DE1B343D9E3C4F
100
AcDbEntity
  8
TEXT
100
AcDbLine
 10
1.638539757460947
 20
0.0347955534208837
 30
0.0
 11
1.56674079131704
 21
0.0347955534208837
 31
0.0
  0
LINE
  5
7DE1B343D9E3BF7
330
7DE1B343D9E3C4F
100
AcDbEntity
  8
TEXT
100
AcDbLine
 10
1.786040554092127
 20
0.0347955534208837
 30
0.0
 11
1.755918641298751
 21
0.0347955534208837
 31
0.0
  0
LINE
  5
7DE1B343D9E3BF8
330
7DE1B343D9E3C4F
100
AcDbEntity
  8
TEXT
100
AcDbLine
 10
1.786040554092127
 20
0.1028070311596942
 30
0.0
 11
1.786040554092127
 21
0.0347955534208837
 31
0.0
  0
LINE
  5
7DE1B343D9E3BF9
330
7DE1B343D9E3C4F
100
AcDbEntity
  8
TEXT
100
AcDbLine
 10
1.852849266658492
 20
0.1028070311596942
 30
0.0
 11
1.786040554092127
 21
0.1028070311596942
 31
0.0
  0
LWPOLYLINE
  5
7DE1B343D9E3BFA
330
7DE1B343D9E3C4F
100
AcDbEntity
  8
TEXT
100
AcDbPolyline
 90
        3
 70
     0
 43
0.0
 10
2.173261026256494
 20
0.0347955534208873
 10
2.05496086744045
 20
0.0347955534208873
 10
2.05496086744045
 20
0.0076280566599913
 42
-1.960274751411753
  0
LINE
  5
7DE1B343D9E3BFF
330
7DE1B343D9E3C4F
100
AcDbEntity
  8
TEXT
100
AcDbLine
 10
2.019179176727289
 20
0.0347955534208837
 30
0.0
 11
1.885161120796152
 21
0.0347955534208837
 31
0.0
  0
LWPOLYLINE
  5
7DE1B343D9E3C00
330
7DE1B343D9E3C4F
100
AcDbEntity
  8
TEXT
100
AcDbPolyline
 90
        2
 70
     0
 43
0.0
 10
2.019179176727289
 20
0.0347955534208873
 42
-0.3328679258950098
 10
2.05496086744045
 20
0.0076280566599913
 42
6.772930709997214
  0
LINE
  5
7DE1B343D9E3C04
330
7DE1B343D9E3C4F
100
AcDbEntity
  8
TEXT
100
AcDbLine
 10
2.209042716969661
 20
0.0347955534208837
 30
0.0
 11
2.209042716969661
 21
0.0064730076512398
 31
0.0
  0
LWPOLYLINE
  5
7DE1B343D9E3C05
330
7DE1B343D9E3C4F
100
AcDbEntity
  8
TEXT
100
AcDbPolyline
 90
        2
 70
     0
 43
0.0
 10
2.173261026256494
 20
0.0347955534208873
 42
-0.3277054968067132
 10
2.209042716969659
 20
0.0064730076512434
 42
6.667889725900311
  0
LINE
  5
7DE1B343D9E3C09
330
7DE1B343D9E3C4F
100
AcDbEntity
  8
TEXT
100
AcDbLine
 10
2.422834565061761
 20
-0.0704164251325437
 30
0.0
 11
2.37908379387986
 21
0.0118338508636016
 31
0.0
  0
LINE
  5
7DE1B343D9E3C0A
330
7DE1B343D9E3C4F
100
AcDbEntity
  8
TEXT
100
AcDbLine
 10
2.422834565061761
 20
0.0347955534208837
 30
0.0
 11
2.422834565061761
 21
-0.0704164251325437
 31
0.0
  0
LINE
  5
7DE1B343D9E3C0B
330
7DE1B343D9E3C4F
100
AcDbEntity
  8
TEXT
100
AcDbLine
 10
2.65051830400013
 20
-0.0410697729906544
 30
0.0
 11
2.65051830400013
 21
0.1002597591884844
 31
0.0
  0
LINE
  5
7DE1B343D9E3C0C
330
7DE1B343D9E3C4F
100
AcDbEntity
  8
TEXT
100
AcDbLine
 10
2.697616462556115
 20
0.0347955534208837
 30
0.0
 11
2.65051830400013
 21
-0.0410697729906544
 31
0.0
  0
LINE
  5
7DE1B343D9E3C0D
330
7DE1B343D9E3C4F
100
AcDbEntity
  8
TEXT
100
AcDbLine
 10
2.708051179320038
 20
-0.0750976895200899
 30
0.0
 11
2.772608295285743
 21
0.0347955534208837
 31
0.0
  0
LINE
  5
7DE1B343D9E3C0E
330
7DE1B343D9E3C4F
100
AcDbEntity
  8
TEXT
100
AcDbLine
 10
2.586683312777357
 20
-0.2316774795676273
 30
0.0
 11
2.651061497095978
 21
-0.2316774795676273
 31
0.0
  0
LWPOLYLINE
  5
7DE1B343D9E3C0F
330
7DE1B343D9E3C4F
100
AcDbEntity
  8
TEXT
100
AcDbPolyline
 90
        2
 70
     0
 43
0.0
 10
2.426774242366799
 20
-0.1881865346171892
 42
-0.2901071551932486
 10
2.383698309499155
 20
-0.2316774795676273
 42
-5.328517124445184
  0
ARC
  5
7DE1B343D9E3C13
330
7DE1B343D9E3C4F
100
AcDbEntity
  8
TEXT
100
AcDbCircle
 10
2.31484372784224
 20
-0.0578405162358791
 30
0.0
 40
0.028359375
100
AcDbArc
 50
25.78218179591245
 51
90.0
  0
LINE
  5
7DE1B343D9E3C14
330
7DE1B343D9E3C4F
100
AcDbEntity
  8
TEXT
100
AcDbLine
 10
2.350644803146363
 20
-0.066756114698014
 30
0.0
 11
2.340380042732799
 21
-0.0455055751253197
 31
0.0
  0
LINE
  5
7DE1B343D9E3C15
330
7DE1B343D9E3C4F
100
AcDbEntity
  8
TEXT
100
AcDbLine
 10
2.26835681336298
 20
-0.066756114698014
 30
0.0
 11
2.350644803146363
 21
-0.066756114698014
 31
0.0
  0
LWPOLYLINE
  5
7DE1B343D9E3C16
330
7DE1B343D9E3C4F
100
AcDbEntity
  8
TEXT
100
AcDbPolyline
 90
        4
 70
     1
 43
0.0
 10
2.363575844429262
 20
-0.1287135015836021
 10
2.274915525769404
 20
-0.1287135015836021
 42
0.9999999999999998
 10
2.274915525769404
 20
-0.1711120420874628
 10
2.363575844429262
 20
-0.1711120420874628
 42
1.0
  0
LWPOLYLINE
  5
7DE1B343D9E3C1C
330
7DE1B343D9E3C4F
100
AcDbEntity
  8
TEXT
100
AcDbPolyline
 90
        2
 70
     0
 43
0.0
 10
2.249680891867778
 20
-0.2316774795676273
 10
2.383698309499155
 20
-0.2316774795676273
 42
0.9999999999999998
  0
LINE
  5
7DE1B343D9E3C20
330
7DE1B343D9E3C4F
100
AcDbEntity
  8
TEXT
100
AcDbLine
 10
2.510035331484794
 20
-0.0294811412358818
 30
0.0
 11
2.586683312777352
 21
-0.0294811412358818
 31
0.0
  0
LINE
  5
7DE1B343D9E3C21
330
7DE1B343D9E3C4F
100
AcDbEntity
  8
TEXT
100
AcDbLine
 10
2.586683312777352
 20
-0.0294811412358818
 30
0.0
 11
2.586683312777357
 21
-0.2316774795676273
 31
0.0
  0
ARC
  5
7DE1B343D9E3C22
330
7DE1B343D9E3C4F
100
AcDbEntity
  8
TEXT
100
AcDbCircle
 10
2.510035331484792
 20
-0.0543870165185445
 30
0.0
 40
0.0249058752826653
100
AcDbArc
 50
89.99971217465335
 51
179.9999999999985
  0
LINE
  5
7DE1B343D9E3C23
330
7DE1B343D9E3C4F
100
AcDbEntity
  8
TEXT
100
AcDbLine
 10
2.485129456202135
 20
-0.2316774795676273
 30
0.0
 11
2.485129456202129
 21
-0.0543869741361589
 31
0.0
  0
LWPOLYLINE
  5
7DE1B343D9E3C24
330
7DE1B343D9E3C4F
100
AcDbEntity
  8
TEXT
100
AcDbPolyline
 90
        2
 70
     0
 43
0.0
 10
2.426774242366799
 20
-0.2316774795676273
 10
2.485129456202133
 20
-0.2316774795676273
  0
LWPOLYLINE
  5
7DE1B343D9E3C28
330
7DE1B343D9E3C4F
100
AcDbEntity
  8
TEXT
100
AcDbPolyline
 90
        2
 70
     0
 43
0.0
 10
2.426774242366799
 20
-0.1881865346171892
 10
2.426774242366799
 20
-0.2316774795676273
  0
LINE
  5
7DE1B343D9E3C2C
330
7DE1B343D9E3C4F
100
AcDbEntity
  8
TEXT
100
AcDbLine
 10
2.803543402683648
 20
-0.2316774795676273
 30
0.0
 11
2.708051179320038
 21
-0.0750976895200899
 31
0.0
  0
LINE
  5
7DE1B343D9E3C2D
330
7DE1B343D9E3C4F
100
AcDbEntity
  8
TEXT
100
AcDbLine
 10
2.726965030307442
 20
-0.2316774795676273
 30
0.0
 11
2.803543402683648
 21
-0.2316774795676273
 31
0.0
  0
LINE
  5
7DE1B343D9E3C2E
330
7DE1B343D9E3C4F
100
AcDbEntity
  8
TEXT
100
AcDbLine
 10
2.651061497095978
 20
-0.1000979110914471
 30
0.0
 11
2.726965030307442
 21
-0.2316774795676273
 31
0.0
  0
LINE
  5
7DE1B343D9E3C2F
330
7DE1B343D9E3C4F
100
AcDbEntity
  8
TEXT
100
AcDbLine
 10
2.651061497095978
 20
-0.2316774795676273
 30
0.0
 11
2.651061497095978
 21
-0.1000979110914471
 31
0.0
  0
LINE
  5
7DE1B343D9E3C30
330
7DE1B343D9E3C4F
100
AcDbEntity
  8
TEXT
100
AcDbLine
 10
2.65051830400013
 20
0.1002597591884844
 30
0.0
 11
2.582203425450857
 21
0.1002597591884844
 31
0.0
  0
ARC
  5
7DE1B343D9E3C31
330
7DE1B343D9E3C4F
100
AcDbEntity
  8
TEXT
100
AcDbCircle
 10
2.341847686409651
 20
-0.0067880137000187
 30
0.0
 40
0.0416329381542859
100
AcDbArc
 50
26.56974201007528
 51
87.20939649401342
  0
LINE
  5
7DE1B343D9E3C32
330
7DE1B343D9E3C4F
100
AcDbEntity
  8
TEXT
100
AcDbLine
 10
2.486731471361262
 20
0.0347955534208837
 30
0.0
 11
2.422834565061761
 21
0.0347955534208837
 31
0.0
  0
LINE
  5
7DE1B343D9E3C33
330
7DE1B343D9E3C4F
100
AcDbEntity
  8
TEXT
100
AcDbLine
 10
2.486731471361262
 20
0.007247903560009
 30
0.0
 11
2.486731471361262
 21
0.0347955534208837
 31
0.0
  0
ARC
  5
7DE1B343D9E3C34
330
7DE1B343D9E3C4F
100
AcDbEntity
  8
TEXT
100
AcDbCircle
 10
2.51792428842437
 20
0.0035498261386189
 30
0.0
 40
0.0314112657011332
100
AcDbArc
 50
95.88484768694724
 51
173.2388340632136
  0
LINE
  5
7DE1B343D9E3C35
330
7DE1B343D9E3C4F
100
AcDbEntity
  8
TEXT
100
AcDbLine
 10
2.582203425450852
 20
0.0347955534208837
 30
0.0
 11
2.514703707801335
 21
0.0347955534208837
 31
0.0
  0
LINE
  5
7DE1B343D9E3C36
330
7DE1B343D9E3C4F
100
AcDbEntity
  8
TEXT
100
AcDbLine
 10
2.582203425450857
 20
0.1002597591884844
 30
0.0
 11
2.582203425450852
 21
0.0347955534208837
 31
0.0
  0
LINE
  5
7DE1B343D9E3C37
330
7DE1B343D9E3C4F
100
AcDbEntity
  8
TEXT
100
AcDbLine
 10
2.772608295285743
 20
0.0347955534208837
 30
0.0
 11
2.697616462556116
 21
0.0347955534208837
 31
0.0
  0
ENDSEC
  0
SECTION
  2
OBJECTS
  0
DICTIONARY
  5
7DE1B343D9E3C43
330
0
100
AcDbDictionary
  3
ACAD_GROUP
350
7DE1B343D9E3C44
  3
ACAD_LAYOUT
350
7DE1B343D9E3C69
  3
ACAD_MLINESTYLE
350
7DE1B343D9E3C45
  3
ACAD_PLOTSETTINGS
350
7DE1B343D9E3C6A
  3
ACAD_PLOTSTYLENAME
350
7DE1B343D9E3C67
  3
ACDBHEADERROUNDTRIPXREC
350
7DE1B343D9E3C74
  3
ACDBVARIABLEDICTIONARY
350
7DE1B343D9E3C71
  0
DICTIONARY
  5
7DE1B343D9E3C96
330
7DE1B343D9E3C4F
100
AcDbDictionary
280
     1
  3
ACAD_LAYOUTSELFREF
360
7DE1B343D9E3C97
  0
DICTIONARY
  5
7DE1B343D9E3C94
330
7DE1B343D9E3C4C
100
AcDbDictionary
280
     1
  3
ACAD_LAYOUTSELFREF
360
7DE1B343D9E3C95
  0
DICTIONARY
  5
7DE1B343D9E3C44
102
{ACAD_REACTORS
330
7DE1B343D9E3C43
102
}
330
7DE1B343D9E3C43
100
AcDbDictionary
  0
DICTIONARY
  5
7DE1B343D9E3C69
102
{ACAD_REACTORS
330
7DE1B343D9E3C43
102
}
330
7DE1B343D9E3C43
100
AcDbDictionary
  0
DICTIONARY
  5
7DE1B343D9E3C45
102
{ACAD_REACTORS
330
7DE1B343D9E3C43
102
}
330
7DE1B343D9E3C43
100
AcDbDictionary
  3
STANDARD
350
7DE1B343D9E3C52
  0
DICTIONARY
  5
7DE1B343D9E3C6A
102
{ACAD_REACTORS
330
7DE1B343D9E3C43
102
}
330
7DE1B343D9E3C43
100
AcDbDictionary
  0
ACDBDICTIONARYWDFLT
  5
7DE1B343D9E3C67
102
{ACAD_REACTORS
330
7DE1B343D9E3C43
102
}
330
7DE1B343D9E3C43
100
AcDbDictionary
281
     1
  3
Normal
350
7DE1B343D9E3C68
100
AcDbDictionaryWithDefault
340
7DE1B343D9E3C68
  0
DICTIONARY
  5
7DE1B343D9E3C74
102
{ACAD_REACTORS
330
7DE1B343D9E3C43
102
}
330
7DE1B343D9E3C43
100
AcDbDictionary
  3
CEPSNTYPE
350
7DE1B343D9E3C7E
  3
FINGERPRINTGUID
350
7DE1B343D9E3C7F
  3
HYPERLINKBASE
350
7DE1B343D9E3C77
  3
INSUNITS
350
7DE1B343D9E3C7D
  3
LAYOUTDICT
350
7DE1B343D9E3C79
  3
LWETCUNION
350
7DE1B343D9E3C7C
  3
PLOTSETDICT
350
7DE1B343D9E3C7A
  3
PLOTSTYLNAMDICT
350
7DE1B343D9E3C7B
  3
PSVPSCALE
350
7DE1B343D9E3C81
  3
PUCSBASE
350
7DE1B343D9E3C84
  3
PUCSORGBACK
350
7DE1B343D9E3C8A
  3
PUCSORGBOTTOM
350
7DE1B343D9E3C86
  3
PUCSORGFRONT
350
7DE1B343D9E3C89
  3
PUCSORGLEFT
350
7DE1B343D9E3C87
  3
PUCSORGRIGHT
350
7DE1B343D9E3C88
  3
PUCSORGTOP
350
7DE1B343D9E3C85
  3
PUCSORTHOREF
350
7DE1B343D9E3C82
  3
PUCSORTHOVIEW
350
7DE1B343D9E3C83
  3
STYLESHEET
350
7DE1B343D9E3C78
  3
TSTACKALIGN
350
7DE1B343D9E3C75
  3
TSTACKSIZE
350
7DE1B343D9E3C76
  3
UCSBASE
350
7DE1B343D9E3C8D
  3
UCSORGBACK
350
7DE1B343D9E3C93
  3
UCSORGBOTTOM
350
7DE1B343D9E3C8F
  3
UCSORGFRONT
350
7DE1B343D9E3C92
  3
UCSORGLEFT
350
7DE1B343D9E3C90
  3
UCSORGRIGHT
350
7DE1B343D9E3C91
  3
UCSORGTOP
350
7DE1B343D9E3C8E
  3
UCSORTHOREF
350
7DE1B343D9E3C8B
  3
UCSORTHOVIEW
350
7DE1B343D9E3C8C
  3
VERSIONGUID
350
7DE1B343D9E3C80
  0
DICTIONARY
  5
7DE1B343D9E3C71
102
{ACAD_REACTORS
330
7DE1B343D9E3C43
102
}
330
7DE1B343D9E3C43
100
AcDbDictionary
  3
DIMASSOC
350
7DE1B343D9E3C72
  0
XRECORD
  5
7DE1B343D9E3C97
102
{ACAD_REACTORS
330
7DE1B343D9E3C96
102
}
330
7DE1B343D9E3C96
100
AcDbXrecord
340
7DE1B343D9E3C4F
  0
XRECORD
  5
7DE1B343D9E3C95
102
{ACAD_REACTORS
330
7DE1B343D9E3C94
102
}
330
7DE1B343D9E3C94
100
AcDbXrecord
340
7DE1B343D9E3C4C
  0
MLINESTYLE
  5
7DE1B343D9E3C52
102
{ACAD_REACTORS
330
7DE1B343D9E3C45
102
}
330
7DE1B343D9E3C45
100
AcDbMlineStyle
  2
STANDARD
 70
     0
  3

 62
     0
 51
90.0
 52
90.0
 71
     2
 49
0.5
 62
   256
  6
BYLAYER
 49
-0.5
 62
   256
  6
BYLAYER
  0
ACDBPLACEHOLDER
  5
7DE1B343D9E3C68
102
{ACAD_REACTORS
330
7DE1B343D9E3C67
102
}
330
7DE1B343D9E3C67
100
AcDbPlaceHolder
280
     0
  0
XRECORD
  5
7DE1B343D9E3C7E
102
{ACAD_REACTORS
330
7DE1B343D9E3C74
102
}
330
7DE1B343D9E3C74
100
AcDbXrecord
 90
        0
  0
XRECORD
  5
7DE1B343D9E3C7F
102
{ACAD_REACTORS
330
7DE1B343D9E3C74
102
}
330
7DE1B343D9E3C74
100
AcDbXrecord
  1
{A3ECD130-8DB5-11D6-88E6-0090279574E7}
  0
XRECORD
  5
7DE1B343D9E3C77
102
{ACAD_REACTORS
330
7DE1B343D9E3C74
102
}
330
7DE1B343D9E3C74
100
AcDbXrecord
  1

  0
XRECORD
  5
7DE1B343D9E3C7D
102
{ACAD_REACTORS
330
7DE1B343D9E3C74
102
}
330
7DE1B343D9E3C74
100
AcDbXrecord
 90
        0
  0
XRECORD
  5
7DE1B343D9E3C79
102
{ACAD_REACTORS
330
7DE1B343D9E3C74
102
}
330
7DE1B343D9E3C74
100
AcDbXrecord
340
7DE1B343D9E3C69
  0
XRECORD
  5
7DE1B343D9E3C7C
102
{ACAD_REACTORS
330
7DE1B343D9E3C74
102
}
330
7DE1B343D9E3C74
100
AcDbXrecord
 90
    14877
  0
XRECORD
  5
7DE1B343D9E3C7A
102
{ACAD_REACTORS
330
7DE1B343D9E3C74
102
}
330
7DE1B343D9E3C74
100
AcDbXrecord
340
7DE1B343D9E3C6A
  0
XRECORD
  5
7DE1B343D9E3C7B
102
{ACAD_REACTORS
330
7DE1B343D9E3C74
102
}
330
7DE1B343D9E3C74
100
AcDbXrecord
340
7DE1B343D9E3C67
  0
XRECORD
  5
7DE1B343D9E3C81
102
{ACAD_REACTORS
330
7DE1B343D9E3C74
102
}
330
7DE1B343D9E3C74
100
AcDbXrecord
 40
0.0
  0
XRECORD
  5
7DE1B343D9E3C84
102
{ACAD_REACTORS
330
7DE1B343D9E3C74
102
}
330
7DE1B343D9E3C74
100
AcDbXrecord
340
0
  0
XRECORD
  5
7DE1B343D9E3C8A
102
{ACAD_REACTORS
330
7DE1B343D9E3C74
102
}
330
7DE1B343D9E3C74
100
AcDbXrecord
 10
0.0
 20
0.0
 30
0.0
  0
XRECORD
  5
7DE1B343D9E3C86
102
{ACAD_REACTORS
330
7DE1B343D9E3C74
102
}
330
7DE1B343D9E3C74
100
AcDbXrecord
 10
0.0
 20
0.0
 30
0.0
  0
XRECORD
  5
7DE1B343D9E3C89
102
{ACAD_REACTORS
330
7DE1B343D9E3C74
102
}
330
7DE1B343D9E3C74
100
AcDbXrecord
 10
0.0
 20
0.0
 30
0.0
  0
XRECORD
  5
7DE1B343D9E3C87
102
{ACAD_REACTORS
330
7DE1B343D9E3C74
102
}
330
7DE1B343D9E3C74
100
AcDbXrecord
 10
0.0
 20
0.0
 30
0.0
  0
XRECORD
  5
7DE1B343D9E3C88
102
{ACAD_REACTORS
330
7DE1B343D9E3C74
102
}
330
7DE1B343D9E3C74
100
AcDbXrecord
 10
0.0
 20
0.0
 30
0.0
  0
XRECORD
  5
7DE1B343D9E3C85
102
{ACAD_REACTORS
330
7DE1B343D9E3C74
102
}
330
7DE1B343D9E3C74
100
AcDbXrecord
 10
0.0
 20
0.0
 30
0.0
  0
XRECORD
  5
7DE1B343D9E3C82
102
{ACAD_REACTORS
330
7DE1B343D9E3C74
102
}
330
7DE1B343D9E3C74
100
AcDbXrecord
340
0
  0
XRECORD
  5
7DE1B343D9E3C83
102
{ACAD_REACTORS
330
7DE1B343D9E3C74
102
}
330
7DE1B343D9E3C74
100
AcDbXrecord
 70
     0
  0
XRECORD
  5
7DE1B343D9E3C78
102
{ACAD_REACTORS
330
7DE1B343D9E3C74
102
}
330
7DE1B343D9E3C74
100
AcDbXrecord
  1

  0
XRECORD
  5
7DE1B343D9E3C75
102
{ACAD_REACTORS
330
7DE1B343D9E3C74
102
}
330
7DE1B343D9E3C74
100
AcDbXrecord
 90
        1
  0
XRECORD
  5
7DE1B343D9E3C76
102
{ACAD_REACTORS
330
7DE1B343D9E3C74
102
}
330
7DE1B343D9E3C74
100
AcDbXrecord
 90
       70
  0
XRECORD
  5
7DE1B343D9E3C8D
102
{ACAD_REACTORS
330
7DE1B343D9E3C74
102
}
330
7DE1B343D9E3C74
100
AcDbXrecord
340
0
  0
XRECORD
  5
7DE1B343D9E3C93
102
{ACAD_REACTORS
330
7DE1B343D9E3C74
102
}
330
7DE1B343D9E3C74
100
AcDbXrecord
 10
0.0
 20
0.0
 30
0.0
  0
XRECORD
  5
7DE1B343D9E3C8F
102
{ACAD_REACTORS
330
7DE1B343D9E3C74
102
}
330
7DE1B343D9E3C74
100
AcDbXrecord
 10
0.0
 20
0.0
 30
0.0
  0
XRECORD
  5
7DE1B343D9E3C92
102
{ACAD_REACTORS
330
7DE1B343D9E3C74
102
}
330
7DE1B343D9E3C74
100
AcDbXrecord
 10
0.0
 20
0.0
 30
0.0
  0
XRECORD
  5
7DE1B343D9E3C90
102
{ACAD_REACTORS
330
7DE1B343D9E3C74
102
}
330
7DE1B343D9E3C74
100
AcDbXrecord
 10
0.0
 20
0.0
 30
0.0
  0
XRECORD
  5
7DE1B343D9E3C91
102
{ACAD_REACTORS
330
7DE1B343D9E3C74
102
}
330
7DE1B343D9E3C74
100
AcDbXrecord
 10
0.0
 20
0.0
 30
0.0
  0
XRECORD
  5
7DE1B343D9E3C8E
102
{ACAD_REACTORS
330
7DE1B343D9E3C74
102
}
330
7DE1B343D9E3C74
100
AcDbXrecord
 10
0.0
 20
0.0
 30
0.0
  0
XRECORD
  5
7DE1B343D9E3C8B
102
{ACAD_REACTORS
330
7DE1B343D9E3C74
102
}
330
7DE1B343D9E3C74
100
AcDbXrecord
340
0
  0
XRECORD
  5
7DE1B343D9E3C8C
102
{ACAD_REACTORS
330
7DE1B343D9E3C74
102
}
330
7DE1B343D9E3C74
100
AcDbXrecord
 70
     0
  0
XRECORD
  5
7DE1B343D9E3C80
102
{ACAD_REACTORS
330
7DE1B343D9E3C74
102
}
330
7DE1B343D9E3C74
100
AcDbXrecord
  1
{A3ECD132-8DB5-11D6-88E6-0090279574E7}
  0
DICTIONARYVAR
  5
7DE1B343D9E3C72
102
{ACAD_REACTORS
330
7DE1B343D9E3C71
102
}
330
7DE1B343D9E3C71
100
DictionaryVariables
280
     0
  1
1
  0
ENDSEC
  0
EOF
