  0
SECTION
  2
HEADER
  9
$ACADVER
  1
AC1014
  9
$ACADMAINTVER
 70
     9
  9
$DWGCODEPAGE
  3
ANSI_1252
  9
$INSBASE
 10
2.636432927046551
 20
1.594111200141093
 30
0.0
  9
$EXTMIN
 10
0.8934513478194084
 20
0.4475329256462562
 30
0.0
  9
$EXTMAX
 10
4.378670669566537
 20
2.094111200141166
 30
0.0
  9
$LIMMIN
 10
0.0
 20
0.0
  9
$LIMMAX
 10
18.0
 20
12.0
  9
$ORTHOMODE
 70
     1
  9
$REGENMODE
 70
     1
  9
$FILLMODE
 70
     1
  9
$QTEXTMODE
 70
     0
  9
$MIRRTEXT
 70
     0
  9
$DRAGMODE
 70
     2
  9
$LTSCALE
 40
1.0
  9
$OSMODE
 70
    39
  9
$ATTMODE
 70
     1
  9
$TEXTSIZE
 40
0.125
  9
$TRACEWID
 40
0.05
  9
$TEXTSTYLE
  7
ROMANS
  9
$CLAYER
  8
0
  9
$CELTYPE
  6
BYLAYER
  9
$CECOLOR
 62
   256
  9
$CELTSCALE
 40
1.0
  9
$DELOBJ
 70
     1
  9
$DISPSILH
 70
     1
  9
$DIMSCALE
 40
1.0
  9
$DIMASZ
 40
0.125
  9
$DIMEXO
 40
0.125
  9
$DIMDLI
 40
0.375
  9
$DIMRND
 40
0.0
  9
$DIMDLE
 40
0.0
  9
$DIMEXE
 40
0.125
  9
$DIMTP
 40
0.0
  9
$DIMTM
 40
0.0
  9
$DIMTXT
 40
0.125
  9
$DIMCEN
 40
-0.125
  9
$DIMTSZ
 40
0.0
  9
$DIMTOL
 70
     0
  9
$DIMLIM
 70
     0
  9
$DIMTIH
 70
     1
  9
$DIMTOH
 70
     1
  9
$DIMSE1
 70
     0
  9
$DIMSE2
 70
     0
  9
$DIMTAD
 70
     0
  9
$DIMZIN
 70
     4
  9
$DIMBLK
  1

  9
$DIMASO
 70
     1
  9
$DIMSHO
 70
     1
  9
$DIMPOST
  1

  9
$DIMAPOST
  1

  9
$DIMALT
 70
     0
  9
$DIMALTD
 70
     2
  9
$DIMALTF
 40
25.4
  9
$DIMLFAC
 40
1.0
  9
$DIMTOFL
 70
     0
  9
$DIMTVP
 40
0.0
  9
$DIMTIX
 70
     1
  9
$DIMSOXD
 70
     0
  9
$DIMSAH
 70
     0
  9
$DIMBLK1
  1

  9
$DIMBLK2
  1

  9
$DIMSTYLE
  2
STANDARD
  9
$DIMCLRD
 70
     0
  9
$DIMCLRE
 70
     0
  9
$DIMCLRT
 70
     0
  9
$DIMTFAC
 40
1.0
  9
$DIMGAP
 40
0.09
  9
$DIMJUST
 70
     0
  9
$DIMSD1
 70
     0
  9
$DIMSD2
 70
     0
  9
$DIMTOLJ
 70
     1
  9
$DIMTZIN
 70
     4
  9
$DIMALTZ
 70
     0
  9
$DIMALTTZ
 70
     0
  9
$DIMFIT
 70
     3
  9
$DIMUPT
 70
     0
  9
$DIMUNIT
 70
     2
  9
$DIMDEC
 70
     3
  9
$DIMTDEC
 70
     3
  9
$DIMALTU
 70
     2
  9
$DIMALTTD
 70
     2
  9
$DIMTXSTY
  7
ROMANS
  9
$DIMAUNIT
 70
     0
  9
$LUNITS
 70
     2
  9
$LUPREC
 70
     3
  9
$SKETCHINC
 40
0.1
  9
$FILLETRAD
 40
0.03125
  9
$AUNITS
 70
     0
  9
$AUPREC
 70
     0
  9
$MENU
  1
ACAD
  9
$ELEVATION
 40
0.0
  9
$PELEVATION
 40
0.0
  9
$THICKNESS
 40
0.0
  9
$LIMCHECK
 70
     0
  9
$BLIPMODE
 70
     0
  9
$CHAMFERA
 40
0.0
  9
$CHAMFERB
 40
0.0
  9
$CHAMFERC
 40
0.0
  9
$CHAMFERD
 40
0.0
  9
$SKPOLY
 70
     0
  9
$TDCREATE
 40
2448994.526549768
  9
$TDUPDATE
 40
2452458.303571909
  9
$TDINDWG
 40
0.0008344444
  9
$TDUSRTIMER
 40
0.0008344444
  9
$USRTIMER
 70
     1
  9
$ANGBASE
 50
0.0
  9
$ANGDIR
 70
     0
  9
$PDMODE
 70
     0
  9
$PDSIZE
 40
0.0
  9
$PLINEWID
 40
0.0
  9
$COORDS
 70
     2
  9
$SPLFRAME
 70
     0
  9
$SPLINETYPE
 70
     6
  9
$SPLINESEGS
 70
     8
  9
$ATTDIA
 70
     0
  9
$ATTREQ
 70
     1
  9
$HANDLING
 70
 22529
  9
$HANDSEED
  5
7DE1B343D9E3814
  9
$SURFTAB1
 70
     6
  9
$SURFTAB2
 70
     6
  9
$SURFTYPE
 70
     6
  9
$SURFU
 70
     6
  9
$SURFV
 70
     6
  9
$UCSNAME
  2

  9
$UCSORG
 10
0.0
 20
0.0
 30
0.0
  9
$UCSXDIR
 10
1.0
 20
0.0
 30
0.0
  9
$UCSYDIR
 10
0.0
 20
1.0
 30
0.0
  9
$PUCSNAME
  2

  9
$PUCSORG
 10
0.0
 20
0.0
 30
0.0
  9
$PUCSXDIR
 10
1.0
 20
0.0
 30
0.0
  9
$PUCSYDIR
 10
0.0
 20
1.0
 30
0.0
  9
$USERI1
 70
     0
  9
$USERI2
 70
     0
  9
$USERI3
 70
     0
  9
$USERI4
 70
     0
  9
$USERI5
 70
     0
  9
$USERR1
 40
0.0
  9
$USERR2
 40
0.0
  9
$USERR3
 40
0.0
  9
$USERR4
 40
0.0
  9
$USERR5
 40
0.0
  9
$WORLDVIEW
 70
     1
  9
$SHADEDGE
 70
     3
  9
$SHADEDIF
 70
    70
  9
$TILEMODE
 70
     1
  9
$MAXACTVP
 70
    16
  9
$PINSBASE
 10
1.22173638889981
 20
50.00000000000001
 30
2.472560984961208
  9
$PLIMCHECK
 70
     0
  9
$PEXTMIN
 10
1.000000000000000E+20
 20
1.000000000000000E+20
 30
1.000000000000000E+20
  9
$PEXTMAX
 10
-1.000000000000000E+20
 20
-1.000000000000000E+20
 30
-1.000000000000000E+20
  9
$PLIMMIN
 10
0.0
 20
0.0
  9
$PLIMMAX
 10
12.0
 20
9.0
  9
$UNITMODE
 70
     0
  9
$VISRETAIN
 70
     0
  9
$PLINEGEN
 70
     1
  9
$PSLTSCALE
 70
     0
  9
$TREEDEPTH
 70
  3020
  9
$PICKSTYLE
 70
     1
  9
$CMLSTYLE
  2
STANDARD
  9
$CMLJUST
 70
     0
  9
$CMLSCALE
 40
1.0
  9
$PROXYGRAPHICS
 70
     1
  9
$MEASUREMENT
 70
     0
  0
ENDSEC
  0
SECTION
  2
CLASSES
  0
CLASS
  1
LWPOLYLINE
  2
AcDbPolyline
  3
AutoCAD 2000
 90
        0
280
     0
281
     1
  0
CLASS
  1
ACDBDICTIONARYWDFLT
  2
AcDbDictionaryWithDefault
  3
AutoCAD 2000
 90
        0
280
     0
281
     0
  0
CLASS
  1
ACDBPLACEHOLDER
  2
AcDbPlaceHolder
  3
AutoCAD 2000
 90
        0
280
     0
281
     0
  0
CLASS
  1
LAYOUT
  2
AcDbLayout
  3
AutoCAD 2000
 90
        0
280
     0
281
     0
  0
CLASS
  1
DICTIONARYVAR
  2
AcDbDictionaryVar
  3
AutoCAD 2000
 90
        0
280
     0
281
     0
  0
CLASS
  1
LONG_TRANSACTION
  2
AcDbLongTransaction
  3
AutoCAD 2000
 90
        0
280
     0
281
     0
  0
CLASS
  1
LWPOLYLINE
  2
AcDbPolyline
  3
AutoCAD 2000
 90
        0
280
     0
281
     1
  0
CLASS
  1
HATCH
  2
AcDbHatch
  3
AutoCAD 2000
 90
        0
280
     0
281
     1
  0
CLASS
  1
XRECORD
  2
AcDbXrecord
  3
AutoCAD 2000
 90
        0
280
     0
281
     0
  0
ENDSEC
  0
SECTION
  2
TABLES
  0
TABLE
  2
VPORT
  5
7DE1B343D9E37A0
330
0
100
AcDbSymbolTable
 70
     2
  0
VPORT
  5
7DE1B343D9E37EF
330
7DE1B343D9E37A0
100
AcDbSymbolTableRecord
100
AcDbViewportTableRecord
  2
*ACTIVE
 70
     0
 10
0.0
 20
0.0
 11
1.0
 21
1.0
 12
5.611819111624787
 22
1.270843528293589
 13
0.0
 23
0.0
 14
0.015625
 24
0.015625
 15
0.0
 25
0.0
 16
0.0
 26
0.0
 36
1.0
 17
0.0
 27
0.0
 37
0.0
 40
2.282647215150728
 41
4.320930232558139
 42
50.0
 43
0.0
 44
0.0
 50
0.0
 51
0.0
 71
     0
 72
  2000
 73
     1
 74
     0
 75
     0
 76
     0
 77
     0
 78
     0
  0
ENDTAB
  0
TABLE
  2
LTYPE
  5
7DE1B343D9E379D
330
0
100
AcDbSymbolTable
 70
     1
  0
LTYPE
  5
7DE1B343D9E37AA
330
7DE1B343D9E379D
100
AcDbSymbolTableRecord
100
AcDbLinetypeTableRecord
  2
BYBLOCK
 70
     0
  3

 72
    65
 73
     0
 40
0.0
  0
LTYPE
  5
7DE1B343D9E37AB
330
7DE1B343D9E379D
100
AcDbSymbolTableRecord
100
AcDbLinetypeTableRecord
  2
BYLAYER
 70
     0
  3

 72
    65
 73
     0
 40
0.0
  0
LTYPE
  5
7DE1B343D9E37AC
330
7DE1B343D9E379D
100
AcDbSymbolTableRecord
100
AcDbLinetypeTableRecord
  2
CONTINUOUS
 70
     0
  3
Solid line
 72
    65
 73
     0
 40
0.0
  0
ENDTAB
  0
TABLE
  2
LAYER
  5
7DE1B343D9E379A
330
0
100
AcDbSymbolTable
 70
     3
  0
LAYER
  5
7DE1B343D9E37A7
330
7DE1B343D9E379A
100
AcDbSymbolTableRecord
100
AcDbLayerTableRecord
  2
0
 70
     0
 62
     7
  6
CONTINUOUS
  0
LAYER
  5
7DE1B343D9E37B7
330
7DE1B343D9E379A
100
AcDbSymbolTableRecord
100
AcDbLayerTableRecord
  2
TEXT
 70
     0
 62
     3
  6
CONTINUOUS
  0
LAYER
  5
7DE1B343D9E37C7
330
7DE1B343D9E379A
100
AcDbSymbolTableRecord
100
AcDbLayerTableRecord
  2
ASHADE
 70
     4
 62
     7
  6
CONTINUOUS
  0
ENDTAB
  0
TABLE
  2
STYLE
  5
7DE1B343D9E379B
330
0
100
AcDbSymbolTable
 70
     4
  0
STYLE
  5
7DE1B343D9E37A8
330
7DE1B343D9E379B
100
AcDbSymbolTableRecord
100
AcDbTextStyleTableRecord
  2
STANDARD
 70
     0
 40
0.0
 41
1.0
 50
0.0
 71
     0
 42
0.3125
  3
txt
  4

  0
STYLE
  5
7DE1B343D9E37B4
330
7DE1B343D9E379B
100
AcDbSymbolTableRecord
100
AcDbTextStyleTableRecord
  2
ITALICC
 70
     0
 40
0.0
 41
1.0
 50
0.0
 71
     0
 42
0.125
  3
italicc
  4

  0
STYLE
  5
7DE1B343D9E37C4
330
7DE1B343D9E379B
100
AcDbSymbolTableRecord
100
AcDbTextStyleTableRecord
  2
ASHADE
 70
     0
 40
0.2
 41
1.0
 50
0.0
 71
     0
 42
0.3125
  3
simplex
  4

  0
STYLE
  5
7DE1B343D9E37DF
330
7DE1B343D9E379B
100
AcDbSymbolTableRecord
100
AcDbTextStyleTableRecord
  2
ROMANS
 70
     0
 40
0.0
 41
1.0
 50
0.0
 71
     0
 42
0.125
  3
romans.shx
  4

  0
ENDTAB
  0
TABLE
  2
VIEW
  5
7DE1B343D9E379E
330
0
100
AcDbSymbolTable
 70
     0
  0
ENDTAB
  0
TABLE
  2
UCS
  5
7DE1B343D9E379F
330
0
100
AcDbSymbolTable
 70
     0
  0
ENDTAB
  0
TABLE
  2
APPID
  5
7DE1B343D9E37A1
330
0
100
AcDbSymbolTable
 70
     6
  0
APPID
  5
7DE1B343D9E37A9
330
7DE1B343D9E37A1
100
AcDbSymbolTableRecord
100
AcDbRegAppTableRecord
  2
ACAD
 70
     0
  0
APPID
  5
7DE1B343D9E37C5
330
7DE1B343D9E37A1
100
AcDbSymbolTableRecord
100
AcDbRegAppTableRecord
  2
AVE_RENDER
 70
     0
  0
APPID
  5
7DE1B343D9E37C6
330
7DE1B343D9E37A1
100
AcDbSymbolTableRecord
100
AcDbRegAppTableRecord
  2
AVE_ENTITY_MATERIAL
 70
     0
  0
APPID
  5
7DE1B343D9E37D3
330
7DE1B343D9E37A1
100
AcDbSymbolTableRecord
100
AcDbRegAppTableRecord
  2
AVE_FINISH
 70
     0
  0
APPID
  5
7DE1B343D9E37D4
330
7DE1B343D9E37A1
100
AcDbSymbolTableRecord
100
AcDbRegAppTableRecord
  2
AVE_MATERIAL
 70
     0
  0
APPID
  5
7DE1B343D9E37D5
330
7DE1B343D9E37A1
100
AcDbSymbolTableRecord
100
AcDbRegAppTableRecord
  2
AVE_GLOBAL
 70
     0
  0
ENDTAB
  0
TABLE
  2
DIMSTYLE
  5
7DE1B343D9E37A2
330
0
100
AcDbSymbolTable
 70
     1
  0
DIMSTYLE
105
7DE1B343D9E37BC
330
7DE1B343D9E37A2
100
AcDbSymbolTableRecord
100
AcDbDimStyleTableRecord
  2
STANDARD
 70
     0
  3

  4

  5

  6

  7

 40
1.0
 41
0.125
 42
0.125
 43
0.375
 44
0.125
 45
0.0
 46
0.0
 47
0.0
 48
0.0
140
0.125
141
-0.125
142
0.0
143
25.4
144
1.0
145
0.0
146
1.0
147
0.09
 71
     0
 72
     0
 73
     1
 74
     1
 75
     0
 76
     0
 77
     0
 78
     4
170
     0
171
     2
172
     0
173
     0
174
     1
175
     0
176
     0
177
     0
178
     0
270
     2
271
     3
272
     3
273
     2
274
     2
340
7DE1B343D9E37DF
275
     0
280
     0
281
     0
282
     0
283
     1
284
     4
285
     0
286
     0
287
     3
288
     0
  0
ENDTAB
  0
TABLE
  2
BLOCK_RECORD
  5
7DE1B343D9E3799
330
0
100
AcDbSymbolTable
 70
     2
  0
BLOCK_RECORD
  5
7DE1B343D9E37B0
102
{ACAD_XDICTIONARY
360
7DE1B343D9E3812
102
}
330
7DE1B343D9E3799
100
AcDbSymbolTableRecord
100
AcDbBlockTableRecord
  2
*MODEL_SPACE
  0
BLOCK_RECORD
  5
7DE1B343D9E37AD
102
{ACAD_XDICTIONARY
360
7DE1B343D9E3810
102
}
330
7DE1B343D9E3799
100
AcDbSymbolTableRecord
100
AcDbBlockTableRecord
  2
*PAPER_SPACE
  0
BLOCK_RECORD
  5
7DE1B343D9E37C8
330
7DE1B343D9E3799
100
AcDbSymbolTableRecord
100
AcDbBlockTableRecord
  2
AVE_RENDER
  0
BLOCK_RECORD
  5
7DE1B343D9E37D6
330
7DE1B343D9E3799
100
AcDbSymbolTableRecord
100
AcDbBlockTableRecord
  2
AVE_GLOBAL
  0
ENDTAB
  0
ENDSEC
  0
SECTION
  2
BLOCKS
  0
BLOCK
  5
7DE1B343D9E37BA
330
7DE1B343D9E37B0
100
AcDbEntity
  8
0
100
AcDbBlockBegin
  2
*MODEL_SPACE
 70
     0
 10
0.0
 20
0.0
 30
0.0
  3
*MODEL_SPACE
  1

  0
ENDBLK
  5
7DE1B343D9E37BB
330
7DE1B343D9E37B0
100
AcDbEntity
  8
0
100
AcDbBlockEnd
  0
BLOCK
  5
7DE1B343D9E37B8
330
7DE1B343D9E37AD
100
AcDbEntity
 67
     1
  8
0
100
AcDbBlockBegin
  2
*PAPER_SPACE
 70
     0
 10
0.0
 20
0.0
 30
0.0
  3
*PAPER_SPACE
  1

  0
ENDBLK
  5
7DE1B343D9E37B9
330
7DE1B343D9E37AD
100
AcDbEntity
 67
     1
  8
0
100
AcDbBlockEnd
  0
BLOCK
  5
7DE1B343D9E37C9
330
7DE1B343D9E37C8
100
AcDbEntity
  8
0
100
AcDbBlockBegin
  2
AVE_RENDER
 70
     0
 10
0.0
 20
0.0
 30
0.0
  3
AVE_RENDER
  1
AVE_RENDER
  0
ENDBLK
  5
7DE1B343D9E37CA
330
7DE1B343D9E37C8
100
AcDbEntity
  8
0
100
AcDbBlockEnd
  0
BLOCK
  5
7DE1B343D9E37D7
330
7DE1B343D9E37D6
100
AcDbEntity
  8
0
100
AcDbBlockBegin
  2
AVE_GLOBAL
 70
     0
 10
0.0
 20
0.0
 30
0.0
  3
AVE_GLOBAL
  1
AVE_GLOBAL
  0
ENDBLK
  5
7DE1B343D9E37D8
330
7DE1B343D9E37D6
100
AcDbEntity
  8
0
100
AcDbBlockEnd
  0
ENDSEC
  0
SECTION
  2
ENTITIES
  0
LWPOLYLINE
  5
7DE1B343D9E235C
330
7DE1B343D9E37B0
100
AcDbEntity
  8
0
100
AcDbPolyline
 90
       20
 70
     1
 43
0.0
 10
3.073932927046682
 20
1.281611200141094
 10
3.073932927046683
 20
1.594111200141093
 42
0.9999999999999277
 10
2.198932927046551
 20
1.594111200141026
 10
2.198932927046421
 20
1.281611200141094
 10
2.262020806629321
 20
1.281611200141093
 42
-0.7208478347506178
 10
2.404682927046486
 20
1.408146753221429
 10
2.373432927046472
 20
1.354020165484879
 42
0.815709975227686
 10
2.324012237625374
 20
1.298338812142812
 42
-0.3000993905501904
 10
2.325627692340177
 20
1.271219070105821
 10
2.295543199589143
 20
1.219111200141093
 10
2.136432927046442
 20
1.219111200141094
 10
2.136432927046551
 20
1.594111200141239
 42
-0.9999999999998545
 10
3.136432927046551
 20
1.594111200141093
 10
3.136432927046659
 20
1.219111200141094
 10
2.977322654503828
 20
1.219111200141093
 10
2.947238161752794
 20
1.271219070105821
 42
-0.3000993905501903
 10
2.948853616467597
 20
1.298338812142812
 42
0.815709975227686
 10
2.899432927046499
 20
1.354020165484879
 10
2.868182927046485
 20
1.408146753221429
 42
-0.7208478347506125
 10
3.010845047463667
 20
1.281611200141089
  0
TEXT
  5
7DE1B343D9E365B
330
7DE1B343D9E37B0
100
AcDbEntity
  8
TEXT
100
AcDbText
 10
1.880480546094171
 20
0.9055515297288376
 30
0.0
 40
0.125
  1
PART #110257
  7
ITALICC
 72
     1
 11
2.636432927046551
 21
0.9055515297288376
 31
0.0
100
AcDbText
  0
TEXT
  5
7DE1B343D9E365C
330
7DE1B343D9E37B0
100
AcDbEntity
  8
TEXT
100
AcDbText
 10
3.049738085296872
 20
0.4586288870564626
 30
0.0
 40
0.0522247191011236
  1
Phone  1-800-328-2495
 41
1.272321428571429
 72
     5
 11
4.378670669566536
 21
0.4586288870564626
 31
0.0
100
AcDbText
  0
TEXT
  5
7DE1B343D9E365D
330
7DE1B343D9E37B0
100
AcDbEntity
  8
TEXT
100
AcDbText
 10
3.049738085296872
 20
0.7384041679553391
 30
0.0
 40
0.0522247191011236
  1
Stylmark  Incorporated
 41
1.221428571428573
 72
     5
 11
4.378670669566536
 21
0.7384041679553391
 31
0.0
100
AcDbText
  0
TEXT
  5
7DE1B343D9E365E
330
7DE1B343D9E37B0
100
AcDbEntity
  8
TEXT
100
AcDbText
 10
3.049738085296872
 20
0.6451457409890469
 30
0.0
 40
0.0522247191011236
  1
6536 Main St. N.E. * P.O. Box 32008
 41
0.8388932496075366
 72
     5
 11
4.378670669566536
 21
0.6451457409890469
 31
0.0
100
AcDbText
  0
TEXT
  5
7DE1B343D9E365F
330
7DE1B343D9E37B0
100
AcDbEntity
  8
TEXT
100
AcDbText
 10
3.049738085296872
 20
0.5518873140227547
 30
0.0
 40
0.0522247191011236
  1
Minneapolis, MN 55432-0008
 41
1.11444212721585
 72
     5
 11
4.378670669566536
 21
0.5518873140227547
 31
0.0
100
AcDbText
  0
LWPOLYLINE
  5
7DE1B343D9E3660
330
7DE1B343D9E37B0
100
AcDbEntity
  8
TEXT
100
AcDbPolyline
 90
        3
 70
     0
 43
0.0006660908203125
 10
0.8937843932295645
 20
0.5722736496938974
 10
0.8937843932295645
 20
0.4590382102407698
 10
1.007019832682686
 20
0.4590382102407698
  0
LWPOLYLINE
  5
7DE1B343D9E3665
330
7DE1B343D9E37B0
100
AcDbEntity
  8
TEXT
100
AcDbPolyline
 90
        3
 70
     0
 43
0.0006660908203125
 10
0.920428026042062
 20
0.5722736496938974
 10
0.920428026042062
 20
0.4856818430532708
 10
1.007019832682686
 20
0.4856818430532708
  0
LWPOLYLINE
  5
7DE1B343D9E366A
330
7DE1B343D9E37B0
100
AcDbEntity
  8
TEXT
100
AcDbPolyline
 90
        2
 70
     0
 43
0.0001332181640625
 10
0.9670543834639389
 20
0.5822650119985826
 10
0.8937843932295645
 20
0.5722736496938974
  0
LWPOLYLINE
  5
7DE1B343D9E366E
330
7DE1B343D9E37B0
100
AcDbEntity
  8
TEXT
100
AcDbPolyline
 90
        2
 70
     0
 43
0.0001332181640625
 10
0.920428026042062
 20
0.5722736496938974
 10
0.9803761998701894
 20
0.5822650119985826
  0
LWPOLYLINE
  5
7DE1B343D9E3672
330
7DE1B343D9E37B0
100
AcDbEntity
  8
TEXT
100
AcDbPolyline
 90
        2
 70
     0
 43
0.0001332181640625
 10
0.920428026042062
 20
0.4856818430532708
 10
0.9803761998701894
 20
0.5456300168813964
  0
LWPOLYLINE
  5
7DE1B343D9E3676
330
7DE1B343D9E37B0
100
AcDbEntity
  8
TEXT
100
AcDbPolyline
 90
        3
 70
     0
 43
0.0006660908203125
 10
1.007019832682686
 20
0.7254745383657731
 10
0.8937843932295645
 20
0.7254745383657731
 10
0.8937843932295645
 20
0.6122390989126454
  0
LWPOLYLINE
  5
7DE1B343D9E367B
330
7DE1B343D9E37B0
100
AcDbEntity
  8
TEXT
100
AcDbPolyline
 90
        3
 70
     0
 43
0.0006660908203125
 10
1.007019832682686
 20
0.698830905553272
 10
0.920428026042062
 20
0.698830905553272
 10
0.920428026042062
 20
0.6122390989126454
  0
LWPOLYLINE
  5
7DE1B343D9E3680
330
7DE1B343D9E37B0
100
AcDbEntity
  8
TEXT
100
AcDbPolyline
 90
        2
 70
     0
 43
0.0001332181640625
 10
0.920428026042062
 20
0.698830905553272
 10
0.9803761998701876
 20
0.6388827317251465
  0
LWPOLYLINE
  5
7DE1B343D9E3684
330
7DE1B343D9E37B0
100
AcDbEntity
  8
TEXT
100
AcDbPolyline
 90
        2
 70
     0
 43
0.0001332181640625
 10
0.920428026042062
 20
0.6122390989126454
 10
0.9803761998701876
 20
0.6022477366079566
  0
LWPOLYLINE
  5
7DE1B343D9E3688
330
7DE1B343D9E37B0
100
AcDbEntity
  8
TEXT
100
AcDbPolyline
 90
        2
 70
     0
 43
0.0001332181640625
 10
0.8937843932295645
 20
0.6122390989126454
 10
0.9670543834639389
 20
0.6022477366079566
  0
LWPOLYLINE
  5
7DE1B343D9E368C
330
7DE1B343D9E37B0
100
AcDbEntity
  8
TEXT
100
AcDbPolyline
 90
        2
 70
     0
 43
0.0006660908203125
 10
0.920428026042062
 20
0.5722736496938974
 10
0.8937843932295645
 20
0.5722736496938974
  0
LWPOLYLINE
  5
7DE1B343D9E3690
330
7DE1B343D9E37B0
100
AcDbEntity
  8
TEXT
100
AcDbPolyline
 90
        2
 70
     0
 43
0.0006660908203125
 10
0.920428026042062
 20
0.6122390989126454
 10
0.8937843932295645
 20
0.6122390989126454
  0
LINE
  5
7DE1B343D9E3694
330
7DE1B343D9E37B0
100
AcDbEntity
  8
TEXT
100
AcDbLine
 10
2.408974822356062
 20
0.6611978437090041
 30
0.0
 11
2.301768548968772
 21
0.6611978437090041
 31
0.0
  0
LINE
  5
7DE1B343D9E3695
330
7DE1B343D9E37B0
100
AcDbEntity
  8
TEXT
100
AcDbLine
 10
2.43800572070054
 20
0.7254745383657695
 30
0.0
 11
2.303173811483481
 21
0.7254745383657695
 31
0.0
  0
ARC
  5
7DE1B343D9E3696
330
7DE1B343D9E37B0
100
AcDbEntity
  8
TEXT
100
AcDbCircle
 10
2.362487907876798
 20
0.5562372891027532
 30
0.0
 40
0.0676855811441166
100
AcDbArc
 50
90.0
 51
153.7768192527749
  0
LWPOLYLINE
  5
7DE1B343D9E3697
330
7DE1B343D9E37B0
100
AcDbEntity
  8
TEXT
100
AcDbPolyline
 90
        2
 70
     0
 43
0.0
 10
2.300736053513962
 20
0.5024924503276967
 42
0.2901071551932823
 10
2.343811986381598
 20
0.4590015053772585
 42
5.328517124445801
  0
ARC
  5
7DE1B343D9E369B
330
7DE1B343D9E37B0
100
AcDbEntity
  8
TEXT
100
AcDbCircle
 10
1.657356530205312
 20
0.5187938967153083
 30
0.0
 40
0.0601160179737537
100
AcDbArc
 50
180.0000000000003
 51
264.0521544866073
  0
LINE
  5
7DE1B343D9E369C
330
7DE1B343D9E37B0
100
AcDbEntity
  8
TEXT
100
AcDbLine
 10
1.66087188583086
 20
0.7598624559599077
 30
0.0
 11
1.600829280986853
 21
0.7598624559599077
 31
0.0
  0
ARC
  5
7DE1B343D9E369D
330
7DE1B343D9E37B0
100
AcDbEntity
  8
TEXT
100
AcDbCircle
 10
1.425097528088342
 20
0.6433870789192678
 30
0.0
 40
0.0820874594465043
100
AcDbArc
 50
90.0
 51
270.0
  0
LWPOLYLINE
  5
7DE1B343D9E369E
330
7DE1B343D9E37B0
100
AcDbEntity
  8
TEXT
100
AcDbPolyline
 90
        2
 70
     0
 43
0.0001332181640625
 10
1.017011194987377
 20
0.6522045481313934
 10
1.007019832682686
 20
0.7254745383657731
  0
LWPOLYLINE
  5
7DE1B343D9E36A2
330
7DE1B343D9E37B0
100
AcDbEntity
  8
TEXT
100
AcDbPolyline
 90
        2
 70
     0
 43
0.0001332181640625
 10
1.007019832682686
 20
0.698830905553272
 10
1.017011194987377
 20
0.6388827317251465
  0
LWPOLYLINE
  5
7DE1B343D9E36A6
330
7DE1B343D9E37B0
100
AcDbEntity
  8
TEXT
100
AcDbPolyline
 90
        3
 70
     0
 43
0.0006660908203125
 10
1.160220721354564
 20
0.6122390989126454
 10
1.160220721354564
 20
0.7254745383657731
 10
1.046985281901438
 20
0.7254745383657731
  0
LWPOLYLINE
  5
7DE1B343D9E36AB
330
7DE1B343D9E37B0
100
AcDbEntity
  8
TEXT
100
AcDbPolyline
 90
        3
 70
     0
 43
0.0006660908203125
 10
1.133577088542063
 20
0.6122390989126454
 10
1.133577088542063
 20
0.698830905553272
 10
1.046985281901438
 20
0.698830905553272
  0
LWPOLYLINE
  5
7DE1B343D9E36B0
330
7DE1B343D9E37B0
100
AcDbEntity
  8
TEXT
100
AcDbPolyline
 90
        2
 70
     0
 43
0.0001332181640625
 10
1.133577088542063
 20
0.698830905553272
 10
1.073628914713939
 20
0.6388827317251465
  0
LWPOLYLINE
  5
7DE1B343D9E36B4
330
7DE1B343D9E37B0
100
AcDbEntity
  8
TEXT
100
AcDbPolyline
 90
        2
 70
     0
 43
0.0001332181640625
 10
1.046985281901438
 20
0.698830905553272
 10
1.036993919596749
 20
0.6388827317251465
  0
LWPOLYLINE
  5
7DE1B343D9E36B8
330
7DE1B343D9E37B0
100
AcDbEntity
  8
TEXT
100
AcDbPolyline
 90
        2
 70
     0
 43
0.0001332181640625
 10
1.046985281901438
 20
0.7254745383657731
 10
1.036993919596749
 20
0.6522045481313934
  0
LWPOLYLINE
  5
7DE1B343D9E36BC
330
7DE1B343D9E37B0
100
AcDbEntity
  8
TEXT
100
AcDbPolyline
 90
        2
 70
     0
 43
0.0001332181640625
 10
1.086950731120188
 20
0.6022477366079566
 10
1.160220721354564
 20
0.6122390989126454
  0
LWPOLYLINE
  5
7DE1B343D9E36C0
330
7DE1B343D9E37B0
100
AcDbEntity
  8
TEXT
100
AcDbPolyline
 90
        2
 70
     0
 43
0.0001332181640625
 10
1.133577088542063
 20
0.6122390989126454
 10
1.073628914713939
 20
0.6022477366079566
  0
LWPOLYLINE
  5
7DE1B343D9E36C4
330
7DE1B343D9E37B0
100
AcDbEntity
  8
TEXT
100
AcDbPolyline
 90
        2
 70
     0
 43
0.0001332181640625
 10
1.160220721354564
 20
0.5722736496938974
 10
1.086950731120188
 20
0.5822650119985826
  0
LWPOLYLINE
  5
7DE1B343D9E36C8
330
7DE1B343D9E37B0
100
AcDbEntity
  8
TEXT
100
AcDbPolyline
 90
        2
 70
     0
 43
0.0001332181640625
 10
1.133577088542063
 20
0.5722736496938974
 10
1.073628914713939
 20
0.5822650119985826
  0
LWPOLYLINE
  5
7DE1B343D9E36CC
330
7DE1B343D9E37B0
100
AcDbEntity
  8
TEXT
100
AcDbPolyline
 90
        2
 70
     0
 43
0.0001332181640625
 10
1.133577088542063
 20
0.4856818430532708
 10
1.073628914713939
 20
0.5456300168813964
  0
LWPOLYLINE
  5
7DE1B343D9E36D0
330
7DE1B343D9E37B0
100
AcDbEntity
  8
TEXT
100
AcDbPolyline
 90
        3
 70
     0
 43
0.0006660908203125
 10
1.046985281901438
 20
0.4856818430532708
 10
1.133577088542063
 20
0.4856818430532708
 10
1.133577088542063
 20
0.5722736496938974
  0
LWPOLYLINE
  5
7DE1B343D9E36D5
330
7DE1B343D9E37B0
100
AcDbEntity
  8
TEXT
100
AcDbPolyline
 90
        3
 70
     0
 43
0.0006660908203125
 10
1.046985281901438
 20
0.4590382102407698
 10
1.160220721354564
 20
0.4590382102407698
 10
1.160220721354564
 20
0.5722736496938974
  0
LWPOLYLINE
  5
7DE1B343D9E36DA
330
7DE1B343D9E37B0
100
AcDbEntity
  8
TEXT
100
AcDbPolyline
 90
        5
 70
     0
 43
0.0001332181640625
 10
1.017011194987377
 20
0.5323082004751459
 10
1.017011194987377
 20
0.5456300168813964
 10
0.9803761998701894
 20
0.5456300168813964
 10
0.9803761998701894
 20
0.5822650119985826
 10
0.9670543834639389
 20
0.5822650119985826
  0
LWPOLYLINE
  5
7DE1B343D9E36E1
330
7DE1B343D9E37B0
100
AcDbEntity
  8
TEXT
100
AcDbPolyline
 90
        2
 70
     0
 43
0.0006660908203125
 10
1.007019832682686
 20
0.4856818430532708
 10
1.007019832682686
 20
0.4590382102407698
  0
LWPOLYLINE
  5
7DE1B343D9E36E5
330
7DE1B343D9E37B0
100
AcDbEntity
  8
TEXT
100
AcDbPolyline
 90
        2
 70
     0
 43
0.0001332181640625
 10
1.007019832682686
 20
0.4856818430532708
 10
1.017011194987377
 20
0.5456300168813964
  0
LWPOLYLINE
  5
7DE1B343D9E36E9
330
7DE1B343D9E37B0
100
AcDbEntity
  8
TEXT
100
AcDbPolyline
 90
        2
 70
     0
 43
0.0001332181640625
 10
1.007019832682686
 20
0.4590382102407698
 10
1.017011194987377
 20
0.5323082004751459
  0
LWPOLYLINE
  5
7DE1B343D9E36ED
330
7DE1B343D9E37B0
100
AcDbEntity
  8
TEXT
100
AcDbPolyline
 90
        5
 70
     0
 43
0.0001332181640625
 10
0.9670543834639389
 20
0.6022477366079566
 10
0.9803761998701876
 20
0.6022477366079566
 10
0.9803761998701876
 20
0.6388827317251465
 10
1.017011194987377
 20
0.6388827317251465
 10
1.017011194987377
 20
0.6522045481313934
  0
LWPOLYLINE
  5
7DE1B343D9E36F4
330
7DE1B343D9E37B0
100
AcDbEntity
  8
TEXT
100
AcDbPolyline
 90
        5
 70
     0
 43
0.0001332181640625
 10
1.036993919596749
 20
0.6522045481313934
 10
1.036993919596749
 20
0.6388827317251465
 10
1.073628914713939
 20
0.6388827317251465
 10
1.073628914713939
 20
0.6022477366079566
 10
1.086950731120188
 20
0.6022477366079566
  0
LWPOLYLINE
  5
7DE1B343D9E36FB
330
7DE1B343D9E37B0
100
AcDbEntity
  8
TEXT
100
AcDbPolyline
 90
        2
 70
     0
 43
0.0001332181640625
 10
1.046985281901438
 20
0.4856818430532708
 10
1.036993919596749
 20
0.5456300168813964
  0
LWPOLYLINE
  5
7DE1B343D9E36FF
330
7DE1B343D9E37B0
100
AcDbEntity
  8
TEXT
100
AcDbPolyline
 90
        2
 70
     0
 43
0.0001332181640625
 10
1.036993919596749
 20
0.5323082004751459
 10
1.046985281901438
 20
0.4590382102407698
  0
LWPOLYLINE
  5
7DE1B343D9E3703
330
7DE1B343D9E37B0
100
AcDbEntity
  8
TEXT
100
AcDbPolyline
 90
        2
 70
     0
 43
0.0006660908203125
 10
1.046985281901438
 20
0.4856818430532708
 10
1.046985281901438
 20
0.4590382102407698
  0
LWPOLYLINE
  5
7DE1B343D9E3707
330
7DE1B343D9E37B0
100
AcDbEntity
  8
TEXT
100
AcDbPolyline
 90
        5
 70
     0
 43
0.0001332181640625
 10
1.086950731120188
 20
0.5822650119985826
 10
1.073628914713939
 20
0.5822650119985826
 10
1.073628914713939
 20
0.5456300168813964
 10
1.036993919596749
 20
0.5456300168813964
 10
1.036993919596749
 20
0.5323082004751459
  0
LWPOLYLINE
  5
7DE1B343D9E370E
330
7DE1B343D9E37B0
100
AcDbEntity
  8
TEXT
100
AcDbPolyline
 90
        2
 70
     0
 43
0.0006660908203125
 10
1.133577088542063
 20
0.6122390989126454
 10
1.160220721354564
 20
0.6122390989126454
  0
LWPOLYLINE
  5
7DE1B343D9E3712
330
7DE1B343D9E37B0
100
AcDbEntity
  8
TEXT
100
AcDbPolyline
 90
        2
 70
     0
 43
0.0006660908203125
 10
1.133577088542063
 20
0.5722736496938974
 10
1.160220721354564
 20
0.5722736496938974
  0
LINE
  5
7DE1B343D9E3716
330
7DE1B343D9E37B0
100
AcDbEntity
  8
TEXT
100
AcDbLine
 10
1.430334858202589
 20
0.6611978437090041
 30
0.0
 11
1.59724051223156
 21
0.6611978437090041
 31
0.0
  0
LINE
  5
7DE1B343D9E3717
330
7DE1B343D9E37B0
100
AcDbEntity
  8
TEXT
100
AcDbLine
 10
1.49593499444689
 20
0.6253931220983762
 30
0.0
 11
1.430334858202589
 21
0.6253931220983762
 31
0.0
  0
LINE
  5
7DE1B343D9E3718
330
7DE1B343D9E37B0
100
AcDbEntity
  8
TEXT
100
AcDbLine
 10
1.343010068641837
 20
0.4590015053772585
 30
0.0
 11
1.49593499444689
 21
0.4590015053772585
 31
0.0
  0
LINE
  5
7DE1B343D9E3719
330
7DE1B343D9E37B0
100
AcDbEntity
  8
TEXT
100
AcDbLine
 10
1.500875368353169
 20
0.5273585117106978
 30
0.0
 11
1.343010068641835
 21
0.5273585117106978
 31
0.0
  0
LINE
  5
7DE1B343D9E371A
330
7DE1B343D9E37B0
100
AcDbEntity
  8
TEXT
100
AcDbLine
 10
1.425097528088341
 20
0.5612996194727625
 30
0.0
 11
1.500875368353169
 21
0.5612996194727625
 31
0.0
  0
ARC
  5
7DE1B343D9E371B
330
7DE1B343D9E37B0
100
AcDbEntity
  8
TEXT
100
AcDbCircle
 10
1.43033485820259
 20
0.6432954829036919
 30
0.0
 40
0.017902360805315
100
AcDbArc
 50
90.0
 51
270.0
  0
LINE
  5
7DE1B343D9E371C
330
7DE1B343D9E37B0
100
AcDbEntity
  8
TEXT
100
AcDbLine
 10
1.343010068641835
 20
0.5273585117106978
 30
0.0
 11
1.343010068641837
 21
0.4590015053772585
 31
0.0
  0
LINE
  5
7DE1B343D9E371D
330
7DE1B343D9E37B0
100
AcDbEntity
  8
TEXT
100
AcDbLine
 10
1.59724051223156
 20
0.6611978437090041
 30
0.0
 11
1.59724051223156
 21
0.5187938967153083
 31
0.0
  0
ARC
  5
7DE1B343D9E371E
330
7DE1B343D9E37B0
100
AcDbEntity
  8
TEXT
100
AcDbCircle
 10
1.495934994446891
 20
0.5421973137378156
 30
0.0
 40
0.0831958083605586
100
AcDbArc
 50
270.0
 51
90.0
  0
ARC
  5
7DE1B343D9E371F
330
7DE1B343D9E37B0
100
AcDbEntity
  8
TEXT
100
AcDbCircle
 10
1.50087536835317
 20
0.5443290655917319
 30
0.0
 40
0.0169705538810321
100
AcDbArc
 50
270.0
 51
90.0
  0
LWPOLYLINE
  5
7DE1B343D9E3720
330
7DE1B343D9E37B0
100
AcDbEntity
  8
TEXT
100
AcDbPolyline
 90
        2
 70
     0
 43
0.0006660908203125
 10
1.007019832682686
 20
0.698830905553272
 10
1.007019832682686
 20
0.7254745383657731
  0
LWPOLYLINE
  5
7DE1B343D9E3724
330
7DE1B343D9E37B0
100
AcDbEntity
  8
TEXT
100
AcDbPolyline
 90
        2
 70
     0
 43
0.0006660908203125
 10
1.046985281901438
 20
0.698830905553272
 10
1.046985281901438
 20
0.7254745383657731
  0
LINE
  5
7DE1B343D9E3728
330
7DE1B343D9E37B0
100
AcDbEntity
  8
TEXT
100
AcDbLine
 10
1.600829280986853
 20
0.7254745383657695
 30
0.0
 11
1.425097528088341
 21
0.7254745383657695
 31
0.0
  0
LINE
  5
7DE1B343D9E3729
330
7DE1B343D9E37B0
100
AcDbEntity
  8
TEXT
100
AcDbLine
 10
1.600829280986853
 20
0.7598624559599077
 30
0.0
 11
1.600829280986853
 21
0.7254745383657695
 31
0.0
  0
LINE
  5
7DE1B343D9E372A
330
7DE1B343D9E37B0
100
AcDbEntity
  8
TEXT
100
AcDbLine
 10
1.791301173006705
 20
0.6246025422526489
 30
0.0
 11
1.732670851974767
 21
0.7254745383657695
 31
0.0
  0
LINE
  5
7DE1B343D9E372B
330
7DE1B343D9E37B0
100
AcDbEntity
  8
TEXT
100
AcDbLine
 10
1.850049735812571
 20
0.7254745383657695
 30
0.0
 11
1.791301173006705
 21
0.6246025422526489
 31
0.0
  0
LINE
  5
7DE1B343D9E372C
330
7DE1B343D9E37B0
100
AcDbEntity
  8
TEXT
100
AcDbLine
 10
1.946980361172312
 20
0.5413893434802577
 30
0.0
 11
1.946980361172312
 21
0.7934860161045801
 31
0.0
  0
LINE
  5
7DE1B343D9E372D
330
7DE1B343D9E37B0
100
AcDbEntity
  8
TEXT
100
AcDbLine
 10
1.979292215309972
 20
0.7254745383657695
 30
0.0
 11
1.979292215309972
 21
0.5246103316333613
 31
0.0
  0
LINE
  5
7DE1B343D9E372E
330
7DE1B343D9E37B0
100
AcDbEntity
  8
TEXT
100
AcDbLine
 10
1.979292215309972
 20
0.5246103316333613
 30
0.0
 11
1.962298578425371
 21
0.5246103316333613
 31
0.0
  0
LINE
  5
7DE1B343D9E372F
330
7DE1B343D9E37B0
100
AcDbEntity
  8
TEXT
100
AcDbLine
 10
1.948119934668507
 20
0.4590015053772585
 30
0.0
 11
2.046123268367941
 21
0.4590015053772585
 31
0.0
  0
LINE
  5
7DE1B343D9E3730
330
7DE1B343D9E37B0
100
AcDbEntity
  8
TEXT
100
AcDbLine
 10
1.781700936009751
 20
0.4789600114822714
 30
0.0
 11
1.879000642103195
 21
0.6433102224175396
 31
0.0
  0
ARC
  5
7DE1B343D9E3731
330
7DE1B343D9E37B0
100
AcDbEntity
  8
TEXT
100
AcDbCircle
 10
1.747657376097537
 20
0.4985492276509543
 30
0.0
 40
0.0392772371940762
100
AcDbArc
 50
270.1604552698595
 51
330.0831797321295
  0
LINE
  5
7DE1B343D9E3732
330
7DE1B343D9E37B0
100
AcDbEntity
  8
TEXT
100
AcDbLine
 10
1.651127119711666
 20
0.4590015053772585
 30
0.0
 11
1.74776737078666
 21
0.4592721444755408
 31
0.0
  0
LWPOLYLINE
  5
7DE1B343D9E3733
330
7DE1B343D9E37B0
100
AcDbEntity
  8
TEXT
100
AcDbPolyline
 90
        6
 70
     1
 43
0.0
 10
1.693650923286815
 20
0.6611978437090041
 10
1.663334329066607
 20
0.6611978437090041
 10
1.663334329066607
 20
0.5380868456541097
 42
0.407328721240804
 10
1.674877980228083
 20
0.5262679309777237
 10
1.735499679272814
 20
0.5262679309777237
 10
1.752965019680132
 20
0.5590801600212028
  0
LINE
  5
7DE1B343D9E373B
330
7DE1B343D9E37B0
100
AcDbEntity
  8
TEXT
100
AcDbLine
 10
1.879000642103195
 20
0.6433102224175396
 30
0.0
 11
1.879000642103195
 21
0.5105528475921833
 31
0.0
  0
ARC
  5
7DE1B343D9E373C
330
7DE1B343D9E37B0
100
AcDbEntity
  8
TEXT
100
AcDbCircle
 10
1.962298578425369
 20
0.5399921378767867
 30
0.0
 40
0.0153818062434269
100
AcDbArc
 50
174.7883570302258
 51
270.0
  0
LWPOLYLINE
  5
7DE1B343D9E373D
330
7DE1B343D9E37B0
100
AcDbEntity
  8
TEXT
100
AcDbPolyline
 90
        2
 70
     0
 43
0.0
 10
1.879000642103194
 20
0.5105528475921868
 42
0.3318488747599744
 10
1.948119934668507
 20
0.4590015053772585
 42
-6.868794160588311
  0
LINE
  5
7DE1B343D9E3741
330
7DE1B343D9E37B0
100
AcDbEntity
  8
TEXT
100
AcDbLine
 10
2.103512337357202
 20
0.4590015053772585
 30
0.0
 11
2.170570384139042
 21
0.4590015053772585
 31
0.0
  0
LINE
  5
7DE1B343D9E3742
330
7DE1B343D9E37B0
100
AcDbEntity
  8
TEXT
100
AcDbLine
 10
2.103512337357202
 20
0.6536440545428941
 30
0.0
 11
2.103512337357202
 21
0.4590015053772585
 31
0.0
  0
LINE
  5
7DE1B343D9E3743
330
7DE1B343D9E37B0
100
AcDbEntity
  8
TEXT
100
AcDbLine
 10
2.046123268367941
 20
0.6611978437090041
 30
0.0
 11
2.095958548191089
 21
0.6611978437090041
 31
0.0
  0
LINE
  5
7DE1B343D9E3744
330
7DE1B343D9E37B0
100
AcDbEntity
  8
TEXT
100
AcDbLine
 10
2.046123268367941
 20
0.4590015053772585
 30
0.0
 11
2.046123268367941
 21
0.6611978437090041
 31
0.0
  0
LWPOLYLINE
  5
7DE1B343D9E3745
330
7DE1B343D9E37B0
100
AcDbEntity
  8
TEXT
100
AcDbPolyline
 90
        2
 70
     0
 43
0.0
 10
2.095958548191087
 20
0.6611978437090041
 42
-0.4142135623731017
 10
2.103512337357201
 20
0.6536440545428941
 42
-0.9999999999999998
  0
LINE
  5
7DE1B343D9E3749
330
7DE1B343D9E37B0
100
AcDbEntity
  8
TEXT
100
AcDbLine
 10
2.301768548968772
 20
0.6611978437090041
 30
0.0
 11
2.301768548968772
 21
0.5861454376347975
 31
0.0
  0
LINE
  5
7DE1B343D9E374A
330
7DE1B343D9E37B0
100
AcDbEntity
  8
TEXT
100
AcDbLine
 10
2.170570384139042
 20
0.6611978437090041
 30
0.0
 11
2.224703981059993
 21
0.6611978437090041
 31
0.0
  0
LINE
  5
7DE1B343D9E374B
330
7DE1B343D9E37B0
100
AcDbEntity
  8
TEXT
100
AcDbLine
 10
2.170570384139042
 20
0.4590015053772585
 30
0.0
 11
2.170570384139042
 21
0.6611978437090041
 31
0.0
  0
LWPOLYLINE
  5
7DE1B343D9E374C
330
7DE1B343D9E37B0
100
AcDbEntity
  8
TEXT
100
AcDbPolyline
 90
        2
 70
     0
 43
0.0
 10
2.224703981059991
 20
0.6611978437090041
 42
-0.4142135623731017
 10
2.232257770226104
 20
0.6536440545428941
 42
-0.9999999999999998
  0
LWPOLYLINE
  5
7DE1B343D9E3750
330
7DE1B343D9E37B0
100
AcDbEntity
  8
TEXT
100
AcDbPolyline
 90
        4
 70
     0
 43
0.0
 10
2.232257770226104
 20
0.6536440545428941
 10
2.232257770226104
 20
0.4590015053772585
 10
2.300736053513962
 20
0.4590015053772585
 10
2.300736053513962
 20
0.5024924503276967
 42
-1.714843617202739
  0
LINE
  5
7DE1B343D9E3756
330
7DE1B343D9E37B0
100
AcDbEntity
  8
TEXT
100
AcDbLine
 10
1.66087188583086
 20
0.7254745383657695
 30
0.0
 11
1.66087188583086
 21
0.7598624559599077
 31
0.0
  0
LINE
  5
7DE1B343D9E3757
330
7DE1B343D9E37B0
100
AcDbEntity
  8
TEXT
100
AcDbLine
 10
1.732670851974767
 20
0.7254745383657695
 30
0.0
 11
1.66087188583086
 21
0.7254745383657695
 31
0.0
  0
LINE
  5
7DE1B343D9E3758
330
7DE1B343D9E37B0
100
AcDbEntity
  8
TEXT
100
AcDbLine
 10
1.880171648605947
 20
0.7254745383657695
 30
0.0
 11
1.850049735812571
 21
0.7254745383657695
 31
0.0
  0
LINE
  5
7DE1B343D9E3759
330
7DE1B343D9E37B0
100
AcDbEntity
  8
TEXT
100
AcDbLine
 10
1.880171648605947
 20
0.7934860161045801
 30
0.0
 11
1.880171648605947
 21
0.7254745383657695
 31
0.0
  0
LINE
  5
7DE1B343D9E375A
330
7DE1B343D9E37B0
100
AcDbEntity
  8
TEXT
100
AcDbLine
 10
1.946980361172312
 20
0.7934860161045801
 30
0.0
 11
1.880171648605947
 21
0.7934860161045801
 31
0.0
  0
LWPOLYLINE
  5
7DE1B343D9E375B
330
7DE1B343D9E37B0
100
AcDbEntity
  8
TEXT
100
AcDbPolyline
 90
        3
 70
     0
 43
0.0
 10
2.267392120770314
 20
0.7254745383657731
 10
2.14909196195427
 20
0.7254745383657731
 10
2.14909196195427
 20
0.6983070416048771
 42
-1.960274751411753
  0
LINE
  5
7DE1B343D9E3760
330
7DE1B343D9E37B0
100
AcDbEntity
  8
TEXT
100
AcDbLine
 10
2.113310271241108
 20
0.7254745383657695
 30
0.0
 11
1.979292215309972
 21
0.7254745383657695
 31
0.0
  0
LWPOLYLINE
  5
7DE1B343D9E3761
330
7DE1B343D9E37B0
100
AcDbEntity
  8
TEXT
100
AcDbPolyline
 90
        2
 70
     0
 43
0.0
 10
2.113310271241108
 20
0.7254745383657731
 42
-0.3328679258950098
 10
2.14909196195427
 20
0.6983070416048771
 42
6.772930709997214
  0
LINE
  5
7DE1B343D9E3765
330
7DE1B343D9E37B0
100
AcDbEntity
  8
TEXT
100
AcDbLine
 10
2.303173811483481
 20
0.7254745383657695
 30
0.0
 11
2.303173811483481
 21
0.6971519925961256
 31
0.0
  0
LWPOLYLINE
  5
7DE1B343D9E3766
330
7DE1B343D9E37B0
100
AcDbEntity
  8
TEXT
100
AcDbPolyline
 90
        2
 70
     0
 43
0.0
 10
2.267392120770314
 20
0.7254745383657731
 42
-0.3277054968067132
 10
2.303173811483479
 20
0.6971519925961292
 42
6.667889725900311
  0
LINE
  5
7DE1B343D9E376A
330
7DE1B343D9E37B0
100
AcDbEntity
  8
TEXT
100
AcDbLine
 10
2.516965659575581
 20
0.6202625598123422
 30
0.0
 11
2.473214888393679
 21
0.7025128358084874
 31
0.0
  0
LINE
  5
7DE1B343D9E376B
330
7DE1B343D9E37B0
100
AcDbEntity
  8
TEXT
100
AcDbLine
 10
2.516965659575581
 20
0.7254745383657695
 30
0.0
 11
2.516965659575581
 21
0.6202625598123422
 31
0.0
  0
LINE
  5
7DE1B343D9E376C
330
7DE1B343D9E37B0
100
AcDbEntity
  8
TEXT
100
AcDbLine
 10
2.74464939851395
 20
0.6496092119542314
 30
0.0
 11
2.74464939851395
 21
0.7909387441333702
 31
0.0
  0
LINE
  5
7DE1B343D9E376D
330
7DE1B343D9E37B0
100
AcDbEntity
  8
TEXT
100
AcDbLine
 10
2.791747557069935
 20
0.7254745383657695
 30
0.0
 11
2.74464939851395
 21
0.6496092119542314
 31
0.0
  0
LINE
  5
7DE1B343D9E376E
330
7DE1B343D9E37B0
100
AcDbEntity
  8
TEXT
100
AcDbLine
 10
2.802182273833857
 20
0.6155812954247959
 30
0.0
 11
2.866739389799563
 21
0.7254745383657695
 31
0.0
  0
LINE
  5
7DE1B343D9E376F
330
7DE1B343D9E37B0
100
AcDbEntity
  8
TEXT
100
AcDbLine
 10
2.680814407291177
 20
0.4590015053772585
 30
0.0
 11
2.745192591609797
 21
0.4590015053772585
 31
0.0
  0
LWPOLYLINE
  5
7DE1B343D9E3770
330
7DE1B343D9E37B0
100
AcDbEntity
  8
TEXT
100
AcDbPolyline
 90
        2
 70
     0
 43
0.0
 10
2.520905336880619
 20
0.5024924503276967
 42
-0.2901071551932486
 10
2.477829404012974
 20
0.4590015053772585
 42
-5.328517124445184
  0
ARC
  5
7DE1B343D9E3774
330
7DE1B343D9E37B0
100
AcDbEntity
  8
TEXT
100
AcDbCircle
 10
2.40897482235606
 20
0.6328384687090068
 30
0.0
 40
0.028359375
100
AcDbArc
 50
25.78218179591245
 51
90.0
  0
LINE
  5
7DE1B343D9E3775
330
7DE1B343D9E37B0
100
AcDbEntity
  8
TEXT
100
AcDbLine
 10
2.444775897660183
 20
0.6239228702468718
 30
0.0
 11
2.434511137246619
 21
0.6451734098195661
 31
0.0
  0
LINE
  5
7DE1B343D9E3776
330
7DE1B343D9E37B0
100
AcDbEntity
  8
TEXT
100
AcDbLine
 10
2.3624879078768
 20
0.6239228702468718
 30
0.0
 11
2.444775897660183
 21
0.6239228702468718
 31
0.0
  0
LWPOLYLINE
  5
7DE1B343D9E3777
330
7DE1B343D9E37B0
100
AcDbEntity
  8
TEXT
100
AcDbPolyline
 90
        4
 70
     1
 43
0.0
 10
2.457706938943082
 20
0.5619654833612838
 10
2.369046620283223
 20
0.5619654833612838
 42
0.9999999999999998
 10
2.369046620283223
 20
0.519566942857423
 10
2.457706938943082
 20
0.519566942857423
 42
1.0
  0
LWPOLYLINE
  5
7DE1B343D9E377D
330
7DE1B343D9E37B0
100
AcDbEntity
  8
TEXT
100
AcDbPolyline
 90
        2
 70
     0
 43
0.0
 10
2.343811986381598
 20
0.4590015053772585
 10
2.477829404012974
 20
0.4590015053772585
 42
0.9999999999999998
  0
LINE
  5
7DE1B343D9E3781
330
7DE1B343D9E37B0
100
AcDbEntity
  8
TEXT
100
AcDbLine
 10
2.604166425998614
 20
0.6611978437090041
 30
0.0
 11
2.680814407291172
 21
0.6611978437090041
 31
0.0
  0
LINE
  5
7DE1B343D9E3782
330
7DE1B343D9E37B0
100
AcDbEntity
  8
TEXT
100
AcDbLine
 10
2.680814407291172
 20
0.6611978437090041
 30
0.0
 11
2.680814407291177
 21
0.4590015053772585
 31
0.0
  0
ARC
  5
7DE1B343D9E3783
330
7DE1B343D9E37B0
100
AcDbEntity
  8
TEXT
100
AcDbCircle
 10
2.604166425998612
 20
0.6362919684263413
 30
0.0
 40
0.0249058752826653
100
AcDbArc
 50
89.99971217465335
 51
179.9999999999985
  0
LINE
  5
7DE1B343D9E3784
330
7DE1B343D9E37B0
100
AcDbEntity
  8
TEXT
100
AcDbLine
 10
2.579260550715955
 20
0.4590015053772585
 30
0.0
 11
2.579260550715949
 21
0.6362920108087269
 31
0.0
  0
LWPOLYLINE
  5
7DE1B343D9E3785
330
7DE1B343D9E37B0
100
AcDbEntity
  8
TEXT
100
AcDbPolyline
 90
        2
 70
     0
 43
0.0
 10
2.520905336880619
 20
0.4590015053772585
 10
2.579260550715953
 20
0.4590015053772585
  0
LWPOLYLINE
  5
7DE1B343D9E3789
330
7DE1B343D9E37B0
100
AcDbEntity
  8
TEXT
100
AcDbPolyline
 90
        2
 70
     0
 43
0.0
 10
2.520905336880619
 20
0.5024924503276967
 10
2.520905336880619
 20
0.4590015053772585
  0
LINE
  5
7DE1B343D9E378D
330
7DE1B343D9E37B0
100
AcDbEntity
  8
TEXT
100
AcDbLine
 10
2.897674497197468
 20
0.4590015053772585
 30
0.0
 11
2.802182273833857
 21
0.6155812954247959
 31
0.0
  0
LINE
  5
7DE1B343D9E378E
330
7DE1B343D9E37B0
100
AcDbEntity
  8
TEXT
100
AcDbLine
 10
2.821096124821262
 20
0.4590015053772585
 30
0.0
 11
2.897674497197468
 21
0.4590015053772585
 31
0.0
  0
LINE
  5
7DE1B343D9E378F
330
7DE1B343D9E37B0
100
AcDbEntity
  8
TEXT
100
AcDbLine
 10
2.745192591609797
 20
0.5905810738534388
 30
0.0
 11
2.821096124821262
 21
0.4590015053772585
 31
0.0
  0
LINE
  5
7DE1B343D9E3790
330
7DE1B343D9E37B0
100
AcDbEntity
  8
TEXT
100
AcDbLine
 10
2.745192591609797
 20
0.4590015053772585
 30
0.0
 11
2.745192591609797
 21
0.5905810738534388
 31
0.0
  0
LINE
  5
7DE1B343D9E3791
330
7DE1B343D9E37B0
100
AcDbEntity
  8
TEXT
100
AcDbLine
 10
2.74464939851395
 20
0.7909387441333702
 30
0.0
 11
2.676334519964677
 21
0.7909387441333702
 31
0.0
  0
ARC
  5
7DE1B343D9E3792
330
7DE1B343D9E37B0
100
AcDbEntity
  8
TEXT
100
AcDbCircle
 10
2.435978780923471
 20
0.6838909712448671
 30
0.0
 40
0.0416329381542859
100
AcDbArc
 50
26.56974201007528
 51
87.20939649401342
  0
LINE
  5
7DE1B343D9E3793
330
7DE1B343D9E37B0
100
AcDbEntity
  8
TEXT
100
AcDbLine
 10
2.580862565875082
 20
0.7254745383657695
 30
0.0
 11
2.516965659575581
 21
0.7254745383657695
 31
0.0
  0
LINE
  5
7DE1B343D9E3794
330
7DE1B343D9E37B0
100
AcDbEntity
  8
TEXT
100
AcDbLine
 10
2.580862565875082
 20
0.6979268885048949
 30
0.0
 11
2.580862565875082
 21
0.7254745383657695
 31
0.0
  0
ARC
  5
7DE1B343D9E3795
330
7DE1B343D9E37B0
100
AcDbEntity
  8
TEXT
100
AcDbCircle
 10
2.61205538293819
 20
0.6942288110835047
 30
0.0
 40
0.0314112657011332
100
AcDbArc
 50
95.88484768694724
 51
173.2388340632136
  0
LINE
  5
7DE1B343D9E3796
330
7DE1B343D9E37B0
100
AcDbEntity
  8
TEXT
100
AcDbLine
 10
2.676334519964671
 20
0.7254745383657695
 30
0.0
 11
2.608834802315155
 21
0.7254745383657695
 31
0.0
  0
LINE
  5
7DE1B343D9E3797
330
7DE1B343D9E37B0
100
AcDbEntity
  8
TEXT
100
AcDbLine
 10
2.676334519964677
 20
0.7909387441333702
 30
0.0
 11
2.676334519964671
 21
0.7254745383657695
 31
0.0
  0
LINE
  5
7DE1B343D9E3798
330
7DE1B343D9E37B0
100
AcDbEntity
  8
TEXT
100
AcDbLine
 10
2.866739389799563
 20
0.7254745383657695
 30
0.0
 11
2.791747557069936
 21
0.7254745383657695
 31
0.0
  0
INSERT
  5
7DE1B343D9E37CB
330
7DE1B343D9E37B0
100
AcDbEntity
  8
ASHADE
 62
     1
100
AcDbBlockReference
  2
AVE_RENDER
 10
0.0
 20
0.0
 30
0.0
1001
AVE_RENDER
1002
{
1070
     6
1000
Pref
1070
    30
1070
    20
1070
     1
1070
     0
1000

1070
    10
1070
     1
1070
    30
1040
1.0
1070
     1
1040
0.3
1040
0.7
1040
0.0
1040
10.0
1010
-1.0
1020
-1.0
1030
-1.0
1040
0.3
1070
    49
1070
     0
1070
     0
1010
1.0
1020
1.0
1030
1.0
1040
45.0
1070
     1
1070
     0
1000
WCS
1040
0.0
1002
}
  0
INSERT
  5
7DE1B343D9E37CC
330
7DE1B343D9E37B0
100
AcDbEntity
  8
ASHADE
 62
     3
100
AcDbBlockReference
  2
AVE_RENDER
 10
0.0
 20
0.0
 30
0.0
1001
AVE_RENDER
1002
{
1070
     0
1000
Full Opt
1070
     0
1070
     1
1070
     1
1070
     1
1070
     0
1070
     0
1070
     0
1070
     1
1070
     1
1040
0.0001
1040
0.0001
1002
}
  0
INSERT
  5
7DE1B343D9E37CD
330
7DE1B343D9E37B0
100
AcDbEntity
  8
ASHADE
 62
     4
100
AcDbBlockReference
  2
AVE_RENDER
 10
0.0
 20
0.0
 30
0.0
1001
AVE_RENDER
1002
{
1070
     0
1000
Quick Opt
1070
     0
1070
     1
1070
     1
1070
     1
1070
     0
1070
     0
1070
     1
1002
}
  0
INSERT
  5
7DE1B343D9E37CE
330
7DE1B343D9E37B0
100
AcDbEntity
  8
ASHADE
 62
     5
100
AcDbBlockReference
  2
AVE_RENDER
 10
0.0
 20
0.0
 30
0.0
1001
AVE_RENDER
1002
{
1070
     1
1000
Scanl Opt
1070
     2
1070
     0
1070
     2
1040
2.0
1040
4.0
1070
     0
1070
     1
1070
     0
1040
0.03
1002
}
  0
INSERT
  5
7DE1B343D9E37CF
330
7DE1B343D9E37B0
100
AcDbEntity
  8
ASHADE
 62
     6
100
AcDbBlockReference
  2
AVE_RENDER
 10
0.0
 20
0.0
 30
0.0
1001
AVE_RENDER
1002
{
1070
     2
1000
Raytr Opt
1070
     2
1070
     0
1070
     2
1040
2.0
1040
4.0
1070
     0
1070
     1
1070
     1
1040
0.03
1070
     3
1040
0.03
1002
}
  0
INSERT
  5
7DE1B343D9E37D0
330
7DE1B343D9E37B0
100
AcDbEntity
  8
ASHADE
 62
     7
100
AcDbBlockReference
  2
AVE_RENDER
 10
0.0
 20
0.0
 30
0.0
1001
AVE_RENDER
1002
{
1070
     0
1000
RFile Opt
1070
     5
1070
   640
1070
   480
1070
 10000
1070
     3
1070
    32
1070
    24
1070
     0
1070
     0
1070
     0
1070
     1
1070
     0
1070
     0
1070
     0
1002
}
  0
INSERT
  5
7DE1B343D9E37D1
330
7DE1B343D9E37B0
100
AcDbEntity
  8
ASHADE
 62
     8
100
AcDbBlockReference
  2
AVE_RENDER
 10
0.0
 20
0.0
 30
0.0
1001
AVE_RENDER
1002
{
1070
     0
1000
Fog Opt
1070
     0
1070
     0
1040
0.0
1040
1.0
1040
0.0
1040
1.0
1010
0.5
1020
0.5
1030
0.5
1002
}
  0
INSERT
  5
7DE1B343D9E37D2
330
7DE1B343D9E37B0
100
AcDbEntity
  8
ASHADE
 62
     9
100
AcDbBlockReference
  2
AVE_RENDER
 10
0.0
 20
0.0
 30
0.0
1001
AVE_RENDER
1002
{
1070
     0
1000
BG Opt
1070
     0
1070
     1
1010
0.0
1020
0.0
1030
0.0
1010
1.0
1020
0.0
1030
0.0
1010
0.0
1020
1.0
1030
0.0
1010
0.0
1020
0.0
1030
1.0
1040
0.5
1040
0.33
1040
0.0
1000

1070
     1
1000

1070
     1
1070
     1
1040
1.0
1040
1.0
1040
0.0
1040
0.0
1070
     0
1002
}
  0
INSERT
  5
7DE1B343D9E37D9
330
7DE1B343D9E37B0
100
AcDbEntity
  8
ASHADE
 62
     1
100
AcDbBlockReference
  2
AVE_GLOBAL
 10
0.0
 20
0.0
 30
0.0
1001
AVE_MATERIAL
1002
{
1000
*GLOBAL*
1000
1
1000
Global finish.
1002
{
1002
}
1002
{
1070
    63
1002
{
1002
{
1010
-1.0
1020
-1.0
1030
-1.0
1002
}
1040
0.1000000014901161
1000

1040
0.0
1002
{
1002
}
1040
0.0
1002
{
1002
}
1040
0.0
1002
}
1002
{
1002
{
1010
-1.0
1020
-1.0
1030
-1.0
1002
}
1040
0.6999999880790711
1000

1040
0.0
1002
{
1002
}
1040
0.0
1002
{
1002
}
1040
0.0
1002
}
1002
{
1002
{
1010
-1.0
1020
-1.0
1030
-1.0
1002
}
1040
0.2000000029802322
1000

1040
0.0
1002
{
1002
}
1040
0.0
1002
{
1002
}
1040
0.0
1002
}
1002
{
1070
     0
1002
{
1070
     1
1002
{
1040
1.0
1040
1.0
1000

1040
0.0
1002
{
1002
}
1040
0.0
1002
{
1002
}
1040
0.0
1002
}
1002
}
1040
1.0
1040
0.0
1040
0.0
1002
}
1002
{
1040
1.0
1040
1.0
1000

1040
0.0
1002
{
1002
}
1040
0.0
1002
{
1002
}
1040
0.0
1002
}
1002
{
1040
0.5
1040
1.0
1000

1040
0.0
1002
{
1002
}
1040
0.0
1002
{
1002
}
1040
0.0
1002
}
1002
{
1070
     0
1040
0.0
1002
{
1002
}
1040
1.0
1002
{
1002
}
1040
0.0
1002
}
1002
{
1040
0.0
1002
{
1002
{
1010
0.0
1020
0.0
1030
0.0
1002
}
1040
1.0
1000

1040
0.0
1002
{
1002
}
1040
0.0
1002
{
1002
}
1040
0.0
1002
}
1002
}
1002
{
1002
{
1070
     1
1002
{
1040
0.0
1040
1.0
1000

1040
0.0
1002
{
1002
}
1040
0.0
1002
{
1002
}
1040
0.0
1002
}
1002
}
1040
0.0
1002
{
1002
}
1010
1.0
1020
0.0
1030
0.0
1010
0.0
1020
1.0
1030
0.0
1010
0.0
1020
0.0
1030
1.0
1070
     0
1002
}
1002
{
1002
{
1040
1.0
1040
1.0
1002
{
1070
     1
1002
{
1040
1.0
1040
1.0
1000

1040
0.0
1002
{
1002
}
1040
0.0
1002
{
1002
}
1040
0.0
1002
}
1002
}
1002
}
1070
     0
1040
0.0
1002
{
1002
}
1002
}
1002
{
1002
}
1002
}
1002
{
1071
        3
1070
     3
1070
     0
1002
{
1070
     2
1070
     0
1070
     0
1040
0.0
1002
}
1070
     0
1070
     2
1002
{
1002
}
1002
}
1002
{
1040
8030.0
1040
190.3000030517578
1040
0.3050000071525574
1040
228.0
1040
545.0
1040
14.0
1040
17.39999961853027
1040
0.4560000002384186
1002
}
1002
}
  0
ENDSEC
  0
SECTION
  2
OBJECTS
  0
DICTIONARY
  5
7DE1B343D9E37A4
330
0
100
AcDbDictionary
  3
ACAD_GROUP
350
7DE1B343D9E37A5
  3
ACAD_LAYOUT
350
7DE1B343D9E37E5
  3
ACAD_MLINESTYLE
350
7DE1B343D9E37A6
  3
ACAD_PLOTSETTINGS
350
7DE1B343D9E37E6
  3
ACAD_PLOTSTYLENAME
350
7DE1B343D9E37E3
  3
ACDBHEADERROUNDTRIPXREC
350
7DE1B343D9E37F0
  3
ACDBVARIABLEDICTIONARY
350
7DE1B343D9E37ED
  0
DICTIONARY
  5
7DE1B343D9E3812
330
7DE1B343D9E37B0
100
AcDbDictionary
280
     1
  3
ACAD_LAYOUTSELFREF
360
7DE1B343D9E3813
  0
DICTIONARY
  5
7DE1B343D9E3810
330
7DE1B343D9E37AD
100
AcDbDictionary
280
     1
  3
ACAD_LAYOUTSELFREF
360
7DE1B343D9E3811
  0
DICTIONARY
  5
7DE1B343D9E37A5
102
{ACAD_REACTORS
330
7DE1B343D9E37A4
102
}
330
7DE1B343D9E37A4
100
AcDbDictionary
  0
DICTIONARY
  5
7DE1B343D9E37E5
102
{ACAD_REACTORS
330
7DE1B343D9E37A4
102
}
330
7DE1B343D9E37A4
100
AcDbDictionary
  0
DICTIONARY
  5
7DE1B343D9E37A6
102
{ACAD_REACTORS
330
7DE1B343D9E37A4
102
}
330
7DE1B343D9E37A4
100
AcDbDictionary
  3
STANDARD
350
7DE1B343D9E37B3
  0
DICTIONARY
  5
7DE1B343D9E37E6
102
{ACAD_REACTORS
330
7DE1B343D9E37A4
102
}
330
7DE1B343D9E37A4
100
AcDbDictionary
  0
ACDBDICTIONARYWDFLT
  5
7DE1B343D9E37E3
102
{ACAD_REACTORS
330
7DE1B343D9E37A4
102
}
330
7DE1B343D9E37A4
100
AcDbDictionary
281
     1
  3
Normal
350
7DE1B343D9E37E4
100
AcDbDictionaryWithDefault
340
7DE1B343D9E37E4
  0
DICTIONARY
  5
7DE1B343D9E37F0
102
{ACAD_REACTORS
330
7DE1B343D9E37A4
102
}
330
7DE1B343D9E37A4
100
AcDbDictionary
  3
CEPSNTYPE
350
7DE1B343D9E37FA
  3
FINGERPRINTGUID
350
7DE1B343D9E37FB
  3
HYPERLINKBASE
350
7DE1B343D9E37F3
  3
INSUNITS
350
7DE1B343D9E37F9
  3
LAYOUTDICT
350
7DE1B343D9E37F5
  3
LWETCUNION
350
7DE1B343D9E37F8
  3
PLOTSETDICT
350
7DE1B343D9E37F6
  3
PLOTSTYLNAMDICT
350
7DE1B343D9E37F7
  3
PSVPSCALE
350
7DE1B343D9E37FD
  3
PUCSBASE
350
7DE1B343D9E3800
  3
PUCSORGBACK
350
7DE1B343D9E3806
  3
PUCSORGBOTTOM
350
7DE1B343D9E3802
  3
PUCSORGFRONT
350
7DE1B343D9E3805
  3
PUCSORGLEFT
350
7DE1B343D9E3803
  3
PUCSORGRIGHT
350
7DE1B343D9E3804
  3
PUCSORGTOP
350
7DE1B343D9E3801
  3
PUCSORTHOREF
350
7DE1B343D9E37FE
  3
PUCSORTHOVIEW
350
7DE1B343D9E37FF
  3
STYLESHEET
350
7DE1B343D9E37F4
  3
TSTACKALIGN
350
7DE1B343D9E37F1
  3
TSTACKSIZE
350
7DE1B343D9E37F2
  3
UCSBASE
350
7DE1B343D9E3809
  3
UCSORGBACK
350
7DE1B343D9E380F
  3
UCSORGBOTTOM
350
7DE1B343D9E380B
  3
UCSORGFRONT
350
7DE1B343D9E380E
  3
UCSORGLEFT
350
7DE1B343D9E380C
  3
UCSORGRIGHT
350
7DE1B343D9E380D
  3
UCSORGTOP
350
7DE1B343D9E380A
  3
UCSORTHOREF
350
7DE1B343D9E3807
  3
UCSORTHOVIEW
350
7DE1B343D9E3808
  3
VERSIONGUID
350
7DE1B343D9E37FC
  0
DICTIONARY
  5
7DE1B343D9E37ED
102
{ACAD_REACTORS
330
7DE1B343D9E37A4
102
}
330
7DE1B343D9E37A4
100
AcDbDictionary
  3
DIMASSOC
350
7DE1B343D9E37EE
  0
XRECORD
  5
7DE1B343D9E3813
102
{ACAD_REACTORS
330
7DE1B343D9E3812
102
}
330
7DE1B343D9E3812
100
AcDbXrecord
340
7DE1B343D9E37B0
  0
XRECORD
  5
7DE1B343D9E3811
102
{ACAD_REACTORS
330
7DE1B343D9E3810
102
}
330
7DE1B343D9E3810
100
AcDbXrecord
340
7DE1B343D9E37AD
  0
MLINESTYLE
  5
7DE1B343D9E37B3
102
{ACAD_REACTORS
330
7DE1B343D9E37A6
102
}
330
7DE1B343D9E37A6
100
AcDbMlineStyle
  2
STANDARD
 70
     0
  3

 62
     0
 51
90.0
 52
90.0
 71
     2
 49
0.5
 62
   256
  6
BYLAYER
 49
-0.5
 62
   256
  6
BYLAYER
  0
ACDBPLACEHOLDER
  5
7DE1B343D9E37E4
102
{ACAD_REACTORS
330
7DE1B343D9E37E3
102
}
330
7DE1B343D9E37E3
100
AcDbPlaceHolder
280
     0
  0
XRECORD
  5
7DE1B343D9E37FA
102
{ACAD_REACTORS
330
7DE1B343D9E37F0
102
}
330
7DE1B343D9E37F0
100
AcDbXrecord
 90
        0
  0
XRECORD
  5
7DE1B343D9E37FB
102
{ACAD_REACTORS
330
7DE1B343D9E37F0
102
}
330
7DE1B343D9E37F0
100
AcDbXrecord
  1
{9F8FCB20-8DB5-11D6-88E6-0090279574E7}
  0
XRECORD
  5
7DE1B343D9E37F3
102
{ACAD_REACTORS
330
7DE1B343D9E37F0
102
}
330
7DE1B343D9E37F0
100
AcDbXrecord
  1

  0
XRECORD
  5
7DE1B343D9E37F9
102
{ACAD_REACTORS
330
7DE1B343D9E37F0
102
}
330
7DE1B343D9E37F0
100
AcDbXrecord
 90
        0
  0
XRECORD
  5
7DE1B343D9E37F5
102
{ACAD_REACTORS
330
7DE1B343D9E37F0
102
}
330
7DE1B343D9E37F0
100
AcDbXrecord
340
7DE1B343D9E37E5
  0
XRECORD
  5
7DE1B343D9E37F8
102
{ACAD_REACTORS
330
7DE1B343D9E37F0
102
}
330
7DE1B343D9E37F0
100
AcDbXrecord
 90
    14877
  0
XRECORD
  5
7DE1B343D9E37F6
102
{ACAD_REACTORS
330
7DE1B343D9E37F0
102
}
330
7DE1B343D9E37F0
100
AcDbXrecord
340
7DE1B343D9E37E6
  0
XRECORD
  5
7DE1B343D9E37F7
102
{ACAD_REACTORS
330
7DE1B343D9E37F0
102
}
330
7DE1B343D9E37F0
100
AcDbXrecord
340
7DE1B343D9E37E3
  0
XRECORD
  5
7DE1B343D9E37FD
102
{ACAD_REACTORS
330
7DE1B343D9E37F0
102
}
330
7DE1B343D9E37F0
100
AcDbXrecord
 40
0.0
  0
XRECORD
  5
7DE1B343D9E3800
102
{ACAD_REACTORS
330
7DE1B343D9E37F0
102
}
330
7DE1B343D9E37F0
100
AcDbXrecord
340
0
  0
XRECORD
  5
7DE1B343D9E3806
102
{ACAD_REACTORS
330
7DE1B343D9E37F0
102
}
330
7DE1B343D9E37F0
100
AcDbXrecord
 10
0.0
 20
0.0
 30
0.0
  0
XRECORD
  5
7DE1B343D9E3802
102
{ACAD_REACTORS
330
7DE1B343D9E37F0
102
}
330
7DE1B343D9E37F0
100
AcDbXrecord
 10
0.0
 20
0.0
 30
0.0
  0
XRECORD
  5
7DE1B343D9E3805
102
{ACAD_REACTORS
330
7DE1B343D9E37F0
102
}
330
7DE1B343D9E37F0
100
AcDbXrecord
 10
0.0
 20
0.0
 30
0.0
  0
XRECORD
  5
7DE1B343D9E3803
102
{ACAD_REACTORS
330
7DE1B343D9E37F0
102
}
330
7DE1B343D9E37F0
100
AcDbXrecord
 10
0.0
 20
0.0
 30
0.0
  0
XRECORD
  5
7DE1B343D9E3804
102
{ACAD_REACTORS
330
7DE1B343D9E37F0
102
}
330
7DE1B343D9E37F0
100
AcDbXrecord
 10
0.0
 20
0.0
 30
0.0
  0
XRECORD
  5
7DE1B343D9E3801
102
{ACAD_REACTORS
330
7DE1B343D9E37F0
102
}
330
7DE1B343D9E37F0
100
AcDbXrecord
 10
0.0
 20
0.0
 30
0.0
  0
XRECORD
  5
7DE1B343D9E37FE
102
{ACAD_REACTORS
330
7DE1B343D9E37F0
102
}
330
7DE1B343D9E37F0
100
AcDbXrecord
340
0
  0
XRECORD
  5
7DE1B343D9E37FF
102
{ACAD_REACTORS
330
7DE1B343D9E37F0
102
}
330
7DE1B343D9E37F0
100
AcDbXrecord
 70
     0
  0
XRECORD
  5
7DE1B343D9E37F4
102
{ACAD_REACTORS
330
7DE1B343D9E37F0
102
}
330
7DE1B343D9E37F0
100
AcDbXrecord
  1

  0
XRECORD
  5
7DE1B343D9E37F1
102
{ACAD_REACTORS
330
7DE1B343D9E37F0
102
}
330
7DE1B343D9E37F0
100
AcDbXrecord
 90
        1
  0
XRECORD
  5
7DE1B343D9E37F2
102
{ACAD_REACTORS
330
7DE1B343D9E37F0
102
}
330
7DE1B343D9E37F0
100
AcDbXrecord
 90
       70
  0
XRECORD
  5
7DE1B343D9E3809
102
{ACAD_REACTORS
330
7DE1B343D9E37F0
102
}
330
7DE1B343D9E37F0
100
AcDbXrecord
340
0
  0
XRECORD
  5
7DE1B343D9E380F
102
{ACAD_REACTORS
330
7DE1B343D9E37F0
102
}
330
7DE1B343D9E37F0
100
AcDbXrecord
 10
0.0
 20
0.0
 30
0.0
  0
XRECORD
  5
7DE1B343D9E380B
102
{ACAD_REACTORS
330
7DE1B343D9E37F0
102
}
330
7DE1B343D9E37F0
100
AcDbXrecord
 10
0.0
 20
0.0
 30
0.0
  0
XRECORD
  5
7DE1B343D9E380E
102
{ACAD_REACTORS
330
7DE1B343D9E37F0
102
}
330
7DE1B343D9E37F0
100
AcDbXrecord
 10
0.0
 20
0.0
 30
0.0
  0
XRECORD
  5
7DE1B343D9E380C
102
{ACAD_REACTORS
330
7DE1B343D9E37F0
102
}
330
7DE1B343D9E37F0
100
AcDbXrecord
 10
0.0
 20
0.0
 30
0.0
  0
XRECORD
  5
7DE1B343D9E380D
102
{ACAD_REACTORS
330
7DE1B343D9E37F0
102
}
330
7DE1B343D9E37F0
100
AcDbXrecord
 10
0.0
 20
0.0
 30
0.0
  0
XRECORD
  5
7DE1B343D9E380A
102
{ACAD_REACTORS
330
7DE1B343D9E37F0
102
}
330
7DE1B343D9E37F0
100
AcDbXrecord
 10
0.0
 20
0.0
 30
0.0
  0
XRECORD
  5
7DE1B343D9E3807
102
{ACAD_REACTORS
330
7DE1B343D9E37F0
102
}
330
7DE1B343D9E37F0
100
AcDbXrecord
340
0
  0
XRECORD
  5
7DE1B343D9E3808
102
{ACAD_REACTORS
330
7DE1B343D9E37F0
102
}
330
7DE1B343D9E37F0
100
AcDbXrecord
 70
     0
  0
XRECORD
  5
7DE1B343D9E37FC
102
{ACAD_REACTORS
330
7DE1B343D9E37F0
102
}
330
7DE1B343D9E37F0
100
AcDbXrecord
  1
{9F8FCB22-8DB5-11D6-88E6-0090279574E7}
  0
DICTIONARYVAR
  5
7DE1B343D9E37EE
102
{ACAD_REACTORS
330
7DE1B343D9E37ED
102
}
330
7DE1B343D9E37ED
100
DictionaryVariables
280
     0
  1
1
  0
ENDSEC
  0
EOF
