  0
SECTION
  2
HEADER
  9
$ACADVER
  1
AC1014
  9
$ACADMAINTVER
 70
     9
  9
$DWGCODEPAGE
  3
ANSI_1252
  9
$INSBASE
 10
0.0
 20
0.0
 30
0.0
  9
$EXTMIN
 10
-2.141276805971831
 20
-1.621011311622497
 30
0.0
  9
$EXTMAX
 10
1.343942515775296
 20
1.091585766605388
 30
0.0
  9
$LIMMIN
 10
0.0
 20
0.0
  9
$LIMMAX
 10
8.5
 20
11.0
  9
$ORTHOMODE
 70
     0
  9
$REGENMODE
 70
     1
  9
$FILLMODE
 70
     1
  9
$QTEXTMODE
 70
     0
  9
$MIRRTEXT
 70
     0
  9
$DRAGMODE
 70
     2
  9
$LTSCALE
 40
0.5
  9
$OSMODE
 70
    39
  9
$ATTMODE
 70
     1
  9
$TEXTSIZE
 40
0.125
  9
$TRACEWID
 40
0.05
  9
$TEXTSTYLE
  7
ROMANS
  9
$CLAYER
  8
TEXT
  9
$CELTYPE
  6
BYLAYER
  9
$CECOLOR
 62
   256
  9
$CELTSCALE
 40
1.0
  9
$DELOBJ
 70
     1
  9
$DISPSILH
 70
     1
  9
$DIMSCALE
 40
2.0
  9
$DIMASZ
 40
0.125
  9
$DIMEXO
 40
0.125
  9
$DIMDLI
 40
0.375
  9
$DIMRND
 40
0.0
  9
$DIMDLE
 40
0.0
  9
$DIMEXE
 40
0.125
  9
$DIMTP
 40
0.01
  9
$DIMTM
 40
0.007
  9
$DIMTXT
 40
0.125
  9
$DIMCEN
 40
-0.125
  9
$DIMTSZ
 40
0.0
  9
$DIMTOL
 70
     0
  9
$DIMLIM
 70
     0
  9
$DIMTIH
 70
     1
  9
$DIMTOH
 70
     1
  9
$DIMSE1
 70
     1
  9
$DIMSE2
 70
     0
  9
$DIMTAD
 70
     0
  9
$DIMZIN
 70
     4
  9
$DIMBLK
  1

  9
$DIMASO
 70
     1
  9
$DIMSHO
 70
     1
  9
$DIMPOST
  1

  9
$DIMAPOST
  1

  9
$DIMALT
 70
     0
  9
$DIMALTD
 70
     2
  9
$DIMALTF
 40
25.4
  9
$DIMLFAC
 40
0.5
  9
$DIMTOFL
 70
     0
  9
$DIMTVP
 40
0.0
  9
$DIMTIX
 70
     0
  9
$DIMSOXD
 70
     0
  9
$DIMSAH
 70
     0
  9
$DIMBLK1
  1

  9
$DIMBLK2
  1

  9
$DIMSTYLE
  2
STANDARD
  9
$DIMCLRD
 70
     0
  9
$DIMCLRE
 70
     0
  9
$DIMCLRT
 70
     0
  9
$DIMTFAC
 40
1.0
  9
$DIMGAP
 40
0.09
  9
$DIMJUST
 70
     0
  9
$DIMSD1
 70
     0
  9
$DIMSD2
 70
     0
  9
$DIMTOLJ
 70
     1
  9
$DIMTZIN
 70
     4
  9
$DIMALTZ
 70
     0
  9
$DIMALTTZ
 70
     0
  9
$DIMFIT
 70
     3
  9
$DIMUPT
 70
     0
  9
$DIMUNIT
 70
     2
  9
$DIMDEC
 70
     3
  9
$DIMTDEC
 70
     3
  9
$DIMALTU
 70
     2
  9
$DIMALTTD
 70
     2
  9
$DIMTXSTY
  7
ROMANS
  9
$DIMAUNIT
 70
     0
  9
$LUNITS
 70
     2
  9
$LUPREC
 70
     3
  9
$SKETCHINC
 40
0.1
  9
$FILLETRAD
 40
0.03125
  9
$AUNITS
 70
     0
  9
$AUPREC
 70
     0
  9
$MENU
  1
AUTOMSTR
  9
$ELEVATION
 40
0.0
  9
$PELEVATION
 40
0.0
  9
$THICKNESS
 40
0.0
  9
$LIMCHECK
 70
     0
  9
$BLIPMODE
 70
     0
  9
$CHAMFERA
 40
0.5
  9
$CHAMFERB
 40
0.5
  9
$CHAMFERC
 40
0.0
  9
$CHAMFERD
 40
0.0
  9
$SKPOLY
 70
     0
  9
$TDCREATE
 40
2448343.586454861
  9
$TDUPDATE
 40
2452458.303311110
  9
$TDINDWG
 40
0.0441152778
  9
$TDUSRTIMER
 40
0.0441152778
  9
$USRTIMER
 70
     1
  9
$ANGBASE
 50
0.0
  9
$ANGDIR
 70
     0
  9
$PDMODE
 70
     0
  9
$PDSIZE
 40
0.0
  9
$PLINEWID
 40
0.0
  9
$COORDS
 70
     2
  9
$SPLFRAME
 70
     0
  9
$SPLINETYPE
 70
     6
  9
$SPLINESEGS
 70
     8
  9
$ATTDIA
 70
     0
  9
$ATTREQ
 70
     1
  9
$HANDLING
 70
 22529
  9
$HANDSEED
  5
580
  9
$SURFTAB1
 70
     6
  9
$SURFTAB2
 70
     6
  9
$SURFTYPE
 70
     6
  9
$SURFU
 70
     6
  9
$SURFV
 70
     6
  9
$UCSNAME
  2

  9
$UCSORG
 10
0.0
 20
0.0
 30
0.0
  9
$UCSXDIR
 10
1.0
 20
0.0
 30
0.0
  9
$UCSYDIR
 10
0.0
 20
1.0
 30
0.0
  9
$PUCSNAME
  2

  9
$PUCSORG
 10
0.0
 20
0.0
 30
0.0
  9
$PUCSXDIR
 10
1.0
 20
0.0
 30
0.0
  9
$PUCSYDIR
 10
0.0
 20
1.0
 30
0.0
  9
$USERI1
 70
     0
  9
$USERI2
 70
     0
  9
$USERI3
 70
     0
  9
$USERI4
 70
     0
  9
$USERI5
 70
     0
  9
$USERR1
 40
0.0
  9
$USERR2
 40
0.0
  9
$USERR3
 40
0.0
  9
$USERR4
 40
0.0
  9
$USERR5
 40
0.0
  9
$WORLDVIEW
 70
     1
  9
$SHADEDGE
 70
     3
  9
$SHADEDIF
 70
    70
  9
$TILEMODE
 70
     1
  9
$MAXACTVP
 70
    16
  9
$PINSBASE
 10
0.0
 20
0.0
 30
0.0
  9
$PLIMCHECK
 70
     0
  9
$PEXTMIN
 10
1.000000000000000E+20
 20
1.000000000000000E+20
 30
1.000000000000000E+20
  9
$PEXTMAX
 10
-1.000000000000000E+20
 20
-1.000000000000000E+20
 30
-1.000000000000000E+20
  9
$PLIMMIN
 10
0.0
 20
0.0
  9
$PLIMMAX
 10
12.0
 20
9.0
  9
$UNITMODE
 70
     0
  9
$VISRETAIN
 70
     0
  9
$PLINEGEN
 70
     1
  9
$PSLTSCALE
 70
     0
  9
$TREEDEPTH
 70
  3020
  9
$PICKSTYLE
 70
     1
  9
$CMLSTYLE
  2
STANDARD
  9
$CMLJUST
 70
     0
  9
$CMLSCALE
 40
1.0
  9
$PROXYGRAPHICS
 70
     1
  9
$MEASUREMENT
 70
     0
  0
ENDSEC
  0
SECTION
  2
CLASSES
  0
CLASS
  1
LWPOLYLINE
  2
AcDbPolyline
  3
AutoCAD 2000
 90
        0
280
     0
281
     1
  0
CLASS
  1
DICTIONARYVAR
  2
AcDbDictionaryVar
  3
AutoCAD 2000
 90
        0
280
     0
281
     0
  0
CLASS
  1
ACDBDICTIONARYWDFLT
  2
AcDbDictionaryWithDefault
  3
AutoCAD 2000
 90
        0
280
     0
281
     0
  0
CLASS
  1
ACDBPLACEHOLDER
  2
AcDbPlaceHolder
  3
AutoCAD 2000
 90
        0
280
     0
281
     0
  0
CLASS
  1
LAYOUT
  2
AcDbLayout
  3
AutoCAD 2000
 90
        0
280
     0
281
     0
  0
CLASS
  1
LONG_TRANSACTION
  2
AcDbLongTransaction
  3
AutoCAD 2000
 90
        0
280
     0
281
     0
  0
CLASS
  1
LWPOLYLINE
  2
AcDbPolyline
  3
AutoCAD 2000
 90
        0
280
     0
281
     1
  0
CLASS
  1
HATCH
  2
AcDbHatch
  3
AutoCAD 2000
 90
        0
280
     0
281
     1
  0
CLASS
  1
XRECORD
  2
AcDbXrecord
  3
AutoCAD 2000
 90
        0
280
     0
281
     0
  0
ENDSEC
  0
SECTION
  2
TABLES
  0
TABLE
  2
VPORT
  5
8
330
0
100
AcDbSymbolTable
 70
     2
  0
VPORT
  5
55B
330
8
100
AcDbSymbolTableRecord
100
AcDbViewportTableRecord
  2
*ACTIVE
 70
     0
 10
0.0
 20
0.0
 11
1.0
 21
1.0
 12
3.298041255085843
 22
-0.2643575828743447
 13
0.0
 23
0.0
 14
0.25
 24
0.25
 15
0.0
 25
0.0
 16
0.0
 26
0.0
 36
1.0
 17
0.0
 27
0.0
 37
0.0
 40
2.737179884894761
 41
4.320930232558139
 42
50.0
 43
0.0
 44
0.0
 50
0.0
 51
0.0
 71
     0
 72
  2000
 73
     1
 74
     1
 75
     0
 76
     0
 77
     0
 78
     0
  0
ENDTAB
  0
TABLE
  2
LTYPE
  5
5
330
0
100
AcDbSymbolTable
 70
     1
  0
LTYPE
  5
12
330
5
100
AcDbSymbolTableRecord
100
AcDbLinetypeTableRecord
  2
BYBLOCK
 70
     0
  3

 72
    65
 73
     0
 40
0.0
  0
LTYPE
  5
13
330
5
100
AcDbSymbolTableRecord
100
AcDbLinetypeTableRecord
  2
BYLAYER
 70
     0
  3

 72
    65
 73
     0
 40
0.0
  0
LTYPE
  5
14
330
5
100
AcDbSymbolTableRecord
100
AcDbLinetypeTableRecord
  2
CONTINUOUS
 70
     0
  3
Solid line
 72
    65
 73
     0
 40
0.0
  0
ENDTAB
  0
TABLE
  2
LAYER
  5
2
330
0
100
AcDbSymbolTable
 70
     2
  0
LAYER
  5
F
330
2
100
AcDbSymbolTableRecord
100
AcDbLayerTableRecord
  2
0
 70
     0
 62
     7
  6
CONTINUOUS
  0
LAYER
  5
2D
330
2
100
AcDbSymbolTableRecord
100
AcDbLayerTableRecord
  2
TEXT
 70
     0
 62
     3
  6
CONTINUOUS
  0
ENDTAB
  0
TABLE
  2
STYLE
  5
3
330
0
100
AcDbSymbolTable
 70
     3
  0
STYLE
  5
10
330
3
100
AcDbSymbolTableRecord
100
AcDbTextStyleTableRecord
  2
STANDARD
 70
     0
 40
0.0
 41
1.0
 50
0.0
 71
     0
 42
0.125
  3
txt
  4

  0
STYLE
  5
42A
330
3
100
AcDbSymbolTableRecord
100
AcDbTextStyleTableRecord
  2
ROMANS
 70
     0
 40
0.0
 41
1.0
 50
0.0
 71
     0
 42
0.125
  3
romans.shx
  4

  0
STYLE
  5
44A
330
3
100
AcDbSymbolTableRecord
100
AcDbTextStyleTableRecord
  2
ITALICC
 70
     0
 40
0.0
 41
1.0
 50
0.0
 71
     0
 42
0.125
  3
italicc
  4

  0
ENDTAB
  0
TABLE
  2
VIEW
  5
6
330
0
100
AcDbSymbolTable
 70
     0
  0
ENDTAB
  0
TABLE
  2
UCS
  5
7
330
0
100
AcDbSymbolTable
 70
     0
  0
ENDTAB
  0
TABLE
  2
APPID
  5
9
330
0
100
AcDbSymbolTable
 70
     1
  0
APPID
  5
11
330
9
100
AcDbSymbolTableRecord
100
AcDbRegAppTableRecord
  2
ACAD
 70
     0
  0
ENDTAB
  0
TABLE
  2
DIMSTYLE
  5
A
330
0
100
AcDbSymbolTable
 70
     1
  0
DIMSTYLE
105
41F
330
A
100
AcDbSymbolTableRecord
100
AcDbDimStyleTableRecord
  2
STANDARD
 70
     0
  3

  4

  5

  6

  7

 40
2.0
 41
0.125
 42
0.125
 43
0.375
 44
0.125
 45
0.0
 46
0.0
 47
0.01
 48
0.007
140
0.125
141
-0.125
142
0.0
143
25.4
144
0.5
145
0.0
146
1.0
147
0.09
 71
     0
 72
     0
 73
     1
 74
     1
 75
     1
 76
     0
 77
     0
 78
     4
170
     0
171
     2
172
     0
173
     0
174
     0
175
     0
176
     0
177
     0
178
     0
270
     2
271
     3
272
     3
273
     2
274
     2
340
42A
275
     0
280
     0
281
     0
282
     0
283
     1
284
     4
285
     0
286
     0
287
     3
288
     0
  0
ENDTAB
  0
TABLE
  2
BLOCK_RECORD
  5
1
330
0
100
AcDbSymbolTable
 70
     0
  0
BLOCK_RECORD
  5
18
102
{ACAD_XDICTIONARY
360
57E
102
}
330
1
100
AcDbSymbolTableRecord
100
AcDbBlockTableRecord
  2
*MODEL_SPACE
  0
BLOCK_RECORD
  5
15
102
{ACAD_XDICTIONARY
360
57C
102
}
330
1
100
AcDbSymbolTableRecord
100
AcDbBlockTableRecord
  2
*PAPER_SPACE
  0
ENDTAB
  0
ENDSEC
  0
SECTION
  2
BLOCKS
  0
BLOCK
  5
37
330
18
100
AcDbEntity
  8
0
100
AcDbBlockBegin
  2
*MODEL_SPACE
 70
     0
 10
0.0
 20
0.0
 30
0.0
  3
*MODEL_SPACE
  1

  0
ENDBLK
  5
38
330
18
100
AcDbEntity
  8
0
100
AcDbBlockEnd
  0
BLOCK
  5
35
330
15
100
AcDbEntity
 67
     1
  8
0
100
AcDbBlockBegin
  2
*PAPER_SPACE
 70
     0
 10
0.0
 20
0.0
 30
0.0
  3
*PAPER_SPACE
  1

  0
ENDBLK
  5
36
330
15
100
AcDbEntity
 67
     1
  8
0
100
AcDbBlockEnd
  0
ENDSEC
  0
SECTION
  2
ENTITIES
  0
LWPOLYLINE
  5
1C8
330
18
100
AcDbEntity
  8
0
100
AcDbPolyline
 90
       40
 70
     1
 43
0.0
 10
0.0931088573300715
 20
-0.3444142333946108
 10
0.0306088573300715
 20
-0.3444142333946108
 10
0.0916088573300714
 20
-0.2834142333946109
 10
-0.4281411426699285
 20
-0.2834142333946109
 10
-0.4381411426699286
 20
-0.2734142333946109
 10
-0.4481411426699286
 20
-0.2834142333946109
 10
-1.092891142669928
 20
-0.2834142333946109
 10
-1.031891142669928
 20
-0.3444142333946108
 10
-1.094391142669928
 20
-0.3444142333946108
 10
-1.094391142669928
 20
-0.603164233394611
 42
-1.0
 10
-1.156891142669928
 20
-0.603164233394611
 10
-1.156891142669928
 20
-0.2209142333946109
 10
-1.094391142669928
 20
-0.2209142333946109
 10
-1.094391142669928
 20
0.0603357666053891
 10
-1.031891142669928
 20
0.0603357666053891
 10
-1.031891142669928
 20
-0.2209142333946109
 10
0.0306088573300712
 20
-0.2209142333946109
 42
0.4142135623730951
 10
0.1556088573300712
 20
-0.0959142333946109
 10
0.155608857330071
 20
0.966585766605389
 10
-0.1256411426699288
 20
0.966585766605389
 10
-0.1256411426699288
 20
1.029085766605388
 10
0.155608857330071
 20
1.029085766605388
 10
0.155608857330071
 20
1.091585766605388
 10
0.537858857330071
 20
1.091585766605388
 42
-1.0
 10
0.537858857330071
 20
1.029085766605388
 10
0.2791088573300709
 20
1.029085766605388
 10
0.2791088573300709
 20
0.966585766605389
 10
0.218108857330071
 20
1.027585766605388
 10
0.2181088573300713
 20
0.5078357666053891
 10
0.2081088573300712
 20
0.4978357666053891
 10
0.2181088573300713
 20
0.4878357666053891
 10
0.2181088573300713
 20
-0.1569142333946109
 10
0.2791088573300712
 20
-0.0959142333946109
 10
0.2791088573300712
 20
-0.1584142333946109
 10
0.5378588573300715
 20
-0.1584142333946109
 42
-1.0
 10
0.5378588573300715
 20
-0.2209142333946108
 10
0.1868588573300715
 20
-0.2209142333946108
 42
0.4142135623730948
 10
0.1556088573300715
 20
-0.2521642333946108
 10
0.1556088573300712
 20
-0.603164233394611
 42
-1.0
 10
0.0931088573300715
 20
-0.603164233394611
  0
TEXT
  5
4CF
330
18
100
AcDbEntity
  8
TEXT
100
AcDbText
 10
-1.151271417220878
 20
-1.162992707539916
 30
0.0
 40
0.125
  1
PART #110254
  7
ITALICC
 72
     1
 11
-0.3982952267446889
 21
-1.162992707539916
 31
0.0
100
AcDbText
  0
LINE
  5
4D0
330
18
100
AcDbEntity
  8
TEXT
100
AcDbLine
 10
-0.4305617277926262
 20
-1.407346393559749
 30
0.0
 11
-0.3539137465000683
 21
-1.407346393559749
 31
0.0
  0
LINE
  5
4D1
330
18
100
AcDbEntity
  8
TEXT
100
AcDbLine
 10
-0.3583936338265685
 20
-1.343069698902984
 30
0.0
 11
-0.425893351476085
 21
-1.343069698902984
 31
0.0
  0
LWPOLYLINE
  5
4D2
330
18
100
AcDbEntity
  8
TEXT
100
AcDbPolyline
 90
        5
 70
     0
 43
0.0001332181640625
 10
-2.067673770327301
 20
-1.466296500660797
 10
-2.054351953921052
 20
-1.466296500660797
 10
-2.054351953921052
 20
-1.429661505543607
 10
-2.017716958803862
 20
-1.429661505543607
 10
-2.017716958803862
 20
-1.41633968913736
  0
LWPOLYLINE
  5
4D3
330
18
100
AcDbEntity
  8
TEXT
100
AcDbPolyline
 90
        3
 70
     0
 43
0.0006660908203125
 10
-2.027708321108553
 20
-1.369713331715481
 10
-2.114300127749177
 20
-1.369713331715481
 10
-2.114300127749177
 20
-1.456305138356108
  0
LWPOLYLINE
  5
4D4
330
18
100
AcDbEntity
  8
TEXT
100
AcDbPolyline
 90
        3
 70
     0
 43
0.0006660908203125
 10
-2.027708321108553
 20
-1.34306969890298
 10
-2.140943760561675
 20
-1.34306969890298
 10
-2.140943760561675
 20
-1.456305138356108
  0
LWPOLYLINE
  5
4D5
330
18
100
AcDbEntity
  8
TEXT
100
AcDbPolyline
 90
        5
 70
     0
 43
0.0001332181640625
 10
-2.017716958803862
 20
-1.536236036793607
 10
-2.017716958803862
 20
-1.522914220387357
 10
-2.05435195392105
 20
-1.522914220387357
 10
-2.05435195392105
 20
-1.486279225270171
 10
-2.067673770327301
 20
-1.486279225270171
  0
LWPOLYLINE
  5
4D6
330
18
100
AcDbEntity
  8
TEXT
100
AcDbPolyline
 90
        3
 70
     0
 43
0.0006660908203125
 10
-2.114300127749177
 20
-1.496270587574856
 10
-2.114300127749177
 20
-1.582862394215482
 10
-2.027708321108553
 20
-1.582862394215482
  0
LWPOLYLINE
  5
4D7
330
18
100
AcDbEntity
  8
TEXT
100
AcDbPolyline
 90
        3
 70
     0
 43
0.0006660908203125
 10
-2.140943760561675
 20
-1.496270587574856
 10
-2.140943760561675
 20
-1.609506027027983
 10
-2.027708321108553
 20
-1.609506027027983
  0
LWPOLYLINE
  5
4D8
330
18
100
AcDbEntity
  8
TEXT
100
AcDbPolyline
 90
        2
 70
     0
 43
0.0001332181640625
 10
-2.114300127749177
 20
-1.496270587574856
 10
-2.05435195392105
 20
-1.486279225270171
  0
LWPOLYLINE
  5
4D9
330
18
100
AcDbEntity
  8
TEXT
100
AcDbPolyline
 90
        2
 70
     0
 43
0.0001332181640625
 10
-2.067673770327301
 20
-1.486279225270171
 10
-2.140943760561675
 20
-1.496270587574856
  0
LWPOLYLINE
  5
4DA
330
18
100
AcDbEntity
  8
TEXT
100
AcDbPolyline
 90
        2
 70
     0
 43
0.0006660908203125
 10
-2.114300127749177
 20
-1.496270587574856
 10
-2.140943760561675
 20
-1.496270587574856
  0
LWPOLYLINE
  5
4DB
330
18
100
AcDbEntity
  8
TEXT
100
AcDbPolyline
 90
        2
 70
     0
 43
0.0001332181640625
 10
-2.114300127749177
 20
-1.582862394215482
 10
-2.05435195392105
 20
-1.522914220387357
  0
LWPOLYLINE
  5
4DC
330
18
100
AcDbEntity
  8
TEXT
100
AcDbPolyline
 90
        2
 70
     0
 43
0.0006660908203125
 10
-2.114300127749177
 20
-1.456305138356108
 10
-2.140943760561675
 20
-1.456305138356108
  0
LWPOLYLINE
  5
4DD
330
18
100
AcDbEntity
  8
TEXT
100
AcDbPolyline
 90
        2
 70
     0
 43
0.0001332181640625
 10
-2.140943760561675
 20
-1.456305138356108
 10
-2.067673770327301
 20
-1.466296500660797
  0
LWPOLYLINE
  5
4DE
330
18
100
AcDbEntity
  8
TEXT
100
AcDbPolyline
 90
        2
 70
     0
 43
0.0001332181640625
 10
-2.114300127749177
 20
-1.456305138356108
 10
-2.054351953921052
 20
-1.466296500660797
  0
LWPOLYLINE
  5
4DF
330
18
100
AcDbEntity
  8
TEXT
100
AcDbPolyline
 90
        2
 70
     0
 43
0.0001332181640625
 10
-2.114300127749177
 20
-1.369713331715481
 10
-2.054351953921052
 20
-1.429661505543607
  0
LWPOLYLINE
  5
4E0
330
18
100
AcDbEntity
  8
TEXT
100
AcDbPolyline
 90
        5
 70
     0
 43
0.0001332181640625
 10
-1.947777422671051
 20
-1.486279225270171
 10
-1.9610992390773
 20
-1.486279225270171
 10
-1.9610992390773
 20
-1.522914220387357
 10
-1.99773423419449
 20
-1.522914220387357
 10
-1.99773423419449
 20
-1.536236036793607
  0
LWPOLYLINE
  5
4E1
330
18
100
AcDbEntity
  8
TEXT
100
AcDbPolyline
 90
        2
 70
     0
 43
0.0001332181640625
 10
-1.901151065249176
 20
-1.496270587574856
 10
-1.9610992390773
 20
-1.486279225270171
  0
LWPOLYLINE
  5
4E2
330
18
100
AcDbEntity
  8
TEXT
100
AcDbPolyline
 90
        2
 70
     0
 43
0.0001332181640625
 10
-1.874507432436675
 20
-1.496270587574856
 10
-1.947777422671051
 20
-1.486279225270171
  0
LWPOLYLINE
  5
4E3
330
18
100
AcDbEntity
  8
TEXT
100
AcDbPolyline
 90
        3
 70
     0
 43
0.0006660908203125
 10
-1.987742871889801
 20
-1.609506027027983
 10
-1.874507432436675
 20
-1.609506027027983
 10
-1.874507432436675
 20
-1.496270587574856
  0
LWPOLYLINE
  5
4E4
330
18
100
AcDbEntity
  8
TEXT
100
AcDbPolyline
 90
        3
 70
     0
 43
0.0006660908203125
 10
-1.987742871889801
 20
-1.582862394215482
 10
-1.901151065249176
 20
-1.582862394215482
 10
-1.901151065249176
 20
-1.496270587574856
  0
LWPOLYLINE
  5
4E5
330
18
100
AcDbEntity
  8
TEXT
100
AcDbPolyline
 90
        2
 70
     0
 43
0.0001332181640625
 10
-1.901151065249176
 20
-1.582862394215482
 10
-1.9610992390773
 20
-1.522914220387357
  0
LWPOLYLINE
  5
4E6
330
18
100
AcDbEntity
  8
TEXT
100
AcDbPolyline
 90
        2
 70
     0
 43
0.0006660908203125
 10
-1.987742871889801
 20
-1.582862394215482
 10
-1.987742871889801
 20
-1.609506027027983
  0
LWPOLYLINE
  5
4E7
330
18
100
AcDbEntity
  8
TEXT
100
AcDbPolyline
 90
        2
 70
     0
 43
0.0001332181640625
 10
-1.99773423419449
 20
-1.536236036793607
 10
-1.987742871889801
 20
-1.609506027027983
  0
LWPOLYLINE
  5
4E8
330
18
100
AcDbEntity
  8
TEXT
100
AcDbPolyline
 90
        2
 70
     0
 43
0.0001332181640625
 10
-1.987742871889801
 20
-1.582862394215482
 10
-1.99773423419449
 20
-1.522914220387357
  0
LWPOLYLINE
  5
4E9
330
18
100
AcDbEntity
  8
TEXT
100
AcDbPolyline
 90
        2
 70
     0
 43
0.0001332181640625
 10
-2.027708321108553
 20
-1.609506027027983
 10
-2.017716958803862
 20
-1.536236036793607
  0
LWPOLYLINE
  5
4EA
330
18
100
AcDbEntity
  8
TEXT
100
AcDbPolyline
 90
        2
 70
     0
 43
0.0001332181640625
 10
-2.027708321108553
 20
-1.582862394215482
 10
-2.017716958803862
 20
-1.522914220387357
  0
LWPOLYLINE
  5
4EB
330
18
100
AcDbEntity
  8
TEXT
100
AcDbPolyline
 90
        2
 70
     0
 43
0.0006660908203125
 10
-2.027708321108553
 20
-1.582862394215482
 10
-2.027708321108553
 20
-1.609506027027983
  0
LWPOLYLINE
  5
4EC
330
18
100
AcDbEntity
  8
TEXT
100
AcDbPolyline
 90
        2
 70
     0
 43
0.0006660908203125
 10
-1.901151065249176
 20
-1.496270587574856
 10
-1.874507432436675
 20
-1.496270587574856
  0
LWPOLYLINE
  5
4ED
330
18
100
AcDbEntity
  8
TEXT
100
AcDbPolyline
 90
        2
 70
     0
 43
0.0001332181640625
 10
-1.901151065249176
 20
-1.369713331715481
 10
-1.9610992390773
 20
-1.429661505543607
  0
LWPOLYLINE
  5
4EE
330
18
100
AcDbEntity
  8
TEXT
100
AcDbPolyline
 90
        2
 70
     0
 43
0.0001332181640625
 10
-1.901151065249176
 20
-1.456305138356108
 10
-1.9610992390773
 20
-1.466296500660797
  0
LWPOLYLINE
  5
4EF
330
18
100
AcDbEntity
  8
TEXT
100
AcDbPolyline
 90
        2
 70
     0
 43
0.0001332181640625
 10
-1.947777422671051
 20
-1.466296500660797
 10
-1.874507432436675
 20
-1.456305138356108
  0
LWPOLYLINE
  5
4F0
330
18
100
AcDbEntity
  8
TEXT
100
AcDbPolyline
 90
        3
 70
     0
 43
0.0006660908203125
 10
-1.901151065249176
 20
-1.456305138356108
 10
-1.901151065249176
 20
-1.369713331715481
 10
-1.987742871889801
 20
-1.369713331715481
  0
LWPOLYLINE
  5
4F1
330
18
100
AcDbEntity
  8
TEXT
100
AcDbPolyline
 90
        3
 70
     0
 43
0.0006660908203125
 10
-1.874507432436675
 20
-1.456305138356108
 10
-1.874507432436675
 20
-1.34306969890298
 10
-1.987742871889801
 20
-1.34306969890298
  0
LWPOLYLINE
  5
4F2
330
18
100
AcDbEntity
  8
TEXT
100
AcDbPolyline
 90
        2
 70
     0
 43
0.0001332181640625
 10
-1.987742871889801
 20
-1.34306969890298
 10
-1.99773423419449
 20
-1.41633968913736
  0
LWPOLYLINE
  5
4F3
330
18
100
AcDbEntity
  8
TEXT
100
AcDbPolyline
 90
        2
 70
     0
 43
0.0001332181640625
 10
-1.987742871889801
 20
-1.369713331715481
 10
-1.99773423419449
 20
-1.429661505543607
  0
LWPOLYLINE
  5
4F4
330
18
100
AcDbEntity
  8
TEXT
100
AcDbPolyline
 90
        2
 70
     0
 43
0.0006660908203125
 10
-1.987742871889801
 20
-1.369713331715481
 10
-1.987742871889801
 20
-1.34306969890298
  0
LWPOLYLINE
  5
4F5
330
18
100
AcDbEntity
  8
TEXT
100
AcDbPolyline
 90
        5
 70
     0
 43
0.0001332181640625
 10
-1.99773423419449
 20
-1.41633968913736
 10
-1.99773423419449
 20
-1.429661505543607
 10
-1.9610992390773
 20
-1.429661505543607
 10
-1.9610992390773
 20
-1.466296500660797
 10
-1.947777422671051
 20
-1.466296500660797
  0
LWPOLYLINE
  5
4F6
330
18
100
AcDbEntity
  8
TEXT
100
AcDbPolyline
 90
        2
 70
     0
 43
0.0001332181640625
 10
-2.027708321108553
 20
-1.369713331715481
 10
-2.017716958803862
 20
-1.429661505543607
  0
LWPOLYLINE
  5
4F7
330
18
100
AcDbEntity
  8
TEXT
100
AcDbPolyline
 90
        2
 70
     0
 43
0.0001332181640625
 10
-2.017716958803862
 20
-1.41633968913736
 10
-2.027708321108553
 20
-1.34306969890298
  0
LWPOLYLINE
  5
4F8
330
18
100
AcDbEntity
  8
TEXT
100
AcDbPolyline
 90
        2
 70
     0
 43
0.0006660908203125
 10
-2.027708321108553
 20
-1.369713331715481
 10
-2.027708321108553
 20
-1.34306969890298
  0
LWPOLYLINE
  5
4F9
330
18
100
AcDbEntity
  8
TEXT
100
AcDbPolyline
 90
        2
 70
     0
 43
0.0006660908203125
 10
-1.901151065249176
 20
-1.456305138356108
 10
-1.874507432436675
 20
-1.456305138356108
  0
LWPOLYLINE
  5
4FA
330
18
100
AcDbEntity
  8
TEXT
100
AcDbPolyline
 90
        2
 70
     0
 43
0.0
 10
-1.155727511688045
 20
-1.557991389676566
 42
0.3318488747599744
 10
-1.086608219122732
 20
-1.609542731891495
 42
-6.868794160588311
  0
LINE
  5
4FB
330
18
100
AcDbEntity
  8
TEXT
100
AcDbLine
 10
-1.087747792618928
 20
-1.275058221164173
 30
0.0
 11
-1.154556505185293
 21
-1.275058221164173
 31
0.0
  0
LINE
  5
4FC
330
18
100
AcDbEntity
  8
TEXT
100
AcDbLine
 10
-1.433898872804387
 20
-1.343069698902984
 30
0.0
 11
-1.609630625702898
 21
-1.343069698902984
 31
0.0
  0
ARC
  5
4FD
330
18
100
AcDbEntity
  8
TEXT
100
AcDbCircle
 10
-1.538793159344348
 20
-1.526346923530938
 30
0.0
 40
0.0831958083605586
100
AcDbArc
 50
270.0
 51
90.0
  0
LINE
  5
4FE
330
18
100
AcDbEntity
  8
TEXT
100
AcDbLine
 10
-1.60439329558865
 20
-1.407346393559749
 30
0.0
 11
-1.43748764155968
 21
-1.407346393559749
 31
0.0
  0
LINE
  5
4FF
330
18
100
AcDbEntity
  8
TEXT
100
AcDbLine
 10
-1.533852785438069
 20
-1.541185725558055
 30
0.0
 11
-1.691718085149403
 21
-1.541185725558055
 31
0.0
  0
LINE
  5
500
330
18
100
AcDbEntity
  8
TEXT
100
AcDbLine
 10
-1.691718085149402
 20
-1.609542731891495
 30
0.0
 11
-1.538793159344349
 21
-1.609542731891495
 31
0.0
  0
ARC
  5
501
330
18
100
AcDbEntity
  8
TEXT
100
AcDbCircle
 10
-1.609630625702898
 20
-1.425157158349485
 30
0.0
 40
0.0820874594465043
100
AcDbArc
 50
90.0
 51
270.0
  0
LINE
  5
502
330
18
100
AcDbEntity
  8
TEXT
100
AcDbLine
 10
-1.691718085149403
 20
-1.541185725558055
 30
0.0
 11
-1.691718085149402
 21
-1.609542731891495
 31
0.0
  0
LINE
  5
503
330
18
100
AcDbEntity
  8
TEXT
100
AcDbLine
 10
-1.609630625702898
 20
-1.507244617795991
 30
0.0
 11
-1.533852785438069
 21
-1.507244617795991
 31
0.0
  0
ARC
  5
504
330
18
100
AcDbEntity
  8
TEXT
100
AcDbCircle
 10
-1.533852785438069
 20
-1.524215171677021
 30
0.0
 40
0.0169705538810321
100
AcDbArc
 50
270.0
 51
90.0
  0
LINE
  5
505
330
18
100
AcDbEntity
  8
TEXT
100
AcDbLine
 10
-1.538793159344349
 20
-1.443151115170377
 30
0.0
 11
-1.60439329558865
 21
-1.443151115170377
 31
0.0
  0
ARC
  5
506
330
18
100
AcDbEntity
  8
TEXT
100
AcDbCircle
 10
-1.604393295588649
 20
-1.425248754365061
 30
0.0
 40
0.017902360805315
100
AcDbArc
 50
90.0
 51
270.0
  0
LINE
  5
507
330
18
100
AcDbEntity
  8
TEXT
100
AcDbLine
 10
-1.243426980784534
 20
-1.443941695016104
 30
0.0
 11
-1.302057301816472
 21
-1.343069698902984
 31
0.0
  0
LINE
  5
508
330
18
100
AcDbEntity
  8
TEXT
100
AcDbLine
 10
-1.383601034079574
 20
-1.609542731891495
 30
0.0
 11
-1.286960783004579
 21
-1.609272092793212
 31
0.0
  0
LWPOLYLINE
  5
509
330
18
100
AcDbEntity
  8
TEXT
100
AcDbPolyline
 90
        6
 70
     1
 43
0.0
 10
-1.341077230504424
 20
-1.407346393559749
 10
-1.371393824724632
 20
-1.407346393559749
 10
-1.371393824724632
 20
-1.530457391614644
 42
0.407328721240804
 10
-1.359850173563156
 20
-1.54227630629103
 10
-1.299228474518425
 20
-1.54227630629103
 10
-1.281763134111107
 20
-1.50946407724755
  0
LINE
  5
50A
330
18
100
AcDbEntity
  8
TEXT
100
AcDbLine
 10
-1.43748764155968
 20
-1.407346393559749
 30
0.0
 11
-1.43748764155968
 21
-1.549750340553445
 31
0.0
  0
ARC
  5
50B
330
18
100
AcDbEntity
  8
TEXT
100
AcDbCircle
 10
-1.377371623585927
 20
-1.549750340553445
 30
0.0
 40
0.0601160179737537
100
AcDbArc
 50
180.0000000000003
 51
264.0521544866073
  0
LINE
  5
50C
330
18
100
AcDbEntity
  8
TEXT
100
AcDbLine
 10
-1.37385626796038
 20
-1.308681781308846
 30
0.0
 11
-1.433898872804387
 21
-1.308681781308846
 31
0.0
  0
LINE
  5
50D
330
18
100
AcDbEntity
  8
TEXT
100
AcDbLine
 10
-1.433898872804387
 20
-1.308681781308846
 30
0.0
 11
-1.433898872804387
 21
-1.343069698902984
 31
0.0
  0
LINE
  5
50E
330
18
100
AcDbEntity
  8
TEXT
100
AcDbLine
 10
-1.37385626796038
 20
-1.343069698902984
 30
0.0
 11
-1.37385626796038
 21
-1.308681781308846
 31
0.0
  0
LINE
  5
50F
330
18
100
AcDbEntity
  8
TEXT
100
AcDbLine
 10
-1.302057301816472
 20
-1.343069698902984
 30
0.0
 11
-1.37385626796038
 21
-1.343069698902984
 31
0.0
  0
LINE
  5
510
330
18
100
AcDbEntity
  8
TEXT
100
AcDbLine
 10
-1.253027217781489
 20
-1.589584225786482
 30
0.0
 11
-1.155727511688044
 21
-1.425234014851214
 31
0.0
  0
LINE
  5
511
330
18
100
AcDbEntity
  8
TEXT
100
AcDbLine
 10
-1.155727511688044
 20
-1.425234014851214
 30
0.0
 11
-1.155727511688044
 21
-1.55799138967657
 31
0.0
  0
ARC
  5
512
330
18
100
AcDbEntity
  8
TEXT
100
AcDbCircle
 10
-1.287070777693702
 20
-1.569995009617799
 30
0.0
 40
0.0392772371940762
100
AcDbArc
 50
270.1604552698595
 51
330.0831797321295
  0
LINE
  5
513
330
18
100
AcDbEntity
  8
TEXT
100
AcDbLine
 10
-1.184678417978669
 20
-1.343069698902984
 30
0.0
 11
-1.243426980784534
 21
-1.443941695016104
 31
0.0
  0
LINE
  5
514
330
18
100
AcDbEntity
  8
TEXT
100
AcDbLine
 10
-1.154556505185293
 20
-1.275058221164173
 30
0.0
 11
-1.154556505185293
 21
-1.343069698902984
 31
0.0
  0
LINE
  5
515
330
18
100
AcDbEntity
  8
TEXT
100
AcDbLine
 10
-1.154556505185293
 20
-1.343069698902984
 30
0.0
 11
-1.184678417978669
 21
-1.343069698902984
 31
0.0
  0
LWPOLYLINE
  5
516
330
18
100
AcDbEntity
  8
TEXT
100
AcDbPolyline
 90
        4
 70
     0
 43
0.0
 10
-0.8024703835651347
 20
-1.414900182725859
 10
-0.8024703835651347
 20
-1.609542731891495
 10
-0.7339921002772769
 20
-1.609542731891495
 10
-0.7339921002772769
 20
-1.566051786941057
 42
-1.714843617202739
  0
LWPOLYLINE
  5
517
330
18
100
AcDbEntity
  8
TEXT
100
AcDbPolyline
 90
        2
 70
     0
 43
0.0
 10
-0.7673360330209249
 20
-1.34306969890298
 42
-0.3277054968067132
 10
-0.73155434230776
 20
-1.371392244672624
 42
6.667889725900311
  0
LWPOLYLINE
  5
518
330
18
100
AcDbEntity
  8
TEXT
100
AcDbPolyline
 90
        2
 70
     0
 43
0.0
 10
-0.9387696056001519
 20
-1.407346393559749
 42
-0.4142135623731017
 10
-0.9312158164340385
 20
-1.414900182725859
 42
-0.9999999999999998
  0
LINE
  5
519
330
18
100
AcDbEntity
  8
TEXT
100
AcDbLine
 10
-0.9214178825501315
 20
-1.343069698902984
 30
0.0
 11
-1.055435938481267
 21
-1.343069698902984
 31
0.0
  0
LINE
  5
51A
330
18
100
AcDbEntity
  8
TEXT
100
AcDbLine
 10
-0.9886048854232987
 20
-1.609542731891495
 30
0.0
 11
-0.9886048854232987
 21
-1.407346393559749
 31
0.0
  0
LINE
  5
51B
330
18
100
AcDbEntity
  8
TEXT
100
AcDbLine
 10
-1.055435938481267
 20
-1.343069698902984
 30
0.0
 11
-1.055435938481267
 21
-1.543933905635392
 31
0.0
  0
LINE
  5
51C
330
18
100
AcDbEntity
  8
TEXT
100
AcDbLine
 10
-1.087747792618928
 20
-1.527154893788496
 30
0.0
 11
-1.087747792618928
 21
-1.275058221164173
 31
0.0
  0
LINE
  5
51D
330
18
100
AcDbEntity
  8
TEXT
100
AcDbLine
 10
-1.086608219122733
 20
-1.609542731891495
 30
0.0
 11
-0.9886048854232987
 21
-1.609542731891495
 31
0.0
  0
LINE
  5
51E
330
18
100
AcDbEntity
  8
TEXT
100
AcDbLine
 10
-1.055435938481267
 20
-1.543933905635392
 30
0.0
 11
-1.072429575365869
 21
-1.543933905635392
 31
0.0
  0
ARC
  5
51F
330
18
100
AcDbEntity
  8
TEXT
100
AcDbCircle
 10
-1.07242957536587
 20
-1.528552099391967
 30
0.0
 40
0.0153818062434269
100
AcDbArc
 50
174.7883570302258
 51
270.0
  0
LINE
  5
520
330
18
100
AcDbEntity
  8
TEXT
100
AcDbLine
 10
-0.9886048854232987
 20
-1.407346393559749
 30
0.0
 11
-0.9387696056001511
 21
-1.407346393559749
 31
0.0
  0
LINE
  5
521
330
18
100
AcDbEntity
  8
TEXT
100
AcDbLine
 10
-0.9312158164340376
 20
-1.414900182725859
 30
0.0
 11
-0.9312158164340376
 21
-1.609542731891495
 31
0.0
  0
LINE
  5
522
330
18
100
AcDbEntity
  8
TEXT
100
AcDbLine
 10
-0.8641577696521975
 20
-1.609542731891495
 30
0.0
 11
-0.8641577696521975
 21
-1.407346393559749
 31
0.0
  0
LINE
  5
523
330
18
100
AcDbEntity
  8
TEXT
100
AcDbLine
 10
-0.9312158164340376
 20
-1.609542731891495
 30
0.0
 11
-0.8641577696521975
 21
-1.609542731891495
 31
0.0
  0
LWPOLYLINE
  5
524
330
18
100
AcDbEntity
  8
TEXT
100
AcDbPolyline
 90
        3
 70
     0
 43
0.0
 10
-0.7673360330209249
 20
-1.34306969890298
 10
-0.8856361918369692
 20
-1.34306969890298
 10
-0.8856361918369692
 20
-1.370237195663876
 42
-1.960274751411753
  0
LINE
  5
525
330
18
100
AcDbEntity
  8
TEXT
100
AcDbLine
 10
-0.8641577696521975
 20
-1.407346393559749
 30
0.0
 11
-0.8100241727312473
 21
-1.407346393559749
 31
0.0
  0
LWPOLYLINE
  5
526
330
18
100
AcDbEntity
  8
TEXT
100
AcDbPolyline
 90
        2
 70
     0
 43
0.0
 10
-0.9214178825501306
 20
-1.34306969890298
 42
-0.3328679258950098
 10
-0.8856361918369692
 20
-1.370237195663876
 42
6.772930709997214
  0
LWPOLYLINE
  5
527
330
18
100
AcDbEntity
  8
TEXT
100
AcDbPolyline
 90
        2
 70
     0
 43
0.0
 10
-0.8100241727312482
 20
-1.407346393559749
 42
-0.4142135623731017
 10
-0.8024703835651347
 20
-1.414900182725859
 42
-0.9999999999999998
  0
ARC
  5
528
330
18
100
AcDbEntity
  8
TEXT
100
AcDbCircle
 10
-0.5987493728677685
 20
-1.384653266023886
 30
0.0
 40
0.0416329381542859
100
AcDbArc
 50
26.56974201007528
 51
87.20939649401342
  0
LWPOLYLINE
  5
529
330
18
100
AcDbEntity
  8
TEXT
100
AcDbPolyline
 90
        2
 70
     0
 43
0.0
 10
-0.6909161674096414
 20
-1.609542731891495
 10
-0.5568987497782647
 20
-1.609542731891495
 42
0.9999999999999998
  0
LWPOLYLINE
  5
52A
330
18
100
AcDbEntity
  8
TEXT
100
AcDbPolyline
 90
        4
 70
     1
 43
0.0
 10
-0.5770212148481573
 20
-1.506578753907469
 10
-0.6656815335080158
 20
-1.506578753907469
 42
0.9999999999999998
 10
-0.6656815335080158
 20
-1.54897729441133
 10
-0.5770212148481573
 20
-1.54897729441133
 42
1.0
  0
LWPOLYLINE
  5
52B
330
18
100
AcDbEntity
  8
TEXT
100
AcDbPolyline
 90
        2
 70
     0
 43
0.0
 10
-0.7339921002772769
 20
-1.566051786941057
 42
0.2901071551932823
 10
-0.6909161674096414
 20
-1.609542731891495
 42
5.328517124445801
  0
LINE
  5
52C
330
18
100
AcDbEntity
  8
TEXT
100
AcDbLine
 10
-0.5967224330907
 20
-1.343069698902984
 30
0.0
 11
-0.7315543423077591
 21
-1.343069698902984
 31
0.0
  0
LINE
  5
52D
330
18
100
AcDbEntity
  8
TEXT
100
AcDbLine
 10
-0.6722402459144404
 20
-1.444621367021881
 30
0.0
 11
-0.5899522561310571
 21
-1.444621367021881
 31
0.0
  0
LINE
  5
52E
330
18
100
AcDbEntity
  8
TEXT
100
AcDbLine
 10
-0.6257533314351785
 20
-1.407346393559749
 30
0.0
 11
-0.7329596048224678
 21
-1.407346393559749
 31
0.0
  0
LINE
  5
52F
330
18
100
AcDbEntity
  8
TEXT
100
AcDbLine
 10
-0.7315543423077591
 20
-1.343069698902984
 30
0.0
 11
-0.7315543423077591
 21
-1.371392244672628
 31
0.0
  0
ARC
  5
530
330
18
100
AcDbEntity
  8
TEXT
100
AcDbCircle
 10
-0.6722402459144412
 20
-1.512306948166
 30
0.0
 40
0.0676855811441166
100
AcDbArc
 50
90.0
 51
153.7768192527749
  0
LINE
  5
531
330
18
100
AcDbEntity
  8
TEXT
100
AcDbLine
 10
-0.7329596048224678
 20
-1.407346393559749
 30
0.0
 11
-0.7329596048224678
 21
-1.482398799633956
 31
0.0
  0
LINE
  5
532
330
18
100
AcDbEntity
  8
TEXT
100
AcDbLine
 10
-0.5899522561310571
 20
-1.444621367021881
 30
0.0
 11
-0.6002170165446215
 21
-1.423370827449187
 31
0.0
  0
ARC
  5
533
330
18
100
AcDbEntity
  8
TEXT
100
AcDbCircle
 10
-0.6257533314351793
 20
-1.435705768559746
 30
0.0
 40
0.028359375
100
AcDbArc
 50
25.78218179591245
 51
90.0
  0
LINE
  5
534
330
18
100
AcDbEntity
  8
TEXT
100
AcDbLine
 10
-0.4554676030752854
 20
-1.609542731891495
 30
0.0
 11
-0.4554676030752907
 21
-1.432252226460026
 31
0.0
  0
LWPOLYLINE
  5
535
330
18
100
AcDbEntity
  8
TEXT
100
AcDbPolyline
 90
        2
 70
     0
 43
0.0
 10
-0.5138228169106203
 20
-1.609542731891495
 10
-0.4554676030752863
 20
-1.609542731891495
  0
LWPOLYLINE
  5
536
330
18
100
AcDbEntity
  8
TEXT
100
AcDbPolyline
 90
        2
 70
     0
 43
0.0
 10
-0.5138228169106203
 20
-1.566051786941057
 42
-0.2901071551932486
 10
-0.5568987497782647
 20
-1.609542731891495
 42
-5.328517124445184
  0
LWPOLYLINE
  5
537
330
18
100
AcDbEntity
  8
TEXT
100
AcDbPolyline
 90
        2
 70
     0
 43
0.0
 10
-0.5138228169106203
 20
-1.566051786941057
 10
-0.5138228169106203
 20
-1.609542731891495
  0
LINE
  5
538
330
18
100
AcDbEntity
  8
TEXT
100
AcDbLine
 10
-0.453865587916158
 20
-1.343069698902984
 30
0.0
 11
-0.5177624942156589
 21
-1.343069698902984
 31
0.0
  0
LINE
  5
539
330
18
100
AcDbEntity
  8
TEXT
100
AcDbLine
 10
-0.5177624942156589
 20
-1.343069698902984
 30
0.0
 11
-0.5177624942156589
 21
-1.448281677456411
 31
0.0
  0
LINE
  5
53A
330
18
100
AcDbEntity
  8
TEXT
100
AcDbLine
 10
-0.5177624942156589
 20
-1.448281677456411
 30
0.0
 11
-0.5615132653975606
 21
-1.366031401460266
 31
0.0
  0
ARC
  5
53B
330
18
100
AcDbEntity
  8
TEXT
100
AcDbCircle
 10
-0.4305617277926271
 20
-1.432252268842412
 30
0.0
 40
0.0249058752826653
100
AcDbArc
 50
89.99971217465335
 51
179.9999999999985
  0
ARC
  5
53C
330
18
100
AcDbEntity
  8
TEXT
100
AcDbCircle
 10
-0.4226727708530494
 20
-1.374315426185249
 30
0.0
 40
0.0314112657011332
100
AcDbArc
 50
95.88484768694724
 51
173.2388340632136
  0
LINE
  5
53D
330
18
100
AcDbEntity
  8
TEXT
100
AcDbLine
 10
-0.453865587916158
 20
-1.370617348763858
 30
0.0
 11
-0.453865587916158
 21
-1.343069698902984
 31
0.0
  0
TEXT
  5
53E
330
18
100
AcDbEntity
  8
TEXT
100
AcDbText
 10
0.0150099315056327
 20
-1.516656923245998
 30
0.0
 40
0.0522247191011236
  1
Minneapolis, MN 55432-0008
 41
1.11444212721585
 72
     5
 11
1.343942515775296
 21
-1.516656923245998
 31
0.0
100
AcDbText
  0
TEXT
  5
53F
330
18
100
AcDbEntity
  8
TEXT
100
AcDbText
 10
0.0150099315056327
 20
-1.423398496279706
 30
0.0
 40
0.0522247191011236
  1
6536 Main St. N.E. * P.O. Box 32008
 41
0.8388932496075355
 72
     5
 11
1.343942515775296
 21
-1.423398496279706
 31
0.0
100
AcDbText
  0
TEXT
  5
540
330
18
100
AcDbEntity
  8
TEXT
100
AcDbText
 10
0.0150099315056327
 20
-1.330140069313414
 30
0.0
 40
0.0522247191011236
  1
Stylmark  Incorporated
 41
1.221428571428571
 72
     5
 11
1.343942515775296
 21
-1.330140069313414
 31
0.0
100
AcDbText
  0
TEXT
  5
541
330
18
100
AcDbEntity
  8
TEXT
100
AcDbText
 10
0.0150099315056327
 20
-1.609915350212291
 30
0.0
 40
0.0522247191011236
  1
Phone  1-800-328-2495
 41
1.272321428571429
 72
     5
 11
1.343942515775296
 21
-1.609915350212291
 31
0.0
100
AcDbText
  0
LINE
  5
542
330
18
100
AcDbEntity
  8
TEXT
100
AcDbLine
 10
-0.2325458799573825
 20
-1.452962941843957
 30
0.0
 11
-0.1679887639916773
 21
-1.343069698902984
 31
0.0
  0
LINE
  5
543
330
18
100
AcDbEntity
  8
TEXT
100
AcDbLine
 10
-0.1679887639916773
 20
-1.343069698902984
 30
0.0
 11
-0.2429805967213037
 21
-1.343069698902984
 31
0.0
  0
LINE
  5
544
330
18
100
AcDbEntity
  8
TEXT
100
AcDbLine
 10
-0.213632028969978
 20
-1.609542731891495
 30
0.0
 11
-0.1370536565937721
 21
-1.609542731891495
 31
0.0
  0
LINE
  5
545
330
18
100
AcDbEntity
  8
TEXT
100
AcDbLine
 10
-0.1370536565937721
 20
-1.609542731891495
 30
0.0
 11
-0.2325458799573825
 21
-1.452962941843957
 31
0.0
  0
LINE
  5
546
330
18
100
AcDbEntity
  8
TEXT
100
AcDbLine
 10
-0.2895355621814426
 20
-1.609542731891495
 30
0.0
 11
-0.2895355621814426
 21
-1.477963163415314
 31
0.0
  0
LINE
  5
547
330
18
100
AcDbEntity
  8
TEXT
100
AcDbLine
 10
-0.2895355621814426
 20
-1.477963163415314
 30
0.0
 11
-0.213632028969978
 21
-1.609542731891495
 31
0.0
  0
LINE
  5
548
330
18
100
AcDbEntity
  8
TEXT
100
AcDbLine
 10
-0.3539137465000683
 20
-1.407346393559749
 30
0.0
 11
-0.353913746500063
 21
-1.609542731891495
 31
0.0
  0
LINE
  5
549
330
18
100
AcDbEntity
  8
TEXT
100
AcDbLine
 10
-0.353913746500063
 20
-1.609542731891495
 30
0.0
 11
-0.2895355621814426
 21
-1.609542731891495
 31
0.0
  0
LINE
  5
54A
330
18
100
AcDbEntity
  8
TEXT
100
AcDbLine
 10
-0.2900787552772899
 20
-1.277605493135383
 30
0.0
 11
-0.3583936338265632
 21
-1.277605493135383
 31
0.0
  0
LINE
  5
54B
330
18
100
AcDbEntity
  8
TEXT
100
AcDbLine
 10
-0.3583936338265632
 20
-1.277605493135383
 30
0.0
 11
-0.3583936338265685
 21
-1.343069698902984
 31
0.0
  0
LINE
  5
54C
330
18
100
AcDbEntity
  8
TEXT
100
AcDbLine
 10
-0.2429805967213054
 20
-1.343069698902984
 30
0.0
 11
-0.2900787552772899
 21
-1.418935025314522
 31
0.0
  0
LINE
  5
54D
330
18
100
AcDbEntity
  8
TEXT
100
AcDbLine
 10
-0.2900787552772899
 20
-1.418935025314522
 30
0.0
 11
-0.2900787552772899
 21
-1.277605493135383
 31
0.0
  0
ENDSEC
  0
SECTION
  2
OBJECTS
  0
DICTIONARY
  5
C
330
0
100
AcDbDictionary
  3
ACAD_GROUP
350
D
  3
ACAD_LAYOUT
350
552
  3
ACAD_MLINESTYLE
350
E
  3
ACAD_PLOTSETTINGS
350
553
  3
ACAD_PLOTSTYLENAME
350
550
  3
ACDBHEADERROUNDTRIPXREC
350
55C
  3
ACDBVARIABLEDICTIONARY
350
43D
  0
DICTIONARY
  5
57E
330
18
100
AcDbDictionary
280
     1
  3
ACAD_LAYOUTSELFREF
360
57F
  0
DICTIONARY
  5
57C
330
15
100
AcDbDictionary
280
     1
  3
ACAD_LAYOUTSELFREF
360
57D
  0
DICTIONARY
  5
D
102
{ACAD_REACTORS
330
C
102
}
330
C
100
AcDbDictionary
  0
DICTIONARY
  5
552
102
{ACAD_REACTORS
330
C
102
}
330
C
100
AcDbDictionary
  0
DICTIONARY
  5
E
102
{ACAD_REACTORS
330
C
102
}
330
C
100
AcDbDictionary
  3
STANDARD
350
1B
  0
DICTIONARY
  5
553
102
{ACAD_REACTORS
330
C
102
}
330
C
100
AcDbDictionary
  0
ACDBDICTIONARYWDFLT
  5
550
102
{ACAD_REACTORS
330
C
102
}
330
C
100
AcDbDictionary
281
     1
  3
Normal
350
551
100
AcDbDictionaryWithDefault
340
551
  0
DICTIONARY
  5
55C
102
{ACAD_REACTORS
330
C
102
}
330
C
100
AcDbDictionary
  3
CEPSNTYPE
350
566
  3
FINGERPRINTGUID
350
567
  3
HYPERLINKBASE
350
55F
  3
INSUNITS
350
565
  3
LAYOUTDICT
350
561
  3
LWETCUNION
350
564
  3
PLOTSETDICT
350
562
  3
PLOTSTYLNAMDICT
350
563
  3
PSVPSCALE
350
569
  3
PUCSBASE
350
56C
  3
PUCSORGBACK
350
572
  3
PUCSORGBOTTOM
350
56E
  3
PUCSORGFRONT
350
571
  3
PUCSORGLEFT
350
56F
  3
PUCSORGRIGHT
350
570
  3
PUCSORGTOP
350
56D
  3
PUCSORTHOREF
350
56A
  3
PUCSORTHOVIEW
350
56B
  3
STYLESHEET
350
560
  3
TSTACKALIGN
350
55D
  3
TSTACKSIZE
350
55E
  3
UCSBASE
350
575
  3
UCSORGBACK
350
57B
  3
UCSORGBOTTOM
350
577
  3
UCSORGFRONT
350
57A
  3
UCSORGLEFT
350
578
  3
UCSORGRIGHT
350
579
  3
UCSORGTOP
350
576
  3
UCSORTHOREF
350
573
  3
UCSORTHOVIEW
350
574
  3
VERSIONGUID
350
568
  0
DICTIONARY
  5
43D
102
{ACAD_REACTORS
330
C
102
}
330
C
100
AcDbDictionary
  3
DIMASSOC
350
55A
  3
SORTENTS
350
43E
  0
XRECORD
  5
57F
102
{ACAD_REACTORS
330
57E
102
}
330
57E
100
AcDbXrecord
340
18
  0
XRECORD
  5
57D
102
{ACAD_REACTORS
330
57C
102
}
330
57C
100
AcDbXrecord
340
15
  0
MLINESTYLE
  5
1B
102
{ACAD_REACTORS
330
E
102
}
330
E
100
AcDbMlineStyle
  2
STANDARD
 70
     0
  3

 62
     0
 51
90.0
 52
90.0
 71
     2
 49
0.5
 62
   256
  6
BYLAYER
 49
-0.5
 62
   256
  6
BYLAYER
  0
ACDBPLACEHOLDER
  5
551
102
{ACAD_REACTORS
330
550
102
}
330
550
100
AcDbPlaceHolder
280
     0
  0
XRECORD
  5
566
102
{ACAD_REACTORS
330
55C
102
}
330
55C
100
AcDbXrecord
 90
        0
  0
XRECORD
  5
567
102
{ACAD_REACTORS
330
55C
102
}
330
55C
100
AcDbXrecord
  1
{912EA870-8DB5-11D6-88E6-0090279574E7}
  0
XRECORD
  5
55F
102
{ACAD_REACTORS
330
55C
102
}
330
55C
100
AcDbXrecord
  1

  0
XRECORD
  5
565
102
{ACAD_REACTORS
330
55C
102
}
330
55C
100
AcDbXrecord
 90
        0
  0
XRECORD
  5
561
102
{ACAD_REACTORS
330
55C
102
}
330
55C
100
AcDbXrecord
340
552
  0
XRECORD
  5
564
102
{ACAD_REACTORS
330
55C
102
}
330
55C
100
AcDbXrecord
 90
    14877
  0
XRECORD
  5
562
102
{ACAD_REACTORS
330
55C
102
}
330
55C
100
AcDbXrecord
340
553
  0
XRECORD
  5
563
102
{ACAD_REACTORS
330
55C
102
}
330
55C
100
AcDbXrecord
340
550
  0
XRECORD
  5
569
102
{ACAD_REACTORS
330
55C
102
}
330
55C
100
AcDbXrecord
 40
0.0
  0
XRECORD
  5
56C
102
{ACAD_REACTORS
330
55C
102
}
330
55C
100
AcDbXrecord
340
0
  0
XRECORD
  5
572
102
{ACAD_REACTORS
330
55C
102
}
330
55C
100
AcDbXrecord
 10
0.0
 20
0.0
 30
0.0
  0
XRECORD
  5
56E
102
{ACAD_REACTORS
330
55C
102
}
330
55C
100
AcDbXrecord
 10
0.0
 20
0.0
 30
0.0
  0
XRECORD
  5
571
102
{ACAD_REACTORS
330
55C
102
}
330
55C
100
AcDbXrecord
 10
0.0
 20
0.0
 30
0.0
  0
XRECORD
  5
56F
102
{ACAD_REACTORS
330
55C
102
}
330
55C
100
AcDbXrecord
 10
0.0
 20
0.0
 30
0.0
  0
XRECORD
  5
570
102
{ACAD_REACTORS
330
55C
102
}
330
55C
100
AcDbXrecord
 10
0.0
 20
0.0
 30
0.0
  0
XRECORD
  5
56D
102
{ACAD_REACTORS
330
55C
102
}
330
55C
100
AcDbXrecord
 10
0.0
 20
0.0
 30
0.0
  0
XRECORD
  5
56A
102
{ACAD_REACTORS
330
55C
102
}
330
55C
100
AcDbXrecord
340
0
  0
XRECORD
  5
56B
102
{ACAD_REACTORS
330
55C
102
}
330
55C
100
AcDbXrecord
 70
     0
  0
XRECORD
  5
560
102
{ACAD_REACTORS
330
55C
102
}
330
55C
100
AcDbXrecord
  1

  0
XRECORD
  5
55D
102
{ACAD_REACTORS
330
55C
102
}
330
55C
100
AcDbXrecord
 90
        1
  0
XRECORD
  5
55E
102
{ACAD_REACTORS
330
55C
102
}
330
55C
100
AcDbXrecord
 90
       70
  0
XRECORD
  5
575
102
{ACAD_REACTORS
330
55C
102
}
330
55C
100
AcDbXrecord
340
0
  0
XRECORD
  5
57B
102
{ACAD_REACTORS
330
55C
102
}
330
55C
100
AcDbXrecord
 10
0.0
 20
0.0
 30
0.0
  0
XRECORD
  5
577
102
{ACAD_REACTORS
330
55C
102
}
330
55C
100
AcDbXrecord
 10
0.0
 20
0.0
 30
0.0
  0
XRECORD
  5
57A
102
{ACAD_REACTORS
330
55C
102
}
330
55C
100
AcDbXrecord
 10
0.0
 20
0.0
 30
0.0
  0
XRECORD
  5
578
102
{ACAD_REACTORS
330
55C
102
}
330
55C
100
AcDbXrecord
 10
0.0
 20
0.0
 30
0.0
  0
XRECORD
  5
579
102
{ACAD_REACTORS
330
55C
102
}
330
55C
100
AcDbXrecord
 10
0.0
 20
0.0
 30
0.0
  0
XRECORD
  5
576
102
{ACAD_REACTORS
330
55C
102
}
330
55C
100
AcDbXrecord
 10
0.0
 20
0.0
 30
0.0
  0
XRECORD
  5
573
102
{ACAD_REACTORS
330
55C
102
}
330
55C
100
AcDbXrecord
340
0
  0
XRECORD
  5
574
102
{ACAD_REACTORS
330
55C
102
}
330
55C
100
AcDbXrecord
 70
     0
  0
XRECORD
  5
568
102
{ACAD_REACTORS
330
55C
102
}
330
55C
100
AcDbXrecord
  1
{912EA872-8DB5-11D6-88E6-0090279574E7}
  0
DICTIONARYVAR
  5
55A
102
{ACAD_REACTORS
330
43D
102
}
330
43D
100
DictionaryVariables
280
     0
  1
1
  0
DICTIONARYVAR
  5
43E
102
{ACAD_REACTORS
330
43D
102
}
330
43D
100
DictionaryVariables
280
     0
  1
97
  0
ENDSEC
  0
EOF
