  0
SECTION
  2
HEADER
  9
$ACADVER
  1
AC1014
  9
$ACADMAINTVER
 70
     9
  9
$DWGCODEPAGE
  3
ANSI_1252
  9
$INSBASE
 10
2.530394533961765
 20
1.202904993066018
 30
0.0
  9
$EXTMIN
 10
-8.847211242412143
 20
1.72721401989088
 30
0.0
  9
$EXTMAX
 10
-5.361991920665005
 20
3.226377087917398
 30
0.0
  9
$LIMMIN
 10
0.0
 20
0.0
  9
$LIMMAX
 10
11.0
 20
8.5
  9
$ORTHOMODE
 70
     1
  9
$REGENMODE
 70
     1
  9
$FILLMODE
 70
     1
  9
$QTEXTMODE
 70
     0
  9
$MIRRTEXT
 70
     0
  9
$DRAGMODE
 70
     2
  9
$LTSCALE
 40
0.6
  9
$OSMODE
 70
    39
  9
$ATTMODE
 70
     1
  9
$TEXTSIZE
 40
0.125
  9
$TRACEWID
 40
0.05
  9
$TEXTSTYLE
  7
ROMANS
  9
$CLAYER
  8
DIM
  9
$CELTYPE
  6
BYLAYER
  9
$CECOLOR
 62
   256
  9
$CELTSCALE
 40
1.0
  9
$DELOBJ
 70
     1
  9
$DISPSILH
 70
     1
  9
$DIMSCALE
 40
1.0
  9
$DIMASZ
 40
0.125
  9
$DIMEXO
 40
0.125
  9
$DIMDLI
 40
0.375
  9
$DIMRND
 40
0.0
  9
$DIMDLE
 40
0.0
  9
$DIMEXE
 40
0.125
  9
$DIMTP
 40
0.005
  9
$DIMTM
 40
0.005
  9
$DIMTXT
 40
0.125
  9
$DIMCEN
 40
-0.125
  9
$DIMTSZ
 40
0.0
  9
$DIMTOL
 70
     0
  9
$DIMLIM
 70
     0
  9
$DIMTIH
 70
     1
  9
$DIMTOH
 70
     1
  9
$DIMSE1
 70
     0
  9
$DIMSE2
 70
     0
  9
$DIMTAD
 70
     0
  9
$DIMZIN
 70
     4
  9
$DIMBLK
  1

  9
$DIMASO
 70
     1
  9
$DIMSHO
 70
     1
  9
$DIMPOST
  1

  9
$DIMAPOST
  1

  9
$DIMALT
 70
     0
  9
$DIMALTD
 70
     2
  9
$DIMALTF
 40
25.4
  9
$DIMLFAC
 40
0.5
  9
$DIMTOFL
 70
     0
  9
$DIMTVP
 40
0.0
  9
$DIMTIX
 70
     1
  9
$DIMSOXD
 70
     0
  9
$DIMSAH
 70
     0
  9
$DIMBLK1
  1

  9
$DIMBLK2
  1

  9
$DIMSTYLE
  2
STANDARD
  9
$DIMCLRD
 70
     0
  9
$DIMCLRE
 70
     0
  9
$DIMCLRT
 70
     0
  9
$DIMTFAC
 40
1.0
  9
$DIMGAP
 40
0.09
  9
$DIMJUST
 70
     0
  9
$DIMSD1
 70
     0
  9
$DIMSD2
 70
     0
  9
$DIMTOLJ
 70
     1
  9
$DIMTZIN
 70
     4
  9
$DIMALTZ
 70
     0
  9
$DIMALTTZ
 70
     0
  9
$DIMFIT
 70
     3
  9
$DIMUPT
 70
     0
  9
$DIMUNIT
 70
     2
  9
$DIMDEC
 70
     3
  9
$DIMTDEC
 70
     3
  9
$DIMALTU
 70
     2
  9
$DIMALTTD
 70
     2
  9
$DIMTXSTY
  7
ROMANS
  9
$DIMAUNIT
 70
     0
  9
$LUNITS
 70
     2
  9
$LUPREC
 70
     3
  9
$SKETCHINC
 40
0.1
  9
$FILLETRAD
 40
0.031
  9
$AUNITS
 70
     0
  9
$AUPREC
 70
     0
  9
$MENU
  1
ACAD
  9
$ELEVATION
 40
0.0
  9
$PELEVATION
 40
0.0
  9
$THICKNESS
 40
0.0
  9
$LIMCHECK
 70
     0
  9
$BLIPMODE
 70
     0
  9
$CHAMFERA
 40
0.0
  9
$CHAMFERB
 40
0.0
  9
$CHAMFERC
 40
0.0
  9
$CHAMFERD
 40
0.0
  9
$SKPOLY
 70
     0
  9
$TDCREATE
 40
2449482.444219444
  9
$TDUPDATE
 40
2452458.303230439
  9
$TDINDWG
 40
0.1756882176
  9
$TDUSRTIMER
 40
0.1756882176
  9
$USRTIMER
 70
     1
  9
$ANGBASE
 50
0.0
  9
$ANGDIR
 70
     0
  9
$PDMODE
 70
    35
  9
$PDSIZE
 40
0.0
  9
$PLINEWID
 40
0.0
  9
$COORDS
 70
     2
  9
$SPLFRAME
 70
     0
  9
$SPLINETYPE
 70
     6
  9
$SPLINESEGS
 70
     8
  9
$ATTDIA
 70
     0
  9
$ATTREQ
 70
     1
  9
$HANDLING
 70
 22529
  9
$HANDSEED
  5
76D
  9
$SURFTAB1
 70
     6
  9
$SURFTAB2
 70
     6
  9
$SURFTYPE
 70
     6
  9
$SURFU
 70
     6
  9
$SURFV
 70
     6
  9
$UCSNAME
  2

  9
$UCSORG
 10
0.0
 20
0.0
 30
0.0
  9
$UCSXDIR
 10
1.0
 20
0.0
 30
0.0
  9
$UCSYDIR
 10
0.0
 20
1.0
 30
0.0
  9
$PUCSNAME
  2

  9
$PUCSORG
 10
0.0
 20
0.0
 30
0.0
  9
$PUCSXDIR
 10
1.0
 20
0.0
 30
0.0
  9
$PUCSYDIR
 10
0.0
 20
1.0
 30
0.0
  9
$USERI1
 70
     0
  9
$USERI2
 70
     0
  9
$USERI3
 70
     0
  9
$USERI4
 70
     0
  9
$USERI5
 70
     0
  9
$USERR1
 40
0.0
  9
$USERR2
 40
0.0
  9
$USERR3
 40
0.0
  9
$USERR4
 40
0.0
  9
$USERR5
 40
0.0
  9
$WORLDVIEW
 70
     1
  9
$SHADEDGE
 70
     3
  9
$SHADEDIF
 70
    70
  9
$TILEMODE
 70
     1
  9
$MAXACTVP
 70
    16
  9
$PINSBASE
 10
0.0
 20
0.0
 30
0.0
  9
$PLIMCHECK
 70
     0
  9
$PEXTMIN
 10
1.000000000000000E+20
 20
1.000000000000000E+20
 30
1.000000000000000E+20
  9
$PEXTMAX
 10
-1.000000000000000E+20
 20
-1.000000000000000E+20
 30
-1.000000000000000E+20
  9
$PLIMMIN
 10
0.0
 20
0.0
  9
$PLIMMAX
 10
12.0
 20
9.0
  9
$UNITMODE
 70
     0
  9
$VISRETAIN
 70
     0
  9
$PLINEGEN
 70
     1
  9
$PSLTSCALE
 70
     0
  9
$TREEDEPTH
 70
  3020
  9
$PICKSTYLE
 70
     1
  9
$CMLSTYLE
  2
STANDARD
  9
$CMLJUST
 70
     0
  9
$CMLSCALE
 40
1.0
  9
$PROXYGRAPHICS
 70
     1
  9
$MEASUREMENT
 70
     0
  0
ENDSEC
  0
SECTION
  2
CLASSES
  0
CLASS
  1
LWPOLYLINE
  2
AcDbPolyline
  3
AutoCAD 2000
 90
        0
280
     0
281
     1
  0
CLASS
  1
ACDBDICTIONARYWDFLT
  2
AcDbDictionaryWithDefault
  3
AutoCAD 2000
 90
        0
280
     0
281
     0
  0
CLASS
  1
ACDBPLACEHOLDER
  2
AcDbPlaceHolder
  3
AutoCAD 2000
 90
        0
280
     0
281
     0
  0
CLASS
  1
LAYOUT
  2
AcDbLayout
  3
AutoCAD 2000
 90
        0
280
     0
281
     0
  0
CLASS
  1
DICTIONARYVAR
  2
AcDbDictionaryVar
  3
AutoCAD 2000
 90
        0
280
     0
281
     0
  0
CLASS
  1
LONG_TRANSACTION
  2
AcDbLongTransaction
  3
AutoCAD 2000
 90
        0
280
     0
281
     0
  0
CLASS
  1
LWPOLYLINE
  2
AcDbPolyline
  3
AutoCAD 2000
 90
        0
280
     0
281
     1
  0
CLASS
  1
HATCH
  2
AcDbHatch
  3
AutoCAD 2000
 90
        0
280
     0
281
     1
  0
CLASS
  1
XRECORD
  2
AcDbXrecord
  3
AutoCAD 2000
 90
        0
280
     0
281
     0
  0
ENDSEC
  0
SECTION
  2
TABLES
  0
TABLE
  2
VPORT
  5
8
330
0
100
AcDbSymbolTable
 70
     2
  0
VPORT
  5
748
330
8
100
AcDbSymbolTableRecord
100
AcDbViewportTableRecord
  2
*ACTIVE
 70
     0
 10
0.0
 20
0.0
 11
1.0
 21
1.0
 12
-0.909253073364507
 22
2.862501218977241
 13
0.0
 23
0.0
 14
0.03125
 24
0.03125
 15
0.0
 25
0.0
 16
0.0
 26
0.0
 36
1.0
 17
0.0
 27
0.0
 37
0.0
 40
4.583755940081207
 41
4.320930232558139
 42
50.0
 43
0.0
 44
0.0
 50
0.0
 51
0.0
 71
     0
 72
  2000
 73
     1
 74
     1
 75
     0
 76
     0
 77
     0
 78
     0
  0
ENDTAB
  0
TABLE
  2
LTYPE
  5
5
330
0
100
AcDbSymbolTable
 70
     1
  0
LTYPE
  5
12
330
5
100
AcDbSymbolTableRecord
100
AcDbLinetypeTableRecord
  2
BYBLOCK
 70
     0
  3

 72
    65
 73
     0
 40
0.0
  0
LTYPE
  5
13
330
5
100
AcDbSymbolTableRecord
100
AcDbLinetypeTableRecord
  2
BYLAYER
 70
     0
  3

 72
    65
 73
     0
 40
0.0
  0
LTYPE
  5
14
330
5
100
AcDbSymbolTableRecord
100
AcDbLinetypeTableRecord
  2
CONTINUOUS
 70
     0
  3
Solid line
 72
    65
 73
     0
 40
0.0
  0
ENDTAB
  0
TABLE
  2
LAYER
  5
2
330
0
100
AcDbSymbolTable
 70
     3
  0
LAYER
  5
F
330
2
100
AcDbSymbolTableRecord
100
AcDbLayerTableRecord
  2
0
 70
     0
 62
     7
  6
CONTINUOUS
  0
LAYER
  5
27
330
2
100
AcDbSymbolTableRecord
100
AcDbLayerTableRecord
  2
TEXT
 70
     0
 62
     3
  6
CONTINUOUS
  0
LAYER
  5
2B
330
2
100
AcDbSymbolTableRecord
100
AcDbLayerTableRecord
  2
DIM
 70
     0
 62
     4
  6
CONTINUOUS
  0
ENDTAB
  0
TABLE
  2
STYLE
  5
3
330
0
100
AcDbSymbolTable
 70
     3
  0
STYLE
  5
10
330
3
100
AcDbSymbolTableRecord
100
AcDbTextStyleTableRecord
  2
STANDARD
 70
     0
 40
0.0
 41
1.0
 50
0.0
 71
     0
 42
0.125
  3
txt
  4

  0
STYLE
  5
2AA
330
3
100
AcDbSymbolTableRecord
100
AcDbTextStyleTableRecord
  2
ROMANS
 70
     0
 40
0.0
 41
1.0
 50
0.0
 71
     0
 42
0.125
  3
romans.shx
  4

  0
STYLE
  5
636
330
3
100
AcDbSymbolTableRecord
100
AcDbTextStyleTableRecord
  2
ITALICC
 70
     0
 40
0.0
 41
1.0
 50
0.0
 71
     0
 42
0.125
  3
italicc
  4

  0
ENDTAB
  0
TABLE
  2
VIEW
  5
6
330
0
100
AcDbSymbolTable
 70
     0
  0
ENDTAB
  0
TABLE
  2
UCS
  5
7
330
0
100
AcDbSymbolTable
 70
     0
  0
ENDTAB
  0
TABLE
  2
APPID
  5
9
330
0
100
AcDbSymbolTable
 70
     1
  0
APPID
  5
11
330
9
100
AcDbSymbolTableRecord
100
AcDbRegAppTableRecord
  2
ACAD
 70
     0
  0
ENDTAB
  0
TABLE
  2
DIMSTYLE
  5
A
330
0
100
AcDbSymbolTable
 70
     1
  0
DIMSTYLE
105
2A2
330
A
100
AcDbSymbolTableRecord
100
AcDbDimStyleTableRecord
  2
STANDARD
 70
     0
  3

  4

  5

  6

  7

 40
1.0
 41
0.125
 42
0.125
 43
0.375
 44
0.125
 45
0.0
 46
0.0
 47
0.005
 48
0.005
140
0.125
141
-0.125
142
0.0
143
25.4
144
0.5
145
0.0
146
1.0
147
0.09
 71
     0
 72
     0
 73
     1
 74
     1
 75
     0
 76
     0
 77
     0
 78
     4
170
     0
171
     2
172
     0
173
     0
174
     1
175
     0
176
     0
177
     0
178
     0
270
     2
271
     3
272
     3
273
     2
274
     2
340
2AA
275
     0
280
     0
281
     0
282
     0
283
     1
284
     4
285
     0
286
     0
287
     3
288
     0
  0
ENDTAB
  0
TABLE
  2
BLOCK_RECORD
  5
1
330
0
100
AcDbSymbolTable
 70
     0
  0
BLOCK_RECORD
  5
18
102
{ACAD_XDICTIONARY
360
76B
102
}
330
1
100
AcDbSymbolTableRecord
100
AcDbBlockTableRecord
  2
*MODEL_SPACE
  0
BLOCK_RECORD
  5
15
102
{ACAD_XDICTIONARY
360
769
102
}
330
1
100
AcDbSymbolTableRecord
100
AcDbBlockTableRecord
  2
*PAPER_SPACE
  0
ENDTAB
  0
ENDSEC
  0
SECTION
  2
BLOCKS
  0
BLOCK
  5
2E
330
18
100
AcDbEntity
  8
0
100
AcDbBlockBegin
  2
*MODEL_SPACE
 70
     0
 10
0.0
 20
0.0
 30
0.0
  3
*MODEL_SPACE
  1

  0
ENDBLK
  5
2F
330
18
100
AcDbEntity
  8
0
100
AcDbBlockEnd
  0
BLOCK
  5
2C
330
15
100
AcDbEntity
 67
     1
  8
0
100
AcDbBlockBegin
  2
*PAPER_SPACE
 70
     0
 10
0.0
 20
0.0
 30
0.0
  3
*PAPER_SPACE
  1

  0
ENDBLK
  5
2D
330
15
100
AcDbEntity
 67
     1
  8
0
100
AcDbBlockEnd
  0
ENDSEC
  0
SECTION
  2
ENTITIES
  0
LWPOLYLINE
  5
74
330
18
100
AcDbEntity
  8
0
100
AcDbPolyline
 90
       22
 70
     1
 43
0.0
 10
-7.502806893901817
 20
2.974377087917399
 10
-7.711806893901816
 20
2.974377087917399
 10
-7.649806893901817
 20
2.912377087917398
 10
-7.502806893901817
 20
2.912377087917398
 10
-7.502806893901817
 20
2.850377087917399
 10
-6.548806893901817
 20
2.850377087917399
 10
-6.610806893901816
 20
2.788377087917398
 10
-6.548806893901817
 20
2.788377087917398
 10
-6.548806893901817
 20
2.529377087917398
 42
1.0
 10
-6.486806893901817
 20
2.529377087917398
 10
-6.486806893901817
 20
2.788377087917398
 10
-6.486806893901817
 20
2.850377087917398
 10
-6.486806893901817
 20
2.912377087917398
 10
-6.486806893901817
 20
3.226377087917398
 10
-6.548806893901817
 20
3.164377087917399
 10
-6.548806893901817
 20
2.912377087917398
 10
-7.067806893901817
 20
2.912377087917398
 10
-7.005806893901817
 20
2.974377087917399
 10
-7.112806893901817
 20
2.974377087917399
 10
-7.112806893901817
 20
2.912377087917398
 10
-7.440806893901816
 20
2.912377087917398
 10
-7.440806893901816
 20
2.974377087917399
  0
TEXT
  5
6BB
330
18
100
AcDbEntity
  8
TEXT
100
AcDbText
 10
-7.857205853661187
 20
2.185232623973461
 30
0.0
 40
0.125
  1
PART #110253
  7
ITALICC
 72
     1
 11
-7.104229663184997
 21
2.185232623973461
 31
0.0
100
AcDbText
  0
LINE
  5
6BC
330
18
100
AcDbEntity
  8
TEXT
100
AcDbLine
 10
-7.136496164232934
 20
1.940878937953628
 30
0.0
 11
-7.059848182940377
 21
1.940878937953628
 31
0.0
  0
LINE
  5
6BD
330
18
100
AcDbEntity
  8
TEXT
100
AcDbLine
 10
-7.064328070266877
 20
2.005155632610393
 30
0.0
 11
-7.131827787916393
 21
2.005155632610393
 31
0.0
  0
LWPOLYLINE
  5
6BE
330
18
100
AcDbEntity
  8
TEXT
100
AcDbPolyline
 90
        5
 70
     0
 43
0.0001332181640625
 10
-8.77360820676761
 20
1.88192883085258
 10
-8.760286390361361
 20
1.88192883085258
 10
-8.760286390361361
 20
1.91856382596977
 10
-8.723651395244171
 20
1.91856382596977
 10
-8.723651395244171
 20
1.931885642376017
  0
LWPOLYLINE
  5
6BF
330
18
100
AcDbEntity
  8
TEXT
100
AcDbPolyline
 90
        3
 70
     0
 43
0.0006660908203125
 10
-8.733642757548862
 20
1.978511999797896
 10
-8.820234564189487
 20
1.978511999797896
 10
-8.820234564189487
 20
1.891920193157269
  0
LWPOLYLINE
  5
6C0
330
18
100
AcDbEntity
  8
TEXT
100
AcDbPolyline
 90
        3
 70
     0
 43
0.0006660908203125
 10
-8.733642757548862
 20
2.005155632610397
 10
-8.846878197001984
 20
2.005155632610397
 10
-8.846878197001984
 20
1.891920193157269
  0
LWPOLYLINE
  5
6C1
330
18
100
AcDbEntity
  8
TEXT
100
AcDbPolyline
 90
        5
 70
     0
 43
0.0001332181640625
 10
-8.723651395244171
 20
1.811989294719769
 10
-8.723651395244171
 20
1.82531111112602
 10
-8.760286390361359
 20
1.82531111112602
 10
-8.760286390361359
 20
1.861946106243206
 10
-8.77360820676761
 20
1.861946106243206
  0
LWPOLYLINE
  5
6C2
330
18
100
AcDbEntity
  8
TEXT
100
AcDbPolyline
 90
        3
 70
     0
 43
0.0006660908203125
 10
-8.820234564189487
 20
1.851954743938521
 10
-8.820234564189487
 20
1.765362937297894
 10
-8.733642757548862
 20
1.765362937297894
  0
LWPOLYLINE
  5
6C3
330
18
100
AcDbEntity
  8
TEXT
100
AcDbPolyline
 90
        3
 70
     0
 43
0.0006660908203125
 10
-8.846878197001984
 20
1.851954743938521
 10
-8.846878197001984
 20
1.738719304485393
 10
-8.733642757548862
 20
1.738719304485393
  0
LWPOLYLINE
  5
6C4
330
18
100
AcDbEntity
  8
TEXT
100
AcDbPolyline
 90
        2
 70
     0
 43
0.0001332181640625
 10
-8.820234564189487
 20
1.851954743938521
 10
-8.760286390361359
 20
1.861946106243206
  0
LWPOLYLINE
  5
6C5
330
18
100
AcDbEntity
  8
TEXT
100
AcDbPolyline
 90
        2
 70
     0
 43
0.0001332181640625
 10
-8.77360820676761
 20
1.861946106243206
 10
-8.846878197001984
 20
1.851954743938521
  0
LWPOLYLINE
  5
6C6
330
18
100
AcDbEntity
  8
TEXT
100
AcDbPolyline
 90
        2
 70
     0
 43
0.0006660908203125
 10
-8.820234564189487
 20
1.851954743938521
 10
-8.846878197001984
 20
1.851954743938521
  0
LWPOLYLINE
  5
6C7
330
18
100
AcDbEntity
  8
TEXT
100
AcDbPolyline
 90
        2
 70
     0
 43
0.0001332181640625
 10
-8.820234564189487
 20
1.765362937297894
 10
-8.760286390361359
 20
1.82531111112602
  0
LWPOLYLINE
  5
6C8
330
18
100
AcDbEntity
  8
TEXT
100
AcDbPolyline
 90
        2
 70
     0
 43
0.0006660908203125
 10
-8.820234564189487
 20
1.891920193157269
 10
-8.846878197001984
 20
1.891920193157269
  0
LWPOLYLINE
  5
6C9
330
18
100
AcDbEntity
  8
TEXT
100
AcDbPolyline
 90
        2
 70
     0
 43
0.0001332181640625
 10
-8.846878197001984
 20
1.891920193157269
 10
-8.77360820676761
 20
1.88192883085258
  0
LWPOLYLINE
  5
6CA
330
18
100
AcDbEntity
  8
TEXT
100
AcDbPolyline
 90
        2
 70
     0
 43
0.0001332181640625
 10
-8.820234564189487
 20
1.891920193157269
 10
-8.760286390361361
 20
1.88192883085258
  0
LWPOLYLINE
  5
6CB
330
18
100
AcDbEntity
  8
TEXT
100
AcDbPolyline
 90
        2
 70
     0
 43
0.0001332181640625
 10
-8.820234564189487
 20
1.978511999797896
 10
-8.760286390361361
 20
1.91856382596977
  0
LWPOLYLINE
  5
6CC
330
18
100
AcDbEntity
  8
TEXT
100
AcDbPolyline
 90
        5
 70
     0
 43
0.0001332181640625
 10
-8.653711859111361
 20
1.861946106243206
 10
-8.667033675517609
 20
1.861946106243206
 10
-8.667033675517609
 20
1.82531111112602
 10
-8.703668670634799
 20
1.82531111112602
 10
-8.703668670634799
 20
1.811989294719769
  0
LWPOLYLINE
  5
6CD
330
18
100
AcDbEntity
  8
TEXT
100
AcDbPolyline
 90
        2
 70
     0
 43
0.0001332181640625
 10
-8.607085501689486
 20
1.851954743938521
 10
-8.667033675517609
 20
1.861946106243206
  0
LWPOLYLINE
  5
6CE
330
18
100
AcDbEntity
  8
TEXT
100
AcDbPolyline
 90
        2
 70
     0
 43
0.0001332181640625
 10
-8.580441868876985
 20
1.851954743938521
 10
-8.653711859111361
 20
1.861946106243206
  0
LWPOLYLINE
  5
6CF
330
18
100
AcDbEntity
  8
TEXT
100
AcDbPolyline
 90
        3
 70
     0
 43
0.0006660908203125
 10
-8.69367730833011
 20
1.738719304485393
 10
-8.580441868876985
 20
1.738719304485393
 10
-8.580441868876985
 20
1.851954743938521
  0
LWPOLYLINE
  5
6D0
330
18
100
AcDbEntity
  8
TEXT
100
AcDbPolyline
 90
        3
 70
     0
 43
0.0006660908203125
 10
-8.69367730833011
 20
1.765362937297894
 10
-8.607085501689486
 20
1.765362937297894
 10
-8.607085501689486
 20
1.851954743938521
  0
LWPOLYLINE
  5
6D1
330
18
100
AcDbEntity
  8
TEXT
100
AcDbPolyline
 90
        2
 70
     0
 43
0.0001332181640625
 10
-8.607085501689486
 20
1.765362937297894
 10
-8.667033675517609
 20
1.82531111112602
  0
LWPOLYLINE
  5
6D2
330
18
100
AcDbEntity
  8
TEXT
100
AcDbPolyline
 90
        2
 70
     0
 43
0.0006660908203125
 10
-8.69367730833011
 20
1.765362937297894
 10
-8.69367730833011
 20
1.738719304485393
  0
LWPOLYLINE
  5
6D3
330
18
100
AcDbEntity
  8
TEXT
100
AcDbPolyline
 90
        2
 70
     0
 43
0.0001332181640625
 10
-8.703668670634799
 20
1.811989294719769
 10
-8.69367730833011
 20
1.738719304485393
  0
LWPOLYLINE
  5
6D4
330
18
100
AcDbEntity
  8
TEXT
100
AcDbPolyline
 90
        2
 70
     0
 43
0.0001332181640625
 10
-8.69367730833011
 20
1.765362937297894
 10
-8.703668670634799
 20
1.82531111112602
  0
LWPOLYLINE
  5
6D5
330
18
100
AcDbEntity
  8
TEXT
100
AcDbPolyline
 90
        2
 70
     0
 43
0.0001332181640625
 10
-8.733642757548862
 20
1.738719304485393
 10
-8.723651395244171
 20
1.811989294719769
  0
LWPOLYLINE
  5
6D6
330
18
100
AcDbEntity
  8
TEXT
100
AcDbPolyline
 90
        2
 70
     0
 43
0.0001332181640625
 10
-8.733642757548862
 20
1.765362937297894
 10
-8.723651395244171
 20
1.82531111112602
  0
LWPOLYLINE
  5
6D7
330
18
100
AcDbEntity
  8
TEXT
100
AcDbPolyline
 90
        2
 70
     0
 43
0.0006660908203125
 10
-8.733642757548862
 20
1.765362937297894
 10
-8.733642757548862
 20
1.738719304485393
  0
LWPOLYLINE
  5
6D8
330
18
100
AcDbEntity
  8
TEXT
100
AcDbPolyline
 90
        2
 70
     0
 43
0.0006660908203125
 10
-8.607085501689486
 20
1.851954743938521
 10
-8.580441868876985
 20
1.851954743938521
  0
LWPOLYLINE
  5
6D9
330
18
100
AcDbEntity
  8
TEXT
100
AcDbPolyline
 90
        2
 70
     0
 43
0.0001332181640625
 10
-8.607085501689486
 20
1.978511999797896
 10
-8.667033675517609
 20
1.91856382596977
  0
LWPOLYLINE
  5
6DA
330
18
100
AcDbEntity
  8
TEXT
100
AcDbPolyline
 90
        2
 70
     0
 43
0.0001332181640625
 10
-8.607085501689486
 20
1.891920193157269
 10
-8.667033675517609
 20
1.88192883085258
  0
LWPOLYLINE
  5
6DB
330
18
100
AcDbEntity
  8
TEXT
100
AcDbPolyline
 90
        2
 70
     0
 43
0.0001332181640625
 10
-8.653711859111361
 20
1.88192883085258
 10
-8.580441868876985
 20
1.891920193157269
  0
LWPOLYLINE
  5
6DC
330
18
100
AcDbEntity
  8
TEXT
100
AcDbPolyline
 90
        3
 70
     0
 43
0.0006660908203125
 10
-8.607085501689486
 20
1.891920193157269
 10
-8.607085501689486
 20
1.978511999797896
 10
-8.69367730833011
 20
1.978511999797896
  0
LWPOLYLINE
  5
6DD
330
18
100
AcDbEntity
  8
TEXT
100
AcDbPolyline
 90
        3
 70
     0
 43
0.0006660908203125
 10
-8.580441868876985
 20
1.891920193157269
 10
-8.580441868876985
 20
2.005155632610397
 10
-8.69367730833011
 20
2.005155632610397
  0
LWPOLYLINE
  5
6DE
330
18
100
AcDbEntity
  8
TEXT
100
AcDbPolyline
 90
        2
 70
     0
 43
0.0001332181640625
 10
-8.69367730833011
 20
2.005155632610397
 10
-8.703668670634799
 20
1.931885642376017
  0
LWPOLYLINE
  5
6DF
330
18
100
AcDbEntity
  8
TEXT
100
AcDbPolyline
 90
        2
 70
     0
 43
0.0001332181640625
 10
-8.69367730833011
 20
1.978511999797896
 10
-8.703668670634799
 20
1.91856382596977
  0
LWPOLYLINE
  5
6E0
330
18
100
AcDbEntity
  8
TEXT
100
AcDbPolyline
 90
        2
 70
     0
 43
0.0006660908203125
 10
-8.69367730833011
 20
1.978511999797896
 10
-8.69367730833011
 20
2.005155632610397
  0
LWPOLYLINE
  5
6E1
330
18
100
AcDbEntity
  8
TEXT
100
AcDbPolyline
 90
        5
 70
     0
 43
0.0001332181640625
 10
-8.703668670634799
 20
1.931885642376017
 10
-8.703668670634799
 20
1.91856382596977
 10
-8.667033675517609
 20
1.91856382596977
 10
-8.667033675517609
 20
1.88192883085258
 10
-8.653711859111361
 20
1.88192883085258
  0
LWPOLYLINE
  5
6E2
330
18
100
AcDbEntity
  8
TEXT
100
AcDbPolyline
 90
        2
 70
     0
 43
0.0001332181640625
 10
-8.733642757548862
 20
1.978511999797896
 10
-8.723651395244171
 20
1.91856382596977
  0
LWPOLYLINE
  5
6E3
330
18
100
AcDbEntity
  8
TEXT
100
AcDbPolyline
 90
        2
 70
     0
 43
0.0001332181640625
 10
-8.723651395244171
 20
1.931885642376017
 10
-8.733642757548862
 20
2.005155632610397
  0
LWPOLYLINE
  5
6E4
330
18
100
AcDbEntity
  8
TEXT
100
AcDbPolyline
 90
        2
 70
     0
 43
0.0006660908203125
 10
-8.733642757548862
 20
1.978511999797896
 10
-8.733642757548862
 20
2.005155632610397
  0
LWPOLYLINE
  5
6E5
330
18
100
AcDbEntity
  8
TEXT
100
AcDbPolyline
 90
        2
 70
     0
 43
0.0006660908203125
 10
-8.607085501689486
 20
1.891920193157269
 10
-8.580441868876985
 20
1.891920193157269
  0
LWPOLYLINE
  5
6E6
330
18
100
AcDbEntity
  8
TEXT
100
AcDbPolyline
 90
        2
 70
     0
 43
0.0
 10
-7.861661948128354
 20
1.79023394183681
 42
0.3318488747599744
 10
-7.792542655563041
 20
1.738682599621882
 42
-6.868794160588311
  0
LINE
  5
6E7
330
18
100
AcDbEntity
  8
TEXT
100
AcDbLine
 10
-7.793682229059236
 20
2.073167110349204
 30
0.0
 11
-7.860490941625601
 21
2.073167110349204
 31
0.0
  0
LINE
  5
6E8
330
18
100
AcDbEntity
  8
TEXT
100
AcDbLine
 10
-8.139833309244696
 20
2.005155632610393
 30
0.0
 11
-8.315565062143207
 21
2.005155632610393
 31
0.0
  0
ARC
  5
6E9
330
18
100
AcDbEntity
  8
TEXT
100
AcDbCircle
 10
-8.244727595784658
 20
1.821878407982439
 30
0.0
 40
0.0831958083605586
100
AcDbArc
 50
270.0
 51
90.0
  0
LINE
  5
6EA
330
18
100
AcDbEntity
  8
TEXT
100
AcDbLine
 10
-8.310327732028959
 20
1.940878937953628
 30
0.0
 11
-8.143422077999989
 21
1.940878937953628
 31
0.0
  0
LINE
  5
6EB
330
18
100
AcDbEntity
  8
TEXT
100
AcDbLine
 10
-8.239787221878378
 20
1.807039605955321
 30
0.0
 11
-8.397652521589712
 21
1.807039605955321
 31
0.0
  0
LINE
  5
6EC
330
18
100
AcDbEntity
  8
TEXT
100
AcDbLine
 10
-8.39765252158971
 20
1.738682599621882
 30
0.0
 11
-8.244727595784658
 21
1.738682599621882
 31
0.0
  0
ARC
  5
6ED
330
18
100
AcDbEntity
  8
TEXT
100
AcDbCircle
 10
-8.315565062143207
 20
1.923068173163891
 30
0.0
 40
0.0820874594465043
100
AcDbArc
 50
90.0
 51
270.0
  0
LINE
  5
6EE
330
18
100
AcDbEntity
  8
TEXT
100
AcDbLine
 10
-8.397652521589712
 20
1.807039605955321
 30
0.0
 11
-8.39765252158971
 21
1.738682599621882
 31
0.0
  0
LINE
  5
6EF
330
18
100
AcDbEntity
  8
TEXT
100
AcDbLine
 10
-8.315565062143207
 20
1.840980713717386
 30
0.0
 11
-8.239787221878378
 21
1.840980713717386
 31
0.0
  0
ARC
  5
6F0
330
18
100
AcDbEntity
  8
TEXT
100
AcDbCircle
 10
-8.239787221878378
 20
1.824010159836356
 30
0.0
 40
0.0169705538810321
100
AcDbArc
 50
270.0
 51
90.0
  0
LINE
  5
6F1
330
18
100
AcDbEntity
  8
TEXT
100
AcDbLine
 10
-8.244727595784658
 20
1.905074216343
 30
0.0
 11
-8.310327732028959
 21
1.905074216343
 31
0.0
  0
ARC
  5
6F2
330
18
100
AcDbEntity
  8
TEXT
100
AcDbCircle
 10
-8.310327732028959
 20
1.922976577148316
 30
0.0
 40
0.017902360805315
100
AcDbArc
 50
90.0
 51
270.0
  0
LINE
  5
6F3
330
18
100
AcDbEntity
  8
TEXT
100
AcDbLine
 10
-7.949361417224843
 20
1.904283636497273
 30
0.0
 11
-8.00799173825678
 21
2.005155632610393
 31
0.0
  0
LINE
  5
6F4
330
18
100
AcDbEntity
  8
TEXT
100
AcDbLine
 10
-8.089535470519884
 20
1.738682599621882
 30
0.0
 11
-7.992895219444888
 21
1.738953238720164
 31
0.0
  0
LWPOLYLINE
  5
6F5
330
18
100
AcDbEntity
  8
TEXT
100
AcDbPolyline
 90
        6
 70
     1
 43
0.0
 10
-8.047011666944733
 20
1.940878937953628
 10
-8.077328261164941
 20
1.940878937953628
 10
-8.077328261164941
 20
1.817767939898733
 42
0.407328721240804
 10
-8.065784610003465
 20
1.805949025222347
 10
-8.005162910958734
 20
1.805949025222347
 10
-7.987697570551416
 20
1.838761254265826
  0
LINE
  5
6F6
330
18
100
AcDbEntity
  8
TEXT
100
AcDbLine
 10
-8.143422077999989
 20
1.940878937953628
 30
0.0
 11
-8.143422077999989
 21
1.798474990959932
 31
0.0
  0
ARC
  5
6F7
330
18
100
AcDbEntity
  8
TEXT
100
AcDbCircle
 10
-8.083306060026236
 20
1.798474990959932
 30
0.0
 40
0.0601160179737537
100
AcDbArc
 50
180.0000000000003
 51
264.0521544866073
  0
LINE
  5
6F8
330
18
100
AcDbEntity
  8
TEXT
100
AcDbLine
 10
-8.079790704400689
 20
2.039543550204531
 30
0.0
 11
-8.139833309244696
 21
2.039543550204531
 31
0.0
  0
LINE
  5
6F9
330
18
100
AcDbEntity
  8
TEXT
100
AcDbLine
 10
-8.139833309244696
 20
2.039543550204531
 30
0.0
 11
-8.139833309244696
 21
2.005155632610393
 31
0.0
  0
LINE
  5
6FA
330
18
100
AcDbEntity
  8
TEXT
100
AcDbLine
 10
-8.079790704400689
 20
2.005155632610393
 30
0.0
 11
-8.079790704400689
 21
2.039543550204531
 31
0.0
  0
LINE
  5
6FB
330
18
100
AcDbEntity
  8
TEXT
100
AcDbLine
 10
-8.00799173825678
 20
2.005155632610393
 30
0.0
 11
-8.079790704400689
 21
2.005155632610393
 31
0.0
  0
LINE
  5
6FC
330
18
100
AcDbEntity
  8
TEXT
100
AcDbLine
 10
-7.958961654221798
 20
1.758641105726895
 30
0.0
 11
-7.861661948128353
 21
1.922991316662163
 31
0.0
  0
LINE
  5
6FD
330
18
100
AcDbEntity
  8
TEXT
100
AcDbLine
 10
-7.861661948128353
 20
1.922991316662163
 30
0.0
 11
-7.861661948128353
 21
1.790233941836807
 31
0.0
  0
ARC
  5
6FE
330
18
100
AcDbEntity
  8
TEXT
100
AcDbCircle
 10
-7.993005214134011
 20
1.778230321895578
 30
0.0
 40
0.0392772371940762
100
AcDbArc
 50
270.1604552698595
 51
330.0831797321295
  0
LINE
  5
6FF
330
18
100
AcDbEntity
  8
TEXT
100
AcDbLine
 10
-7.890612854418978
 20
2.005155632610393
 30
0.0
 11
-7.949361417224843
 21
1.904283636497273
 31
0.0
  0
LINE
  5
700
330
18
100
AcDbEntity
  8
TEXT
100
AcDbLine
 10
-7.860490941625601
 20
2.073167110349204
 30
0.0
 11
-7.860490941625601
 21
2.005155632610393
 31
0.0
  0
LINE
  5
701
330
18
100
AcDbEntity
  8
TEXT
100
AcDbLine
 10
-7.860490941625601
 20
2.005155632610393
 30
0.0
 11
-7.890612854418978
 21
2.005155632610393
 31
0.0
  0
LWPOLYLINE
  5
702
330
18
100
AcDbEntity
  8
TEXT
100
AcDbPolyline
 90
        4
 70
     0
 43
0.0
 10
-7.508404820005443
 20
1.933325148787518
 10
-7.508404820005443
 20
1.738682599621882
 10
-7.439926536717585
 20
1.738682599621882
 10
-7.439926536717585
 20
1.78217354457232
 42
-1.714843617202739
  0
LWPOLYLINE
  5
703
330
18
100
AcDbEntity
  8
TEXT
100
AcDbPolyline
 90
        2
 70
     0
 43
0.0
 10
-7.473270469461233
 20
2.005155632610397
 42
-0.3277054968067132
 10
-7.437488778748068
 20
1.976833086840753
 42
6.667889725900311
  0
LWPOLYLINE
  5
704
330
18
100
AcDbEntity
  8
TEXT
100
AcDbPolyline
 90
        2
 70
     0
 43
0.0
 10
-7.64470404204046
 20
1.940878937953628
 42
-0.4142135623731017
 10
-7.637150252874347
 20
1.933325148787518
 42
-0.9999999999999998
  0
LINE
  5
705
330
18
100
AcDbEntity
  8
TEXT
100
AcDbLine
 10
-7.62735231899044
 20
2.005155632610393
 30
0.0
 11
-7.761370374921576
 21
2.005155632610393
 31
0.0
  0
LINE
  5
706
330
18
100
AcDbEntity
  8
TEXT
100
AcDbLine
 10
-7.694539321863607
 20
1.738682599621882
 30
0.0
 11
-7.694539321863607
 21
1.940878937953628
 31
0.0
  0
LINE
  5
707
330
18
100
AcDbEntity
  8
TEXT
100
AcDbLine
 10
-7.761370374921576
 20
2.005155632610393
 30
0.0
 11
-7.761370374921576
 21
1.804291425877985
 31
0.0
  0
LINE
  5
708
330
18
100
AcDbEntity
  8
TEXT
100
AcDbLine
 10
-7.793682229059236
 20
1.821070437724881
 30
0.0
 11
-7.793682229059236
 21
2.073167110349204
 31
0.0
  0
LINE
  5
709
330
18
100
AcDbEntity
  8
TEXT
100
AcDbLine
 10
-7.792542655563042
 20
1.738682599621882
 30
0.0
 11
-7.694539321863607
 21
1.738682599621882
 31
0.0
  0
LINE
  5
70A
330
18
100
AcDbEntity
  8
TEXT
100
AcDbLine
 10
-7.761370374921576
 20
1.804291425877985
 30
0.0
 11
-7.778364011806178
 21
1.804291425877985
 31
0.0
  0
ARC
  5
70B
330
18
100
AcDbEntity
  8
TEXT
100
AcDbCircle
 10
-7.778364011806178
 20
1.81967323212141
 30
0.0
 40
0.0153818062434269
100
AcDbArc
 50
174.7883570302258
 51
270.0
  0
LINE
  5
70C
330
18
100
AcDbEntity
  8
TEXT
100
AcDbLine
 10
-7.694539321863607
 20
1.940878937953628
 30
0.0
 11
-7.644704042040459
 21
1.940878937953628
 31
0.0
  0
LINE
  5
70D
330
18
100
AcDbEntity
  8
TEXT
100
AcDbLine
 10
-7.637150252874346
 20
1.933325148787518
 30
0.0
 11
-7.637150252874346
 21
1.738682599621882
 31
0.0
  0
LINE
  5
70E
330
18
100
AcDbEntity
  8
TEXT
100
AcDbLine
 10
-7.570092206092506
 20
1.738682599621882
 30
0.0
 11
-7.570092206092506
 21
1.940878937953628
 31
0.0
  0
LINE
  5
70F
330
18
100
AcDbEntity
  8
TEXT
100
AcDbLine
 10
-7.637150252874346
 20
1.738682599621882
 30
0.0
 11
-7.570092206092506
 21
1.738682599621882
 31
0.0
  0
LWPOLYLINE
  5
710
330
18
100
AcDbEntity
  8
TEXT
100
AcDbPolyline
 90
        3
 70
     0
 43
0.0
 10
-7.473270469461233
 20
2.005155632610397
 10
-7.591570628277278
 20
2.005155632610397
 10
-7.591570628277278
 20
1.977988135849501
 42
-1.960274751411753
  0
LINE
  5
711
330
18
100
AcDbEntity
  8
TEXT
100
AcDbLine
 10
-7.570092206092506
 20
1.940878937953628
 30
0.0
 11
-7.515958609171556
 21
1.940878937953628
 31
0.0
  0
LWPOLYLINE
  5
712
330
18
100
AcDbEntity
  8
TEXT
100
AcDbPolyline
 90
        2
 70
     0
 43
0.0
 10
-7.627352318990439
 20
2.005155632610397
 42
-0.3328679258950098
 10
-7.591570628277278
 20
1.977988135849501
 42
6.772930709997214
  0
LWPOLYLINE
  5
713
330
18
100
AcDbEntity
  8
TEXT
100
AcDbPolyline
 90
        2
 70
     0
 43
0.0
 10
-7.515958609171557
 20
1.940878937953628
 42
-0.4142135623731017
 10
-7.508404820005443
 20
1.933325148787518
 42
-0.9999999999999998
  0
ARC
  5
714
330
18
100
AcDbEntity
  8
TEXT
100
AcDbCircle
 10
-7.304683809308077
 20
1.963572065489491
 30
0.0
 40
0.0416329381542859
100
AcDbArc
 50
26.56974201007528
 51
87.20939649401342
  0
LWPOLYLINE
  5
715
330
18
100
AcDbEntity
  8
TEXT
100
AcDbPolyline
 90
        2
 70
     0
 43
0.0
 10
-7.39685060384995
 20
1.738682599621882
 10
-7.262833186218573
 20
1.738682599621882
 42
0.9999999999999998
  0
LWPOLYLINE
  5
716
330
18
100
AcDbEntity
  8
TEXT
100
AcDbPolyline
 90
        4
 70
     1
 43
0.0
 10
-7.282955651288466
 20
1.841646577605907
 10
-7.371615969948324
 20
1.841646577605907
 42
0.9999999999999998
 10
-7.371615969948324
 20
1.799248037102047
 10
-7.282955651288466
 20
1.799248037102047
 42
1.0
  0
LWPOLYLINE
  5
717
330
18
100
AcDbEntity
  8
TEXT
100
AcDbPolyline
 90
        2
 70
     0
 43
0.0
 10
-7.439926536717585
 20
1.78217354457232
 42
0.2901071551932823
 10
-7.39685060384995
 20
1.738682599621882
 42
5.328517124445801
  0
LINE
  5
718
330
18
100
AcDbEntity
  8
TEXT
100
AcDbLine
 10
-7.302656869531008
 20
2.005155632610393
 30
0.0
 11
-7.437488778748067
 21
2.005155632610393
 31
0.0
  0
LINE
  5
719
330
18
100
AcDbEntity
  8
TEXT
100
AcDbLine
 10
-7.378174682354749
 20
1.903603964491495
 30
0.0
 11
-7.295886692571365
 21
1.903603964491495
 31
0.0
  0
LINE
  5
71A
330
18
100
AcDbEntity
  8
TEXT
100
AcDbLine
 10
-7.331687767875487
 20
1.940878937953628
 30
0.0
 11
-7.438894041262776
 21
1.940878937953628
 31
0.0
  0
LINE
  5
71B
330
18
100
AcDbEntity
  8
TEXT
100
AcDbLine
 10
-7.437488778748067
 20
2.005155632610393
 30
0.0
 11
-7.437488778748067
 21
1.976833086840749
 31
0.0
  0
ARC
  5
71C
330
18
100
AcDbEntity
  8
TEXT
100
AcDbCircle
 10
-7.37817468235475
 20
1.835918383347377
 30
0.0
 40
0.0676855811441166
100
AcDbArc
 50
90.0
 51
153.7768192527749
  0
LINE
  5
71D
330
18
100
AcDbEntity
  8
TEXT
100
AcDbLine
 10
-7.438894041262776
 20
1.940878937953628
 30
0.0
 11
-7.438894041262776
 21
1.865826531879421
 31
0.0
  0
LINE
  5
71E
330
18
100
AcDbEntity
  8
TEXT
100
AcDbLine
 10
-7.295886692571365
 20
1.903603964491495
 30
0.0
 11
-7.30615145298493
 21
1.92485450406419
 31
0.0
  0
ARC
  5
71F
330
18
100
AcDbEntity
  8
TEXT
100
AcDbCircle
 10
-7.331687767875488
 20
1.91251956295363
 30
0.0
 40
0.028359375
100
AcDbArc
 50
25.78218179591245
 51
90.0
  0
LINE
  5
720
330
18
100
AcDbEntity
  8
TEXT
100
AcDbLine
 10
-7.161402039515594
 20
1.738682599621882
 30
0.0
 11
-7.161402039515599
 21
1.915973105053351
 31
0.0
  0
LWPOLYLINE
  5
721
330
18
100
AcDbEntity
  8
TEXT
100
AcDbPolyline
 90
        2
 70
     0
 43
0.0
 10
-7.219757253350929
 20
1.738682599621882
 10
-7.161402039515595
 20
1.738682599621882
  0
LWPOLYLINE
  5
722
330
18
100
AcDbEntity
  8
TEXT
100
AcDbPolyline
 90
        2
 70
     0
 43
0.0
 10
-7.219757253350929
 20
1.78217354457232
 42
-0.2901071551932486
 10
-7.262833186218573
 20
1.738682599621882
 42
-5.328517124445184
  0
LWPOLYLINE
  5
723
330
18
100
AcDbEntity
  8
TEXT
100
AcDbPolyline
 90
        2
 70
     0
 43
0.0
 10
-7.219757253350929
 20
1.78217354457232
 10
-7.219757253350929
 20
1.738682599621882
  0
LINE
  5
724
330
18
100
AcDbEntity
  8
TEXT
100
AcDbLine
 10
-7.159800024356466
 20
2.005155632610393
 30
0.0
 11
-7.223696930655967
 21
2.005155632610393
 31
0.0
  0
LINE
  5
725
330
18
100
AcDbEntity
  8
TEXT
100
AcDbLine
 10
-7.223696930655967
 20
2.005155632610393
 30
0.0
 11
-7.223696930655967
 21
1.899943654056966
 31
0.0
  0
LINE
  5
726
330
18
100
AcDbEntity
  8
TEXT
100
AcDbLine
 10
-7.223696930655967
 20
1.899943654056966
 30
0.0
 11
-7.267447701837869
 21
1.982193930053111
 31
0.0
  0
ARC
  5
727
330
18
100
AcDbEntity
  8
TEXT
100
AcDbCircle
 10
-7.136496164232935
 20
1.915973062670965
 30
0.0
 40
0.0249058752826653
100
AcDbArc
 50
89.99971217465335
 51
179.9999999999985
  0
ARC
  5
728
330
18
100
AcDbEntity
  8
TEXT
100
AcDbCircle
 10
-7.128607207293358
 20
1.973909905328128
 30
0.0
 40
0.0314112657011332
100
AcDbArc
 50
95.88484768694724
 51
173.2388340632136
  0
LINE
  5
729
330
18
100
AcDbEntity
  8
TEXT
100
AcDbLine
 10
-7.159800024356466
 20
1.977607982749518
 30
0.0
 11
-7.159800024356466
 21
2.005155632610393
 31
0.0
  0
TEXT
  5
72A
330
18
100
AcDbEntity
  8
TEXT
100
AcDbText
 10
-6.690924504934676
 20
1.831568408267378
 30
0.0
 40
0.0522247191011236
  1
Minneapolis, MN 55432-0008
 41
1.11444212721585
 72
     5
 11
-5.361991920665012
 21
1.831568408267378
 31
0.0
100
AcDbText
  0
TEXT
  5
72B
330
18
100
AcDbEntity
  8
TEXT
100
AcDbText
 10
-6.690924504934676
 20
1.924826835233671
 30
0.0
 40
0.0522247191011236
  1
6536 Main St. N.E. * P.O. Box 32008
 41
0.8388932496075355
 72
     5
 11
-5.361991920665012
 21
1.924826835233671
 31
0.0
100
AcDbText
  0
TEXT
  5
72C
330
18
100
AcDbEntity
  8
TEXT
100
AcDbText
 10
-6.690924504934676
 20
2.018085262199963
 30
0.0
 40
0.0522247191011236
  1
Stylmark  Incorporated
 41
1.221428571428571
 72
     5
 11
-5.361991920665012
 21
2.018085262199963
 31
0.0
100
AcDbText
  0
TEXT
  5
72D
330
18
100
AcDbEntity
  8
TEXT
100
AcDbText
 10
-6.690924504934676
 20
1.738309981301086
 30
0.0
 40
0.0522247191011236
  1
Phone  1-800-328-2495
 41
1.272321428571429
 72
     5
 11
-5.361991920665012
 21
1.738309981301086
 31
0.0
100
AcDbText
  0
LINE
  5
72E
330
18
100
AcDbEntity
  8
TEXT
100
AcDbLine
 10
-6.938480316397691
 20
1.89526238966942
 30
0.0
 11
-6.873923200431986
 21
2.005155632610393
 31
0.0
  0
LINE
  5
72F
330
18
100
AcDbEntity
  8
TEXT
100
AcDbLine
 10
-6.873923200431986
 20
2.005155632610393
 30
0.0
 11
-6.948915033161612
 21
2.005155632610393
 31
0.0
  0
LINE
  5
730
330
18
100
AcDbEntity
  8
TEXT
100
AcDbLine
 10
-6.919566465410286
 20
1.738682599621882
 30
0.0
 11
-6.84298809303408
 21
1.738682599621882
 31
0.0
  0
LINE
  5
731
330
18
100
AcDbEntity
  8
TEXT
100
AcDbLine
 10
-6.84298809303408
 20
1.738682599621882
 30
0.0
 11
-6.938480316397691
 21
1.89526238966942
 31
0.0
  0
LINE
  5
732
330
18
100
AcDbEntity
  8
TEXT
100
AcDbLine
 10
-6.995469998621751
 20
1.738682599621882
 30
0.0
 11
-6.995469998621751
 21
1.870262168098062
 31
0.0
  0
LINE
  5
733
330
18
100
AcDbEntity
  8
TEXT
100
AcDbLine
 10
-6.995469998621751
 20
1.870262168098062
 30
0.0
 11
-6.919566465410286
 21
1.738682599621882
 31
0.0
  0
LINE
  5
734
330
18
100
AcDbEntity
  8
TEXT
100
AcDbLine
 10
-7.059848182940377
 20
1.940878937953628
 30
0.0
 11
-7.059848182940371
 21
1.738682599621882
 31
0.0
  0
LINE
  5
735
330
18
100
AcDbEntity
  8
TEXT
100
AcDbLine
 10
-7.059848182940371
 20
1.738682599621882
 30
0.0
 11
-6.995469998621751
 21
1.738682599621882
 31
0.0
  0
LINE
  5
736
330
18
100
AcDbEntity
  8
TEXT
100
AcDbLine
 10
-6.996013191717598
 20
2.070619838377994
 30
0.0
 11
-7.064328070266872
 21
2.070619838377994
 31
0.0
  0
LINE
  5
737
330
18
100
AcDbEntity
  8
TEXT
100
AcDbLine
 10
-7.064328070266872
 20
2.070619838377994
 30
0.0
 11
-7.064328070266877
 21
2.005155632610393
 31
0.0
  0
LINE
  5
738
330
18
100
AcDbEntity
  8
TEXT
100
AcDbLine
 10
-6.948915033161614
 20
2.005155632610393
 30
0.0
 11
-6.996013191717598
 21
1.929290306198855
 31
0.0
  0
LINE
  5
739
330
18
100
AcDbEntity
  8
TEXT
100
AcDbLine
 10
-6.996013191717598
 20
1.929290306198855
 30
0.0
 11
-6.996013191717598
 21
2.070619838377994
 31
0.0
  0
ENDSEC
  0
SECTION
  2
OBJECTS
  0
DICTIONARY
  5
C
330
0
100
AcDbDictionary
  3
ACAD_GROUP
350
D
  3
ACAD_LAYOUT
350
73E
  3
ACAD_MLINESTYLE
350
E
  3
ACAD_PLOTSETTINGS
350
73F
  3
ACAD_PLOTSTYLENAME
350
73C
  3
ACDBHEADERROUNDTRIPXREC
350
749
  3
ACDBVARIABLEDICTIONARY
350
746
  0
DICTIONARY
  5
76B
330
18
100
AcDbDictionary
280
     1
  3
ACAD_LAYOUTSELFREF
360
76C
  0
DICTIONARY
  5
769
330
15
100
AcDbDictionary
280
     1
  3
ACAD_LAYOUTSELFREF
360
76A
  0
DICTIONARY
  5
D
102
{ACAD_REACTORS
330
C
102
}
330
C
100
AcDbDictionary
  3
*A1
350
2AC
  3
*A2
350
465
  0
DICTIONARY
  5
73E
102
{ACAD_REACTORS
330
C
102
}
330
C
100
AcDbDictionary
  0
DICTIONARY
  5
E
102
{ACAD_REACTORS
330
C
102
}
330
C
100
AcDbDictionary
  3
STANDARD
350
1B
  0
DICTIONARY
  5
73F
102
{ACAD_REACTORS
330
C
102
}
330
C
100
AcDbDictionary
  0
ACDBDICTIONARYWDFLT
  5
73C
102
{ACAD_REACTORS
330
C
102
}
330
C
100
AcDbDictionary
281
     1
  3
Normal
350
73D
100
AcDbDictionaryWithDefault
340
73D
  0
DICTIONARY
  5
749
102
{ACAD_REACTORS
330
C
102
}
330
C
100
AcDbDictionary
  3
CEPSNTYPE
350
753
  3
FINGERPRINTGUID
350
754
  3
HYPERLINKBASE
350
74C
  3
INSUNITS
350
752
  3
LAYOUTDICT
350
74E
  3
LWETCUNION
350
751
  3
PLOTSETDICT
350
74F
  3
PLOTSTYLNAMDICT
350
750
  3
PSVPSCALE
350
756
  3
PUCSBASE
350
759
  3
PUCSORGBACK
350
75F
  3
PUCSORGBOTTOM
350
75B
  3
PUCSORGFRONT
350
75E
  3
PUCSORGLEFT
350
75C
  3
PUCSORGRIGHT
350
75D
  3
PUCSORGTOP
350
75A
  3
PUCSORTHOREF
350
757
  3
PUCSORTHOVIEW
350
758
  3
STYLESHEET
350
74D
  3
TSTACKALIGN
350
74A
  3
TSTACKSIZE
350
74B
  3
UCSBASE
350
762
  3
UCSORGBACK
350
768
  3
UCSORGBOTTOM
350
764
  3
UCSORGFRONT
350
767
  3
UCSORGLEFT
350
765
  3
UCSORGRIGHT
350
766
  3
UCSORGTOP
350
763
  3
UCSORTHOREF
350
760
  3
UCSORTHOVIEW
350
761
  3
VERSIONGUID
350
755
  0
DICTIONARY
  5
746
102
{ACAD_REACTORS
330
C
102
}
330
C
100
AcDbDictionary
  3
DIMASSOC
350
747
  0
XRECORD
  5
76C
102
{ACAD_REACTORS
330
76B
102
}
330
76B
100
AcDbXrecord
340
18
  0
XRECORD
  5
76A
102
{ACAD_REACTORS
330
769
102
}
330
769
100
AcDbXrecord
340
15
  0
GROUP
  5
2AC
102
{ACAD_REACTORS
330
D
102
}
330
D
100
AcDbGroup
300
BORDER FRAME 10-1-95
 70
     3
 71
     1
  0
GROUP
  5
465
102
{ACAD_REACTORS
330
D
102
}
330
D
100
AcDbGroup
300

 70
     1
 71
     1
  0
MLINESTYLE
  5
1B
102
{ACAD_REACTORS
330
E
102
}
330
E
100
AcDbMlineStyle
  2
STANDARD
 70
     0
  3

 62
     0
 51
90.0
 52
90.0
 71
     2
 49
0.5
 62
   256
  6
BYLAYER
 49
-0.5
 62
   256
  6
BYLAYER
  0
ACDBPLACEHOLDER
  5
73D
102
{ACAD_REACTORS
330
73C
102
}
330
73C
100
AcDbPlaceHolder
280
     0
  0
XRECORD
  5
753
102
{ACAD_REACTORS
330
749
102
}
330
749
100
AcDbXrecord
 90
        0
  0
XRECORD
  5
754
102
{ACAD_REACTORS
330
749
102
}
330
749
100
AcDbXrecord
  1
{8CEB9C90-8DB5-11D6-88E6-0090279574E7}
  0
XRECORD
  5
74C
102
{ACAD_REACTORS
330
749
102
}
330
749
100
AcDbXrecord
  1

  0
XRECORD
  5
752
102
{ACAD_REACTORS
330
749
102
}
330
749
100
AcDbXrecord
 90
        0
  0
XRECORD
  5
74E
102
{ACAD_REACTORS
330
749
102
}
330
749
100
AcDbXrecord
340
73E
  0
XRECORD
  5
751
102
{ACAD_REACTORS
330
749
102
}
330
749
100
AcDbXrecord
 90
    14877
  0
XRECORD
  5
74F
102
{ACAD_REACTORS
330
749
102
}
330
749
100
AcDbXrecord
340
73F
  0
XRECORD
  5
750
102
{ACAD_REACTORS
330
749
102
}
330
749
100
AcDbXrecord
340
73C
  0
XRECORD
  5
756
102
{ACAD_REACTORS
330
749
102
}
330
749
100
AcDbXrecord
 40
0.0
  0
XRECORD
  5
759
102
{ACAD_REACTORS
330
749
102
}
330
749
100
AcDbXrecord
340
0
  0
XRECORD
  5
75F
102
{ACAD_REACTORS
330
749
102
}
330
749
100
AcDbXrecord
 10
0.0
 20
0.0
 30
0.0
  0
XRECORD
  5
75B
102
{ACAD_REACTORS
330
749
102
}
330
749
100
AcDbXrecord
 10
0.0
 20
0.0
 30
0.0
  0
XRECORD
  5
75E
102
{ACAD_REACTORS
330
749
102
}
330
749
100
AcDbXrecord
 10
0.0
 20
0.0
 30
0.0
  0
XRECORD
  5
75C
102
{ACAD_REACTORS
330
749
102
}
330
749
100
AcDbXrecord
 10
0.0
 20
0.0
 30
0.0
  0
XRECORD
  5
75D
102
{ACAD_REACTORS
330
749
102
}
330
749
100
AcDbXrecord
 10
0.0
 20
0.0
 30
0.0
  0
XRECORD
  5
75A
102
{ACAD_REACTORS
330
749
102
}
330
749
100
AcDbXrecord
 10
0.0
 20
0.0
 30
0.0
  0
XRECORD
  5
757
102
{ACAD_REACTORS
330
749
102
}
330
749
100
AcDbXrecord
340
0
  0
XRECORD
  5
758
102
{ACAD_REACTORS
330
749
102
}
330
749
100
AcDbXrecord
 70
     0
  0
XRECORD
  5
74D
102
{ACAD_REACTORS
330
749
102
}
330
749
100
AcDbXrecord
  1

  0
XRECORD
  5
74A
102
{ACAD_REACTORS
330
749
102
}
330
749
100
AcDbXrecord
 90
        1
  0
XRECORD
  5
74B
102
{ACAD_REACTORS
330
749
102
}
330
749
100
AcDbXrecord
 90
       70
  0
XRECORD
  5
762
102
{ACAD_REACTORS
330
749
102
}
330
749
100
AcDbXrecord
340
0
  0
XRECORD
  5
768
102
{ACAD_REACTORS
330
749
102
}
330
749
100
AcDbXrecord
 10
0.0
 20
0.0
 30
0.0
  0
XRECORD
  5
764
102
{ACAD_REACTORS
330
749
102
}
330
749
100
AcDbXrecord
 10
0.0
 20
0.0
 30
0.0
  0
XRECORD
  5
767
102
{ACAD_REACTORS
330
749
102
}
330
749
100
AcDbXrecord
 10
0.0
 20
0.0
 30
0.0
  0
XRECORD
  5
765
102
{ACAD_REACTORS
330
749
102
}
330
749
100
AcDbXrecord
 10
0.0
 20
0.0
 30
0.0
  0
XRECORD
  5
766
102
{ACAD_REACTORS
330
749
102
}
330
749
100
AcDbXrecord
 10
0.0
 20
0.0
 30
0.0
  0
XRECORD
  5
763
102
{ACAD_REACTORS
330
749
102
}
330
749
100
AcDbXrecord
 10
0.0
 20
0.0
 30
0.0
  0
XRECORD
  5
760
102
{ACAD_REACTORS
330
749
102
}
330
749
100
AcDbXrecord
340
0
  0
XRECORD
  5
761
102
{ACAD_REACTORS
330
749
102
}
330
749
100
AcDbXrecord
 70
     0
  0
XRECORD
  5
755
102
{ACAD_REACTORS
330
749
102
}
330
749
100
AcDbXrecord
  1
{8CEB9C92-8DB5-11D6-88E6-0090279574E7}
  0
DICTIONARYVAR
  5
747
102
{ACAD_REACTORS
330
746
102
}
330
746
100
DictionaryVariables
280
     0
  1
1
  0
ENDSEC
  0
EOF
