  0
SECTION
  2
HEADER
  9
$ACADVER
  1
AC1014
  9
$ACADMAINTVER
 70
     9
  9
$DWGCODEPAGE
  3
ANSI_1252
  9
$INSBASE
 10
0.0
 20
0.0
 30
0.0
  9
$EXTMIN
 10
4.1112227606174
 20
5.345418440090268
 30
0.0
  9
$EXTMAX
 10
7.596442082364536
 20
7.310281952316944
 30
0.0
  9
$LIMMIN
 10
0.0
 20
0.0
  9
$LIMMAX
 10
8.5
 20
11.0
  9
$ORTHOMODE
 70
     0
  9
$REGENMODE
 70
     1
  9
$FILLMODE
 70
     1
  9
$QTEXTMODE
 70
     0
  9
$MIRRTEXT
 70
     0
  9
$DRAGMODE
 70
     2
  9
$LTSCALE
 40
0.5
  9
$OSMODE
 70
    39
  9
$ATTMODE
 70
     1
  9
$TEXTSIZE
 40
0.125
  9
$TRACEWID
 40
0.05
  9
$TEXTSTYLE
  7
ROMANS
  9
$CLAYER
  8
0
  9
$CELTYPE
  6
BYLAYER
  9
$CECOLOR
 62
   256
  9
$CELTSCALE
 40
1.0
  9
$DELOBJ
 70
     1
  9
$DISPSILH
 70
     1
  9
$DIMSCALE
 40
1.0
  9
$DIMASZ
 40
0.125
  9
$DIMEXO
 40
0.125
  9
$DIMDLI
 40
0.375
  9
$DIMRND
 40
0.0
  9
$DIMDLE
 40
0.0
  9
$DIMEXE
 40
0.125
  9
$DIMTP
 40
0.0
  9
$DIMTM
 40
0.0
  9
$DIMTXT
 40
0.125
  9
$DIMCEN
 40
-0.125
  9
$DIMTSZ
 40
0.0
  9
$DIMTOL
 70
     0
  9
$DIMLIM
 70
     0
  9
$DIMTIH
 70
     1
  9
$DIMTOH
 70
     1
  9
$DIMSE1
 70
     1
  9
$DIMSE2
 70
     1
  9
$DIMTAD
 70
     0
  9
$DIMZIN
 70
     4
  9
$DIMBLK
  1

  9
$DIMASO
 70
     1
  9
$DIMSHO
 70
     1
  9
$DIMPOST
  1

  9
$DIMAPOST
  1

  9
$DIMALT
 70
     0
  9
$DIMALTD
 70
     2
  9
$DIMALTF
 40
25.4
  9
$DIMLFAC
 40
0.25
  9
$DIMTOFL
 70
     0
  9
$DIMTVP
 40
0.0
  9
$DIMTIX
 70
     1
  9
$DIMSOXD
 70
     0
  9
$DIMSAH
 70
     0
  9
$DIMBLK1
  1

  9
$DIMBLK2
  1

  9
$DIMSTYLE
  2
STANDARD
  9
$DIMCLRD
 70
     0
  9
$DIMCLRE
 70
     0
  9
$DIMCLRT
 70
     0
  9
$DIMTFAC
 40
1.0
  9
$DIMGAP
 40
0.09
  9
$DIMJUST
 70
     0
  9
$DIMSD1
 70
     0
  9
$DIMSD2
 70
     0
  9
$DIMTOLJ
 70
     1
  9
$DIMTZIN
 70
     4
  9
$DIMALTZ
 70
     0
  9
$DIMALTTZ
 70
     0
  9
$DIMFIT
 70
     3
  9
$DIMUPT
 70
     0
  9
$DIMUNIT
 70
     2
  9
$DIMDEC
 70
     3
  9
$DIMTDEC
 70
     3
  9
$DIMALTU
 70
     2
  9
$DIMALTTD
 70
     2
  9
$DIMTXSTY
  7
ROMANS
  9
$DIMAUNIT
 70
     0
  9
$LUNITS
 70
     2
  9
$LUPREC
 70
     5
  9
$SKETCHINC
 40
0.1
  9
$FILLETRAD
 40
0.0
  9
$AUNITS
 70
     0
  9
$AUPREC
 70
     0
  9
$MENU
  1
AUTOMSTR
  9
$ELEVATION
 40
0.0
  9
$PELEVATION
 40
0.0
  9
$THICKNESS
 40
0.0
  9
$LIMCHECK
 70
     0
  9
$BLIPMODE
 70
     0
  9
$CHAMFERA
 40
0.0
  9
$CHAMFERB
 40
0.0
  9
$CHAMFERC
 40
0.0
  9
$CHAMFERD
 40
0.0
  9
$SKPOLY
 70
     0
  9
$TDCREATE
 40
2448097.530147337
  9
$TDUPDATE
 40
2452458.303138183
  9
$TDINDWG
 40
0.7119463426
  9
$TDUSRTIMER
 40
0.7119463426
  9
$USRTIMER
 70
     1
  9
$ANGBASE
 50
0.0
  9
$ANGDIR
 70
     0
  9
$PDMODE
 70
     0
  9
$PDSIZE
 40
0.0
  9
$PLINEWID
 40
0.0
  9
$COORDS
 70
     2
  9
$SPLFRAME
 70
     0
  9
$SPLINETYPE
 70
     6
  9
$SPLINESEGS
 70
     8
  9
$ATTDIA
 70
     0
  9
$ATTREQ
 70
     1
  9
$HANDLING
 70
 22529
  9
$HANDSEED
  5
414
  9
$SURFTAB1
 70
     6
  9
$SURFTAB2
 70
     6
  9
$SURFTYPE
 70
     6
  9
$SURFU
 70
     6
  9
$SURFV
 70
     6
  9
$UCSNAME
  2

  9
$UCSORG
 10
0.0
 20
0.0
 30
0.0
  9
$UCSXDIR
 10
1.0
 20
0.0
 30
0.0
  9
$UCSYDIR
 10
0.0
 20
1.0
 30
0.0
  9
$PUCSNAME
  2

  9
$PUCSORG
 10
0.0
 20
0.0
 30
0.0
  9
$PUCSXDIR
 10
1.0
 20
0.0
 30
0.0
  9
$PUCSYDIR
 10
0.0
 20
1.0
 30
0.0
  9
$USERI1
 70
     0
  9
$USERI2
 70
     0
  9
$USERI3
 70
     0
  9
$USERI4
 70
     0
  9
$USERI5
 70
     0
  9
$USERR1
 40
0.0
  9
$USERR2
 40
0.0
  9
$USERR3
 40
0.0
  9
$USERR4
 40
0.0
  9
$USERR5
 40
0.0
  9
$WORLDVIEW
 70
     1
  9
$SHADEDGE
 70
     3
  9
$SHADEDIF
 70
    70
  9
$TILEMODE
 70
     1
  9
$MAXACTVP
 70
    16
  9
$PINSBASE
 10
0.0
 20
0.0
 30
0.0
  9
$PLIMCHECK
 70
     0
  9
$PEXTMIN
 10
1.000000000000000E+20
 20
1.000000000000000E+20
 30
1.000000000000000E+20
  9
$PEXTMAX
 10
-1.000000000000000E+20
 20
-1.000000000000000E+20
 30
-1.000000000000000E+20
  9
$PLIMMIN
 10
0.0
 20
0.0
  9
$PLIMMAX
 10
12.0
 20
9.0
  9
$UNITMODE
 70
     0
  9
$VISRETAIN
 70
     0
  9
$PLINEGEN
 70
     1
  9
$PSLTSCALE
 70
     0
  9
$TREEDEPTH
 70
  3020
  9
$PICKSTYLE
 70
     1
  9
$CMLSTYLE
  2
STANDARD
  9
$CMLJUST
 70
     0
  9
$CMLSCALE
 40
1.0
  9
$PROXYGRAPHICS
 70
     1
  9
$MEASUREMENT
 70
     0
  0
ENDSEC
  0
SECTION
  2
CLASSES
  0
CLASS
  1
LWPOLYLINE
  2
AcDbPolyline
  3
AutoCAD 2000
 90
        0
280
     0
281
     1
  0
CLASS
  1
DICTIONARYVAR
  2
AcDbDictionaryVar
  3
AutoCAD 2000
 90
        0
280
     0
281
     0
  0
CLASS
  1
ACDBDICTIONARYWDFLT
  2
AcDbDictionaryWithDefault
  3
AutoCAD 2000
 90
        0
280
     0
281
     0
  0
CLASS
  1
ACDBPLACEHOLDER
  2
AcDbPlaceHolder
  3
AutoCAD 2000
 90
        0
280
     0
281
     0
  0
CLASS
  1
LAYOUT
  2
AcDbLayout
  3
AutoCAD 2000
 90
        0
280
     0
281
     0
  0
CLASS
  1
LONG_TRANSACTION
  2
AcDbLongTransaction
  3
AutoCAD 2000
 90
        0
280
     0
281
     0
  0
CLASS
  1
LWPOLYLINE
  2
AcDbPolyline
  3
AutoCAD 2000
 90
        0
280
     0
281
     1
  0
CLASS
  1
HATCH
  2
AcDbHatch
  3
AutoCAD 2000
 90
        0
280
     0
281
     1
  0
CLASS
  1
XRECORD
  2
AcDbXrecord
  3
AutoCAD 2000
 90
        0
280
     0
281
     0
  0
ENDSEC
  0
SECTION
  2
TABLES
  0
TABLE
  2
VPORT
  5
8
330
0
100
AcDbSymbolTable
 70
     2
  0
VPORT
  5
3EF
330
8
100
AcDbSymbolTableRecord
100
AcDbViewportTableRecord
  2
*ACTIVE
 70
     0
 10
0.0
 20
0.0
 11
1.0
 21
1.0
 12
8.776608306215234
 22
6.327755983960598
 13
0.0
 23
0.0
 14
0.25
 24
0.25
 15
0.0
 25
0.0
 16
0.0
 26
0.0
 36
1.0
 17
0.0
 27
0.0
 37
0.0
 40
2.164212955940123
 41
4.320930232558139
 42
50.0
 43
0.0
 44
0.0
 50
0.0
 51
0.0
 71
     0
 72
  2000
 73
     1
 74
     1
 75
     0
 76
     0
 77
     0
 78
     0
  0
ENDTAB
  0
TABLE
  2
LTYPE
  5
5
330
0
100
AcDbSymbolTable
 70
     1
  0
LTYPE
  5
12
330
5
100
AcDbSymbolTableRecord
100
AcDbLinetypeTableRecord
  2
BYBLOCK
 70
     0
  3

 72
    65
 73
     0
 40
0.0
  0
LTYPE
  5
13
330
5
100
AcDbSymbolTableRecord
100
AcDbLinetypeTableRecord
  2
BYLAYER
 70
     0
  3

 72
    65
 73
     0
 40
0.0
  0
LTYPE
  5
14
330
5
100
AcDbSymbolTableRecord
100
AcDbLinetypeTableRecord
  2
CONTINUOUS
 70
     0
  3
Solid line
 72
    65
 73
     0
 40
0.0
  0
ENDTAB
  0
TABLE
  2
LAYER
  5
2
330
0
100
AcDbSymbolTable
 70
     2
  0
LAYER
  5
F
330
2
100
AcDbSymbolTableRecord
100
AcDbLayerTableRecord
  2
0
 70
     0
 62
     7
  6
CONTINUOUS
  0
LAYER
  5
2F
330
2
100
AcDbSymbolTableRecord
100
AcDbLayerTableRecord
  2
TEXT
 70
     0
 62
     3
  6
CONTINUOUS
  0
ENDTAB
  0
TABLE
  2
STYLE
  5
3
330
0
100
AcDbSymbolTable
 70
     3
  0
STYLE
  5
10
330
3
100
AcDbSymbolTableRecord
100
AcDbTextStyleTableRecord
  2
STANDARD
 70
     0
 40
0.0
 41
1.0
 50
0.0
 71
     0
 42
0.125
  3
txt
  4

  0
STYLE
  5
2BC
330
3
100
AcDbSymbolTableRecord
100
AcDbTextStyleTableRecord
  2
ROMANS
 70
     0
 40
0.0
 41
1.0
 50
0.0
 71
     0
 42
0.125
  3
romans.shx
  4

  0
STYLE
  5
2D8
330
3
100
AcDbSymbolTableRecord
100
AcDbTextStyleTableRecord
  2
ITALICC
 70
     0
 40
0.0
 41
1.0
 50
0.0
 71
     0
 42
0.125
  3
italicc
  4

  0
ENDTAB
  0
TABLE
  2
VIEW
  5
6
330
0
100
AcDbSymbolTable
 70
     0
  0
ENDTAB
  0
TABLE
  2
UCS
  5
7
330
0
100
AcDbSymbolTable
 70
     0
  0
ENDTAB
  0
TABLE
  2
APPID
  5
9
330
0
100
AcDbSymbolTable
 70
     1
  0
APPID
  5
11
330
9
100
AcDbSymbolTableRecord
100
AcDbRegAppTableRecord
  2
ACAD
 70
     0
  0
ENDTAB
  0
TABLE
  2
DIMSTYLE
  5
A
330
0
100
AcDbSymbolTable
 70
     1
  0
DIMSTYLE
105
2B1
330
A
100
AcDbSymbolTableRecord
100
AcDbDimStyleTableRecord
  2
STANDARD
 70
     0
  3

  4

  5

  6

  7

 40
1.0
 41
0.125
 42
0.125
 43
0.375
 44
0.125
 45
0.0
 46
0.0
 47
0.0
 48
0.0
140
0.125
141
-0.125
142
0.0
143
25.4
144
0.25
145
0.0
146
1.0
147
0.09
 71
     0
 72
     0
 73
     1
 74
     1
 75
     1
 76
     1
 77
     0
 78
     4
170
     0
171
     2
172
     0
173
     0
174
     1
175
     0
176
     0
177
     0
178
     0
270
     2
271
     3
272
     3
273
     2
274
     2
340
2BC
275
     0
280
     0
281
     0
282
     0
283
     1
284
     4
285
     0
286
     0
287
     3
288
     0
  0
ENDTAB
  0
TABLE
  2
BLOCK_RECORD
  5
1
330
0
100
AcDbSymbolTable
 70
     0
  0
BLOCK_RECORD
  5
18
102
{ACAD_XDICTIONARY
360
412
102
}
330
1
100
AcDbSymbolTableRecord
100
AcDbBlockTableRecord
  2
*MODEL_SPACE
  0
BLOCK_RECORD
  5
15
102
{ACAD_XDICTIONARY
360
410
102
}
330
1
100
AcDbSymbolTableRecord
100
AcDbBlockTableRecord
  2
*PAPER_SPACE
  0
ENDTAB
  0
ENDSEC
  0
SECTION
  2
BLOCKS
  0
BLOCK
  5
38
330
18
100
AcDbEntity
  8
0
100
AcDbBlockBegin
  2
*MODEL_SPACE
 70
     0
 10
0.0
 20
0.0
 30
0.0
  3
*MODEL_SPACE
  1

  0
ENDBLK
  5
39
330
18
100
AcDbEntity
  8
0
100
AcDbBlockEnd
  0
BLOCK
  5
36
330
15
100
AcDbEntity
 67
     1
  8
0
100
AcDbBlockBegin
  2
*PAPER_SPACE
 70
     0
 10
0.0
 20
0.0
 30
0.0
  3
*PAPER_SPACE
  1

  0
ENDBLK
  5
37
330
15
100
AcDbEntity
 67
     1
  8
0
100
AcDbBlockEnd
  0
ENDSEC
  0
SECTION
  2
ENTITIES
  0
LWPOLYLINE
  5
28E
330
18
100
AcDbEntity
  8
0
 62
     7
100
AcDbPolyline
 90
       24
 70
     1
 43
0.0
 10
5.744432855783768
 20
6.88624233037886
 10
5.819374046969492
 20
6.855200672609337
 10
5.842430796526575
 20
6.909945398276323
 10
5.866510380636397
 20
6.852270242194193
 10
5.79761417482734
 20
6.688686738059097
 10
5.802948670507679
 20
6.675589289611546
 10
5.789883040858922
 20
6.670177328610088
 10
5.721956731614114
 20
6.506188711589332
 10
5.664007740703691
 20
6.482775799500837
 10
5.686740183454905
 20
6.537656771096691
 10
5.549538948293684
 20
6.48222387387458
 10
5.615374847832499
 20
6.323281952316942
 10
5.760374847832498
 20
6.468281952316941
 10
5.919432855783768
 20
6.852281952316944
 10
5.919432855783768
 20
7.010281952316941
 10
6.119432855783769
 20
7.010281952316941
 10
6.119432855783768
 20
6.747781952316942
 10
6.169432855783766
 20
6.747781952316942
 10
6.169432855783766
 20
7.035281952316942
 42
0.4142135623730951
 10
6.144432855783766
 20
7.060281952316942
 10
5.819432855783767
 20
7.060281952316942
 42
-0.4142135623731003
 10
5.794432855783768
 20
7.085281952316942
 10
5.794432855783768
 20
7.285281952316943
 42
1.0
 10
5.744432855783768
 20
7.285281952316943
  0
TEXT
  5
35D
330
18
100
AcDbEntity
  8
TEXT
100
AcDbText
 10
5.101228149368354
 20
5.80343704417285
 30
0.0
 40
0.125
  1
PART #110252
  7
ITALICC
 72
     1
 11
5.854204339844543
 21
5.80343704417285
 31
0.0
100
AcDbText
  0
LINE
  5
35E
330
18
100
AcDbEntity
  8
TEXT
100
AcDbLine
 10
5.821937838796606
 20
5.559083358153016
 30
0.0
 11
5.898585820089164
 21
5.559083358153016
 31
0.0
  0
LINE
  5
35F
330
18
100
AcDbEntity
  8
TEXT
100
AcDbLine
 10
5.894105932762664
 20
5.623360052809782
 30
0.0
 11
5.826606215113147
 21
5.623360052809782
 31
0.0
  0
LWPOLYLINE
  5
360
330
18
100
AcDbEntity
  8
TEXT
100
AcDbPolyline
 90
        5
 70
     0
 43
0.0001332181640625
 10
4.184825796261931
 20
5.500133251051969
 10
4.198147612668179
 20
5.500133251051969
 10
4.198147612668179
 20
5.536768246169159
 10
4.234782607785369
 20
5.536768246169159
 10
4.234782607785369
 20
5.550090062575406
  0
LWPOLYLINE
  5
361
330
18
100
AcDbEntity
  8
TEXT
100
AcDbPolyline
 90
        3
 70
     0
 43
0.0006660908203125
 10
4.224791245480679
 20
5.596716419997284
 10
4.138199438840054
 20
5.596716419997284
 10
4.138199438840054
 20
5.510124613356658
  0
LWPOLYLINE
  5
362
330
18
100
AcDbEntity
  8
TEXT
100
AcDbPolyline
 90
        3
 70
     0
 43
0.0006660908203125
 10
4.224791245480679
 20
5.623360052809785
 10
4.111555806027556
 20
5.623360052809785
 10
4.111555806027556
 20
5.510124613356658
  0
LWPOLYLINE
  5
363
330
18
100
AcDbEntity
  8
TEXT
100
AcDbPolyline
 90
        5
 70
     0
 43
0.0001332181640625
 10
4.234782607785369
 20
5.430193714919158
 10
4.234782607785369
 20
5.443515531325409
 10
4.198147612668181
 20
5.443515531325409
 10
4.198147612668181
 20
5.480150526442595
 10
4.184825796261931
 20
5.480150526442595
  0
LWPOLYLINE
  5
364
330
18
100
AcDbEntity
  8
TEXT
100
AcDbPolyline
 90
        3
 70
     0
 43
0.0006660908203125
 10
4.138199438840054
 20
5.47015916413791
 10
4.138199438840054
 20
5.383567357497283
 10
4.224791245480679
 20
5.383567357497283
  0
LWPOLYLINE
  5
365
330
18
100
AcDbEntity
  8
TEXT
100
AcDbPolyline
 90
        3
 70
     0
 43
0.0006660908203125
 10
4.111555806027556
 20
5.47015916413791
 10
4.111555806027556
 20
5.356923724684782
 10
4.224791245480679
 20
5.356923724684782
  0
LWPOLYLINE
  5
366
330
18
100
AcDbEntity
  8
TEXT
100
AcDbPolyline
 90
        2
 70
     0
 43
0.0001332181640625
 10
4.138199438840054
 20
5.47015916413791
 10
4.198147612668181
 20
5.480150526442595
  0
LWPOLYLINE
  5
367
330
18
100
AcDbEntity
  8
TEXT
100
AcDbPolyline
 90
        2
 70
     0
 43
0.0001332181640625
 10
4.184825796261931
 20
5.480150526442595
 10
4.111555806027556
 20
5.47015916413791
  0
LWPOLYLINE
  5
368
330
18
100
AcDbEntity
  8
TEXT
100
AcDbPolyline
 90
        2
 70
     0
 43
0.0006660908203125
 10
4.138199438840054
 20
5.47015916413791
 10
4.111555806027556
 20
5.47015916413791
  0
LWPOLYLINE
  5
369
330
18
100
AcDbEntity
  8
TEXT
100
AcDbPolyline
 90
        2
 70
     0
 43
0.0001332181640625
 10
4.138199438840054
 20
5.383567357497283
 10
4.198147612668181
 20
5.443515531325409
  0
LWPOLYLINE
  5
36A
330
18
100
AcDbEntity
  8
TEXT
100
AcDbPolyline
 90
        2
 70
     0
 43
0.0006660908203125
 10
4.138199438840054
 20
5.510124613356658
 10
4.111555806027556
 20
5.510124613356658
  0
LWPOLYLINE
  5
36B
330
18
100
AcDbEntity
  8
TEXT
100
AcDbPolyline
 90
        2
 70
     0
 43
0.0001332181640625
 10
4.111555806027556
 20
5.510124613356658
 10
4.184825796261931
 20
5.500133251051969
  0
LWPOLYLINE
  5
36C
330
18
100
AcDbEntity
  8
TEXT
100
AcDbPolyline
 90
        2
 70
     0
 43
0.0001332181640625
 10
4.138199438840054
 20
5.510124613356658
 10
4.198147612668179
 20
5.500133251051969
  0
LWPOLYLINE
  5
36D
330
18
100
AcDbEntity
  8
TEXT
100
AcDbPolyline
 90
        2
 70
     0
 43
0.0001332181640625
 10
4.138199438840054
 20
5.596716419997284
 10
4.198147612668179
 20
5.536768246169159
  0
LWPOLYLINE
  5
36E
330
18
100
AcDbEntity
  8
TEXT
100
AcDbPolyline
 90
        5
 70
     0
 43
0.0001332181640625
 10
4.30472214391818
 20
5.480150526442595
 10
4.291400327511931
 20
5.480150526442595
 10
4.291400327511931
 20
5.443515531325409
 10
4.254765332394741
 20
5.443515531325409
 10
4.254765332394741
 20
5.430193714919158
  0
LWPOLYLINE
  5
36F
330
18
100
AcDbEntity
  8
TEXT
100
AcDbPolyline
 90
        2
 70
     0
 43
0.0001332181640625
 10
4.351348501340055
 20
5.47015916413791
 10
4.291400327511931
 20
5.480150526442595
  0
LWPOLYLINE
  5
370
330
18
100
AcDbEntity
  8
TEXT
100
AcDbPolyline
 90
        2
 70
     0
 43
0.0001332181640625
 10
4.377992134152556
 20
5.47015916413791
 10
4.30472214391818
 20
5.480150526442595
  0
LWPOLYLINE
  5
371
330
18
100
AcDbEntity
  8
TEXT
100
AcDbPolyline
 90
        3
 70
     0
 43
0.0006660908203125
 10
4.26475669469943
 20
5.356923724684782
 10
4.377992134152556
 20
5.356923724684782
 10
4.377992134152556
 20
5.47015916413791
  0
LWPOLYLINE
  5
372
330
18
100
AcDbEntity
  8
TEXT
100
AcDbPolyline
 90
        3
 70
     0
 43
0.0006660908203125
 10
4.26475669469943
 20
5.383567357497283
 10
4.351348501340055
 20
5.383567357497283
 10
4.351348501340055
 20
5.47015916413791
  0
LWPOLYLINE
  5
373
330
18
100
AcDbEntity
  8
TEXT
100
AcDbPolyline
 90
        2
 70
     0
 43
0.0001332181640625
 10
4.351348501340055
 20
5.383567357497283
 10
4.291400327511931
 20
5.443515531325409
  0
LWPOLYLINE
  5
374
330
18
100
AcDbEntity
  8
TEXT
100
AcDbPolyline
 90
        2
 70
     0
 43
0.0006660908203125
 10
4.26475669469943
 20
5.383567357497283
 10
4.26475669469943
 20
5.356923724684782
  0
LWPOLYLINE
  5
375
330
18
100
AcDbEntity
  8
TEXT
100
AcDbPolyline
 90
        2
 70
     0
 43
0.0001332181640625
 10
4.254765332394741
 20
5.430193714919158
 10
4.26475669469943
 20
5.356923724684782
  0
LWPOLYLINE
  5
376
330
18
100
AcDbEntity
  8
TEXT
100
AcDbPolyline
 90
        2
 70
     0
 43
0.0001332181640625
 10
4.26475669469943
 20
5.383567357497283
 10
4.254765332394741
 20
5.443515531325409
  0
LWPOLYLINE
  5
377
330
18
100
AcDbEntity
  8
TEXT
100
AcDbPolyline
 90
        2
 70
     0
 43
0.0001332181640625
 10
4.224791245480679
 20
5.356923724684782
 10
4.234782607785369
 20
5.430193714919158
  0
LWPOLYLINE
  5
378
330
18
100
AcDbEntity
  8
TEXT
100
AcDbPolyline
 90
        2
 70
     0
 43
0.0001332181640625
 10
4.224791245480679
 20
5.383567357497283
 10
4.234782607785369
 20
5.443515531325409
  0
LWPOLYLINE
  5
379
330
18
100
AcDbEntity
  8
TEXT
100
AcDbPolyline
 90
        2
 70
     0
 43
0.0006660908203125
 10
4.224791245480679
 20
5.383567357497283
 10
4.224791245480679
 20
5.356923724684782
  0
LWPOLYLINE
  5
37A
330
18
100
AcDbEntity
  8
TEXT
100
AcDbPolyline
 90
        2
 70
     0
 43
0.0006660908203125
 10
4.351348501340055
 20
5.47015916413791
 10
4.377992134152556
 20
5.47015916413791
  0
LWPOLYLINE
  5
37B
330
18
100
AcDbEntity
  8
TEXT
100
AcDbPolyline
 90
        2
 70
     0
 43
0.0001332181640625
 10
4.351348501340055
 20
5.596716419997284
 10
4.291400327511931
 20
5.536768246169159
  0
LWPOLYLINE
  5
37C
330
18
100
AcDbEntity
  8
TEXT
100
AcDbPolyline
 90
        2
 70
     0
 43
0.0001332181640625
 10
4.351348501340055
 20
5.510124613356658
 10
4.291400327511931
 20
5.500133251051969
  0
LWPOLYLINE
  5
37D
330
18
100
AcDbEntity
  8
TEXT
100
AcDbPolyline
 90
        2
 70
     0
 43
0.0001332181640625
 10
4.30472214391818
 20
5.500133251051969
 10
4.377992134152556
 20
5.510124613356658
  0
LWPOLYLINE
  5
37E
330
18
100
AcDbEntity
  8
TEXT
100
AcDbPolyline
 90
        3
 70
     0
 43
0.0006660908203125
 10
4.351348501340055
 20
5.510124613356658
 10
4.351348501340055
 20
5.596716419997284
 10
4.26475669469943
 20
5.596716419997284
  0
LWPOLYLINE
  5
37F
330
18
100
AcDbEntity
  8
TEXT
100
AcDbPolyline
 90
        3
 70
     0
 43
0.0006660908203125
 10
4.377992134152556
 20
5.510124613356658
 10
4.377992134152556
 20
5.623360052809785
 10
4.26475669469943
 20
5.623360052809785
  0
LWPOLYLINE
  5
380
330
18
100
AcDbEntity
  8
TEXT
100
AcDbPolyline
 90
        2
 70
     0
 43
0.0001332181640625
 10
4.26475669469943
 20
5.623360052809785
 10
4.254765332394741
 20
5.550090062575406
  0
LWPOLYLINE
  5
381
330
18
100
AcDbEntity
  8
TEXT
100
AcDbPolyline
 90
        2
 70
     0
 43
0.0001332181640625
 10
4.26475669469943
 20
5.596716419997284
 10
4.254765332394741
 20
5.536768246169159
  0
LWPOLYLINE
  5
382
330
18
100
AcDbEntity
  8
TEXT
100
AcDbPolyline
 90
        2
 70
     0
 43
0.0006660908203125
 10
4.26475669469943
 20
5.596716419997284
 10
4.26475669469943
 20
5.623360052809785
  0
LWPOLYLINE
  5
383
330
18
100
AcDbEntity
  8
TEXT
100
AcDbPolyline
 90
        5
 70
     0
 43
0.0001332181640625
 10
4.254765332394741
 20
5.550090062575406
 10
4.254765332394741
 20
5.536768246169159
 10
4.291400327511931
 20
5.536768246169159
 10
4.291400327511931
 20
5.500133251051969
 10
4.30472214391818
 20
5.500133251051969
  0
LWPOLYLINE
  5
384
330
18
100
AcDbEntity
  8
TEXT
100
AcDbPolyline
 90
        2
 70
     0
 43
0.0001332181640625
 10
4.224791245480679
 20
5.596716419997284
 10
4.234782607785369
 20
5.536768246169159
  0
LWPOLYLINE
  5
385
330
18
100
AcDbEntity
  8
TEXT
100
AcDbPolyline
 90
        2
 70
     0
 43
0.0001332181640625
 10
4.234782607785369
 20
5.550090062575406
 10
4.224791245480679
 20
5.623360052809785
  0
LWPOLYLINE
  5
386
330
18
100
AcDbEntity
  8
TEXT
100
AcDbPolyline
 90
        2
 70
     0
 43
0.0006660908203125
 10
4.224791245480679
 20
5.596716419997284
 10
4.224791245480679
 20
5.623360052809785
  0
LWPOLYLINE
  5
387
330
18
100
AcDbEntity
  8
TEXT
100
AcDbPolyline
 90
        2
 70
     0
 43
0.0006660908203125
 10
4.351348501340055
 20
5.510124613356658
 10
4.377992134152556
 20
5.510124613356658
  0
LWPOLYLINE
  5
388
330
18
100
AcDbEntity
  8
TEXT
100
AcDbPolyline
 90
        2
 70
     0
 43
0.0
 10
5.096772054901187
 20
5.408438362036199
 42
0.3318488747599744
 10
5.1658913474665
 20
5.356887019821271
 42
-6.868794160588311
  0
LINE
  5
389
330
18
100
AcDbEntity
  8
TEXT
100
AcDbLine
 10
5.164751773970304
 20
5.691371530548592
 30
0.0
 11
5.097943061403939
 21
5.691371530548592
 31
0.0
  0
LINE
  5
38A
330
18
100
AcDbEntity
  8
TEXT
100
AcDbLine
 10
4.818600693784845
 20
5.623360052809782
 30
0.0
 11
4.642868940886334
 21
5.623360052809782
 31
0.0
  0
ARC
  5
38B
330
18
100
AcDbEntity
  8
TEXT
100
AcDbCircle
 10
4.713706407244883
 20
5.440082828181828
 30
0.0
 40
0.0831958083605586
100
AcDbArc
 50
270.0
 51
90.0
  0
LINE
  5
38C
330
18
100
AcDbEntity
  8
TEXT
100
AcDbLine
 10
4.648106271000582
 20
5.559083358153016
 30
0.0
 11
4.815011925029552
 21
5.559083358153016
 31
0.0
  0
LINE
  5
38D
330
18
100
AcDbEntity
  8
TEXT
100
AcDbLine
 10
4.718646781151162
 20
5.42524402615471
 30
0.0
 11
4.560781481439828
 21
5.42524402615471
 31
0.0
  0
LINE
  5
38E
330
18
100
AcDbEntity
  8
TEXT
100
AcDbLine
 10
4.56078148143983
 20
5.356887019821271
 30
0.0
 11
4.713706407244883
 21
5.356887019821271
 31
0.0
  0
ARC
  5
38F
330
18
100
AcDbEntity
  8
TEXT
100
AcDbCircle
 10
4.642868940886334
 20
5.54127259336328
 30
0.0
 40
0.0820874594465043
100
AcDbArc
 50
90.0
 51
270.0
  0
LINE
  5
390
330
18
100
AcDbEntity
  8
TEXT
100
AcDbLine
 10
4.560781481439828
 20
5.42524402615471
 30
0.0
 11
4.56078148143983
 21
5.356887019821271
 31
0.0
  0
LINE
  5
391
330
18
100
AcDbEntity
  8
TEXT
100
AcDbLine
 10
4.642868940886334
 20
5.459185133916775
 30
0.0
 11
4.718646781151162
 21
5.459185133916775
 31
0.0
  0
ARC
  5
392
330
18
100
AcDbEntity
  8
TEXT
100
AcDbCircle
 10
4.718646781151162
 20
5.442214580035744
 30
0.0
 40
0.0169705538810321
100
AcDbArc
 50
270.0
 51
90.0
  0
LINE
  5
393
330
18
100
AcDbEntity
  8
TEXT
100
AcDbLine
 10
4.713706407244883
 20
5.523278636542388
 30
0.0
 11
4.648106271000582
 21
5.523278636542388
 31
0.0
  0
ARC
  5
394
330
18
100
AcDbEntity
  8
TEXT
100
AcDbCircle
 10
4.648106271000582
 20
5.541180997347704
 30
0.0
 40
0.017902360805315
100
AcDbArc
 50
90.0
 51
270.0
  0
LINE
  5
395
330
18
100
AcDbEntity
  8
TEXT
100
AcDbLine
 10
5.009072585804697
 20
5.522488056696661
 30
0.0
 11
4.950442264772759
 21
5.623360052809782
 31
0.0
  0
LINE
  5
396
330
18
100
AcDbEntity
  8
TEXT
100
AcDbLine
 10
4.868898532509658
 20
5.356887019821271
 30
0.0
 11
4.965538783584652
 21
5.357157658919553
 31
0.0
  0
LWPOLYLINE
  5
397
330
18
100
AcDbEntity
  8
TEXT
100
AcDbPolyline
 90
        6
 70
     1
 43
0.0
 10
4.911422336084807
 20
5.559083358153016
 10
4.881105741864599
 20
5.559083358153016
 10
4.881105741864599
 20
5.435972360098122
 42
0.407328721240804
 10
4.892649393026076
 20
5.424153445421736
 10
4.953271092070806
 20
5.424153445421736
 10
4.970736432478124
 20
5.456965674465215
  0
LINE
  5
398
330
18
100
AcDbEntity
  8
TEXT
100
AcDbLine
 10
4.815011925029552
 20
5.559083358153016
 30
0.0
 11
4.815011925029552
 21
5.416679411159321
 31
0.0
  0
ARC
  5
399
330
18
100
AcDbEntity
  8
TEXT
100
AcDbCircle
 10
4.875127943003304
 20
5.416679411159321
 30
0.0
 40
0.0601160179737537
100
AcDbArc
 50
180.0000000000003
 51
264.0521544866073
  0
LINE
  5
39A
330
18
100
AcDbEntity
  8
TEXT
100
AcDbLine
 10
4.878643298628852
 20
5.65774797040392
 30
0.0
 11
4.818600693784845
 21
5.65774797040392
 31
0.0
  0
LINE
  5
39B
330
18
100
AcDbEntity
  8
TEXT
100
AcDbLine
 10
4.818600693784845
 20
5.65774797040392
 30
0.0
 11
4.818600693784845
 21
5.623360052809782
 31
0.0
  0
LINE
  5
39C
330
18
100
AcDbEntity
  8
TEXT
100
AcDbLine
 10
4.878643298628852
 20
5.623360052809782
 30
0.0
 11
4.878643298628852
 21
5.65774797040392
 31
0.0
  0
LINE
  5
39D
330
18
100
AcDbEntity
  8
TEXT
100
AcDbLine
 10
4.950442264772759
 20
5.623360052809782
 30
0.0
 11
4.878643298628852
 21
5.623360052809782
 31
0.0
  0
LINE
  5
39E
330
18
100
AcDbEntity
  8
TEXT
100
AcDbLine
 10
4.999472348807743
 20
5.376845525926284
 30
0.0
 11
5.096772054901188
 21
5.541195736861552
 31
0.0
  0
LINE
  5
39F
330
18
100
AcDbEntity
  8
TEXT
100
AcDbLine
 10
5.096772054901188
 20
5.541195736861552
 30
0.0
 11
5.096772054901188
 21
5.408438362036195
 31
0.0
  0
ARC
  5
3A0
330
18
100
AcDbEntity
  8
TEXT
100
AcDbCircle
 10
4.965428788895529
 20
5.396434742094966
 30
0.0
 40
0.0392772371940762
100
AcDbArc
 50
270.1604552698595
 51
330.0831797321295
  0
LINE
  5
3A1
330
18
100
AcDbEntity
  8
TEXT
100
AcDbLine
 10
5.067821148610563
 20
5.623360052809782
 30
0.0
 11
5.009072585804697
 21
5.522488056696661
 31
0.0
  0
LINE
  5
3A2
330
18
100
AcDbEntity
  8
TEXT
100
AcDbLine
 10
5.097943061403939
 20
5.691371530548592
 30
0.0
 11
5.097943061403939
 21
5.623360052809782
 31
0.0
  0
LINE
  5
3A3
330
18
100
AcDbEntity
  8
TEXT
100
AcDbLine
 10
5.097943061403939
 20
5.623360052809782
 30
0.0
 11
5.067821148610563
 21
5.623360052809782
 31
0.0
  0
LWPOLYLINE
  5
3A4
330
18
100
AcDbEntity
  8
TEXT
100
AcDbPolyline
 90
        4
 70
     0
 43
0.0
 10
5.450029183024097
 20
5.551529568986906
 10
5.450029183024097
 20
5.356887019821271
 10
5.518507466311955
 20
5.356887019821271
 10
5.518507466311955
 20
5.400377964771709
 42
-1.714843617202739
  0
LWPOLYLINE
  5
3A5
330
18
100
AcDbEntity
  8
TEXT
100
AcDbPolyline
 90
        2
 70
     0
 43
0.0
 10
5.485163533568307
 20
5.623360052809785
 42
-0.3277054968067132
 10
5.520945224281472
 20
5.595037507040141
 42
6.667889725900311
  0
LWPOLYLINE
  5
3A6
330
18
100
AcDbEntity
  8
TEXT
100
AcDbPolyline
 90
        2
 70
     0
 43
0.0
 10
5.31372996098908
 20
5.559083358153016
 42
-0.4142135623731017
 10
5.321283750155194
 20
5.551529568986906
 42
-0.9999999999999998
  0
LINE
  5
3A7
330
18
100
AcDbEntity
  8
TEXT
100
AcDbLine
 10
5.331081684039101
 20
5.623360052809782
 30
0.0
 11
5.197063628107964
 21
5.623360052809782
 31
0.0
  0
LINE
  5
3A8
330
18
100
AcDbEntity
  8
TEXT
100
AcDbLine
 10
5.263894681165933
 20
5.356887019821271
 30
0.0
 11
5.263894681165933
 21
5.559083358153016
 31
0.0
  0
LINE
  5
3A9
330
18
100
AcDbEntity
  8
TEXT
100
AcDbLine
 10
5.197063628107964
 20
5.623360052809782
 30
0.0
 11
5.197063628107964
 21
5.422495846077374
 31
0.0
  0
LINE
  5
3AA
330
18
100
AcDbEntity
  8
TEXT
100
AcDbLine
 10
5.164751773970304
 20
5.43927485792427
 30
0.0
 11
5.164751773970304
 21
5.691371530548592
 31
0.0
  0
LINE
  5
3AB
330
18
100
AcDbEntity
  8
TEXT
100
AcDbLine
 10
5.165891347466499
 20
5.356887019821271
 30
0.0
 11
5.263894681165933
 21
5.356887019821271
 31
0.0
  0
LINE
  5
3AC
330
18
100
AcDbEntity
  8
TEXT
100
AcDbLine
 10
5.197063628107964
 20
5.422495846077374
 30
0.0
 11
5.180069991223363
 21
5.422495846077374
 31
0.0
  0
ARC
  5
3AD
330
18
100
AcDbEntity
  8
TEXT
100
AcDbCircle
 10
5.180069991223362
 20
5.437877652320799
 30
0.0
 40
0.0153818062434269
100
AcDbArc
 50
174.7883570302258
 51
270.0
  0
LINE
  5
3AE
330
18
100
AcDbEntity
  8
TEXT
100
AcDbLine
 10
5.263894681165933
 20
5.559083358153016
 30
0.0
 11
5.313729960989081
 21
5.559083358153016
 31
0.0
  0
LINE
  5
3AF
330
18
100
AcDbEntity
  8
TEXT
100
AcDbLine
 10
5.321283750155195
 20
5.551529568986906
 30
0.0
 11
5.321283750155195
 21
5.356887019821271
 31
0.0
  0
LINE
  5
3B0
330
18
100
AcDbEntity
  8
TEXT
100
AcDbLine
 10
5.388341796937035
 20
5.356887019821271
 30
0.0
 11
5.388341796937035
 21
5.559083358153016
 31
0.0
  0
LINE
  5
3B1
330
18
100
AcDbEntity
  8
TEXT
100
AcDbLine
 10
5.321283750155195
 20
5.356887019821271
 30
0.0
 11
5.388341796937035
 21
5.356887019821271
 31
0.0
  0
LWPOLYLINE
  5
3B2
330
18
100
AcDbEntity
  8
TEXT
100
AcDbPolyline
 90
        3
 70
     0
 43
0.0
 10
5.485163533568307
 20
5.623360052809785
 10
5.366863374752263
 20
5.623360052809785
 10
5.366863374752263
 20
5.596192556048889
 42
-1.960274751411753
  0
LINE
  5
3B3
330
18
100
AcDbEntity
  8
TEXT
100
AcDbLine
 10
5.388341796937035
 20
5.559083358153016
 30
0.0
 11
5.442475393857985
 21
5.559083358153016
 31
0.0
  0
LWPOLYLINE
  5
3B4
330
18
100
AcDbEntity
  8
TEXT
100
AcDbPolyline
 90
        2
 70
     0
 43
0.0
 10
5.331081684039101
 20
5.623360052809785
 42
-0.3328679258950098
 10
5.366863374752263
 20
5.596192556048889
 42
6.772930709997214
  0
LWPOLYLINE
  5
3B5
330
18
100
AcDbEntity
  8
TEXT
100
AcDbPolyline
 90
        2
 70
     0
 43
0.0
 10
5.442475393857984
 20
5.559083358153016
 42
-0.4142135623731017
 10
5.450029183024097
 20
5.551529568986906
 42
-0.9999999999999998
  0
ARC
  5
3B6
330
18
100
AcDbEntity
  8
TEXT
100
AcDbCircle
 10
5.653750193721464
 20
5.581776485688879
 30
0.0
 40
0.0416329381542859
100
AcDbArc
 50
26.56974201007528
 51
87.20939649401342
  0
LWPOLYLINE
  5
3B7
330
18
100
AcDbEntity
  8
TEXT
100
AcDbPolyline
 90
        2
 70
     0
 43
0.0
 10
5.561583399179591
 20
5.356887019821271
 10
5.695600816810967
 20
5.356887019821271
 42
0.9999999999999998
  0
LWPOLYLINE
  5
3B8
330
18
100
AcDbEntity
  8
TEXT
100
AcDbPolyline
 90
        4
 70
     1
 43
0.0
 10
5.675478351741075
 20
5.459850997805296
 10
5.586818033081216
 20
5.459850997805296
 42
0.9999999999999998
 10
5.586818033081216
 20
5.417452457301435
 10
5.675478351741075
 20
5.417452457301435
 42
1.0
  0
LWPOLYLINE
  5
3B9
330
18
100
AcDbEntity
  8
TEXT
100
AcDbPolyline
 90
        2
 70
     0
 43
0.0
 10
5.518507466311955
 20
5.400377964771709
 42
0.2901071551932823
 10
5.561583399179591
 20
5.356887019821271
 42
5.328517124445801
  0
LINE
  5
3BA
330
18
100
AcDbEntity
  8
TEXT
100
AcDbLine
 10
5.655777133498532
 20
5.623360052809782
 30
0.0
 11
5.520945224281473
 21
5.623360052809782
 31
0.0
  0
LINE
  5
3BB
330
18
100
AcDbEntity
  8
TEXT
100
AcDbLine
 10
5.580259320674792
 20
5.521808384690884
 30
0.0
 11
5.662547310458175
 21
5.521808384690884
 31
0.0
  0
LINE
  5
3BC
330
18
100
AcDbEntity
  8
TEXT
100
AcDbLine
 10
5.626746235154054
 20
5.559083358153016
 30
0.0
 11
5.519539961766764
 21
5.559083358153016
 31
0.0
  0
LINE
  5
3BD
330
18
100
AcDbEntity
  8
TEXT
100
AcDbLine
 10
5.520945224281473
 20
5.623360052809782
 30
0.0
 11
5.520945224281473
 21
5.595037507040138
 31
0.0
  0
ARC
  5
3BE
330
18
100
AcDbEntity
  8
TEXT
100
AcDbCircle
 10
5.580259320674791
 20
5.454122803546765
 30
0.0
 40
0.0676855811441166
100
AcDbArc
 50
90.0
 51
153.7768192527749
  0
LINE
  5
3BF
330
18
100
AcDbEntity
  8
TEXT
100
AcDbLine
 10
5.519539961766764
 20
5.559083358153016
 30
0.0
 11
5.519539961766764
 21
5.48403095207881
 31
0.0
  0
LINE
  5
3C0
330
18
100
AcDbEntity
  8
TEXT
100
AcDbLine
 10
5.662547310458175
 20
5.521808384690884
 30
0.0
 11
5.652282550044611
 21
5.543058924263578
 31
0.0
  0
ARC
  5
3C1
330
18
100
AcDbEntity
  8
TEXT
100
AcDbCircle
 10
5.626746235154053
 20
5.530723983153019
 30
0.0
 40
0.028359375
100
AcDbArc
 50
25.78218179591245
 51
90.0
  0
LINE
  5
3C2
330
18
100
AcDbEntity
  8
TEXT
100
AcDbLine
 10
5.797031963513947
 20
5.356887019821271
 30
0.0
 11
5.797031963513942
 21
5.534177525252739
 31
0.0
  0
LWPOLYLINE
  5
3C3
330
18
100
AcDbEntity
  8
TEXT
100
AcDbPolyline
 90
        2
 70
     0
 43
0.0
 10
5.738676749678612
 20
5.356887019821271
 10
5.797031963513946
 20
5.356887019821271
  0
LWPOLYLINE
  5
3C4
330
18
100
AcDbEntity
  8
TEXT
100
AcDbPolyline
 90
        2
 70
     0
 43
0.0
 10
5.738676749678612
 20
5.400377964771709
 42
-0.2901071551932486
 10
5.695600816810967
 20
5.356887019821271
 42
-5.328517124445184
  0
LWPOLYLINE
  5
3C5
330
18
100
AcDbEntity
  8
TEXT
100
AcDbPolyline
 90
        2
 70
     0
 43
0.0
 10
5.738676749678612
 20
5.400377964771709
 10
5.738676749678612
 20
5.356887019821271
  0
LINE
  5
3C6
330
18
100
AcDbEntity
  8
TEXT
100
AcDbLine
 10
5.798633978673074
 20
5.623360052809782
 30
0.0
 11
5.734737072373573
 21
5.623360052809782
 31
0.0
  0
LINE
  5
3C7
330
18
100
AcDbEntity
  8
TEXT
100
AcDbLine
 10
5.734737072373573
 20
5.623360052809782
 30
0.0
 11
5.734737072373573
 21
5.518148074256354
 31
0.0
  0
LINE
  5
3C8
330
18
100
AcDbEntity
  8
TEXT
100
AcDbLine
 10
5.734737072373573
 20
5.518148074256354
 30
0.0
 11
5.690986301191672
 21
5.6003983502525
 31
0.0
  0
ARC
  5
3C9
330
18
100
AcDbEntity
  8
TEXT
100
AcDbCircle
 10
5.821937838796605
 20
5.534177482870354
 30
0.0
 40
0.0249058752826653
100
AcDbArc
 50
89.99971217465335
 51
179.9999999999985
  0
ARC
  5
3CA
330
18
100
AcDbEntity
  8
TEXT
100
AcDbCircle
 10
5.829826795736183
 20
5.592114325527517
 30
0.0
 40
0.0314112657011332
100
AcDbArc
 50
95.88484768694724
 51
173.2388340632136
  0
LINE
  5
3CB
330
18
100
AcDbEntity
  8
TEXT
100
AcDbLine
 10
5.798633978673074
 20
5.595812402948907
 30
0.0
 11
5.798633978673074
 21
5.623360052809782
 31
0.0
  0
TEXT
  5
3CC
330
18
100
AcDbEntity
  8
TEXT
100
AcDbText
 10
6.267509498094865
 20
5.449772828466767
 30
0.0
 40
0.0522247191011236
  1
Minneapolis, MN 55432-0008
 41
1.11444212721585
 72
     5
 11
7.596442082364529
 21
5.449772828466767
 31
0.0
100
AcDbText
  0
TEXT
  5
3CD
330
18
100
AcDbEntity
  8
TEXT
100
AcDbText
 10
6.267509498094865
 20
5.543031255433059
 30
0.0
 40
0.0522247191011236
  1
6536 Main St. N.E. * P.O. Box 32008
 41
0.8388932496075369
 72
     5
 11
7.596442082364529
 21
5.543031255433059
 31
0.0
100
AcDbText
  0
TEXT
  5
3CE
330
18
100
AcDbEntity
  8
TEXT
100
AcDbText
 10
6.267509498094865
 20
5.636289682399351
 30
0.0
 40
0.0522247191011236
  1
Stylmark  Incorporated
 41
1.221428571428571
 72
     5
 11
7.596442082364529
 21
5.636289682399351
 31
0.0
100
AcDbText
  0
TEXT
  5
3CF
330
18
100
AcDbEntity
  8
TEXT
100
AcDbText
 10
6.267509498094865
 20
5.356514401500475
 30
0.0
 40
0.0522247191011236
  1
Phone  1-800-328-2495
 41
1.272321428571429
 72
     5
 11
7.596442082364529
 21
5.356514401500475
 31
0.0
100
AcDbText
  0
LINE
  5
3D0
330
18
100
AcDbEntity
  8
TEXT
100
AcDbLine
 10
6.01995368663185
 20
5.513466809868808
 30
0.0
 11
6.084510802597555
 21
5.623360052809782
 31
0.0
  0
LINE
  5
3D1
330
18
100
AcDbEntity
  8
TEXT
100
AcDbLine
 10
6.084510802597555
 20
5.623360052809782
 30
0.0
 11
6.009518969867928
 21
5.623360052809782
 31
0.0
  0
LINE
  5
3D2
330
18
100
AcDbEntity
  8
TEXT
100
AcDbLine
 10
6.038867537619254
 20
5.356887019821271
 30
0.0
 11
6.11544590999546
 21
5.356887019821271
 31
0.0
  0
LINE
  5
3D3
330
18
100
AcDbEntity
  8
TEXT
100
AcDbLine
 10
6.11544590999546
 20
5.356887019821271
 30
0.0
 11
6.01995368663185
 21
5.513466809868808
 31
0.0
  0
LINE
  5
3D4
330
18
100
AcDbEntity
  8
TEXT
100
AcDbLine
 10
5.96296400440779
 20
5.356887019821271
 30
0.0
 11
5.96296400440779
 21
5.488466588297451
 31
0.0
  0
LINE
  5
3D5
330
18
100
AcDbEntity
  8
TEXT
100
AcDbLine
 10
5.96296400440779
 20
5.488466588297451
 30
0.0
 11
6.038867537619254
 21
5.356887019821271
 31
0.0
  0
LINE
  5
3D6
330
18
100
AcDbEntity
  8
TEXT
100
AcDbLine
 10
5.898585820089164
 20
5.559083358153016
 30
0.0
 11
5.898585820089169
 21
5.356887019821271
 31
0.0
  0
LINE
  5
3D7
330
18
100
AcDbEntity
  8
TEXT
100
AcDbLine
 10
5.898585820089169
 20
5.356887019821271
 30
0.0
 11
5.96296400440779
 21
5.356887019821271
 31
0.0
  0
LINE
  5
3D8
330
18
100
AcDbEntity
  8
TEXT
100
AcDbLine
 10
5.962420811311942
 20
5.688824258577382
 30
0.0
 11
5.894105932762669
 21
5.688824258577382
 31
0.0
  0
LINE
  5
3D9
330
18
100
AcDbEntity
  8
TEXT
100
AcDbLine
 10
5.894105932762669
 20
5.688824258577382
 30
0.0
 11
5.894105932762664
 21
5.623360052809782
 31
0.0
  0
LINE
  5
3DA
330
18
100
AcDbEntity
  8
TEXT
100
AcDbLine
 10
6.009518969867927
 20
5.623360052809782
 30
0.0
 11
5.962420811311942
 21
5.547494726398244
 31
0.0
  0
LINE
  5
3DB
330
18
100
AcDbEntity
  8
TEXT
100
AcDbLine
 10
5.962420811311942
 20
5.547494726398244
 30
0.0
 11
5.962420811311942
 21
5.688824258577382
 31
0.0
  0
ENDSEC
  0
SECTION
  2
OBJECTS
  0
DICTIONARY
  5
C
330
0
100
AcDbDictionary
  3
ACAD_GROUP
350
D
  3
ACAD_LAYOUT
350
3E6
  3
ACAD_MLINESTYLE
350
E
  3
ACAD_PLOTSETTINGS
350
3E7
  3
ACAD_PLOTSTYLENAME
350
3E4
  3
ACDBHEADERROUNDTRIPXREC
350
3F0
  3
ACDBVARIABLEDICTIONARY
350
2CB
  0
DICTIONARY
  5
412
330
18
100
AcDbDictionary
280
     1
  3
ACAD_LAYOUTSELFREF
360
413
  0
DICTIONARY
  5
410
330
15
100
AcDbDictionary
280
     1
  3
ACAD_LAYOUTSELFREF
360
411
  0
DICTIONARY
  5
D
102
{ACAD_REACTORS
330
C
102
}
330
C
100
AcDbDictionary
  0
DICTIONARY
  5
3E6
102
{ACAD_REACTORS
330
C
102
}
330
C
100
AcDbDictionary
  0
DICTIONARY
  5
E
102
{ACAD_REACTORS
330
C
102
}
330
C
100
AcDbDictionary
  3
STANDARD
350
1B
  0
DICTIONARY
  5
3E7
102
{ACAD_REACTORS
330
C
102
}
330
C
100
AcDbDictionary
  0
ACDBDICTIONARYWDFLT
  5
3E4
102
{ACAD_REACTORS
330
C
102
}
330
C
100
AcDbDictionary
281
     1
  3
Normal
350
3E5
100
AcDbDictionaryWithDefault
340
3E5
  0
DICTIONARY
  5
3F0
102
{ACAD_REACTORS
330
C
102
}
330
C
100
AcDbDictionary
  3
CEPSNTYPE
350
3FA
  3
FINGERPRINTGUID
350
3FB
  3
HYPERLINKBASE
350
3F3
  3
INSUNITS
350
3F9
  3
LAYOUTDICT
350
3F5
  3
LWETCUNION
350
3F8
  3
PLOTSETDICT
350
3F6
  3
PLOTSTYLNAMDICT
350
3F7
  3
PSVPSCALE
350
3FD
  3
PUCSBASE
350
400
  3
PUCSORGBACK
350
406
  3
PUCSORGBOTTOM
350
402
  3
PUCSORGFRONT
350
405
  3
PUCSORGLEFT
350
403
  3
PUCSORGRIGHT
350
404
  3
PUCSORGTOP
350
401
  3
PUCSORTHOREF
350
3FE
  3
PUCSORTHOVIEW
350
3FF
  3
STYLESHEET
350
3F4
  3
TSTACKALIGN
350
3F1
  3
TSTACKSIZE
350
3F2
  3
UCSBASE
350
409
  3
UCSORGBACK
350
40F
  3
UCSORGBOTTOM
350
40B
  3
UCSORGFRONT
350
40E
  3
UCSORGLEFT
350
40C
  3
UCSORGRIGHT
350
40D
  3
UCSORGTOP
350
40A
  3
UCSORTHOREF
350
407
  3
UCSORTHOVIEW
350
408
  3
VERSIONGUID
350
3FC
  0
DICTIONARY
  5
2CB
102
{ACAD_REACTORS
330
C
102
}
330
C
100
AcDbDictionary
  3
DIMASSOC
350
3EE
  3
SORTENTS
350
2CC
  0
XRECORD
  5
413
102
{ACAD_REACTORS
330
412
102
}
330
412
100
AcDbXrecord
340
18
  0
XRECORD
  5
411
102
{ACAD_REACTORS
330
410
102
}
330
410
100
AcDbXrecord
340
15
  0
MLINESTYLE
  5
1B
102
{ACAD_REACTORS
330
E
102
}
330
E
100
AcDbMlineStyle
  2
STANDARD
 70
     0
  3

 62
     0
 51
90.0
 52
90.0
 71
     2
 49
0.5
 62
   256
  6
BYLAYER
 49
-0.5
 62
   256
  6
BYLAYER
  0
ACDBPLACEHOLDER
  5
3E5
102
{ACAD_REACTORS
330
3E4
102
}
330
3E4
100
AcDbPlaceHolder
280
     0
  0
XRECORD
  5
3FA
102
{ACAD_REACTORS
330
3F0
102
}
330
3F0
100
AcDbXrecord
 90
        0
  0
XRECORD
  5
3FB
102
{ACAD_REACTORS
330
3F0
102
}
330
3F0
100
AcDbXrecord
  1
{882E51B0-8DB5-11D6-88E6-0090279574E7}
  0
XRECORD
  5
3F3
102
{ACAD_REACTORS
330
3F0
102
}
330
3F0
100
AcDbXrecord
  1

  0
XRECORD
  5
3F9
102
{ACAD_REACTORS
330
3F0
102
}
330
3F0
100
AcDbXrecord
 90
        0
  0
XRECORD
  5
3F5
102
{ACAD_REACTORS
330
3F0
102
}
330
3F0
100
AcDbXrecord
340
3E6
  0
XRECORD
  5
3F8
102
{ACAD_REACTORS
330
3F0
102
}
330
3F0
100
AcDbXrecord
 90
    14877
  0
XRECORD
  5
3F6
102
{ACAD_REACTORS
330
3F0
102
}
330
3F0
100
AcDbXrecord
340
3E7
  0
XRECORD
  5
3F7
102
{ACAD_REACTORS
330
3F0
102
}
330
3F0
100
AcDbXrecord
340
3E4
  0
XRECORD
  5
3FD
102
{ACAD_REACTORS
330
3F0
102
}
330
3F0
100
AcDbXrecord
 40
0.0
  0
XRECORD
  5
400
102
{ACAD_REACTORS
330
3F0
102
}
330
3F0
100
AcDbXrecord
340
0
  0
XRECORD
  5
406
102
{ACAD_REACTORS
330
3F0
102
}
330
3F0
100
AcDbXrecord
 10
0.0
 20
0.0
 30
0.0
  0
XRECORD
  5
402
102
{ACAD_REACTORS
330
3F0
102
}
330
3F0
100
AcDbXrecord
 10
0.0
 20
0.0
 30
0.0
  0
XRECORD
  5
405
102
{ACAD_REACTORS
330
3F0
102
}
330
3F0
100
AcDbXrecord
 10
0.0
 20
0.0
 30
0.0
  0
XRECORD
  5
403
102
{ACAD_REACTORS
330
3F0
102
}
330
3F0
100
AcDbXrecord
 10
0.0
 20
0.0
 30
0.0
  0
XRECORD
  5
404
102
{ACAD_REACTORS
330
3F0
102
}
330
3F0
100
AcDbXrecord
 10
0.0
 20
0.0
 30
0.0
  0
XRECORD
  5
401
102
{ACAD_REACTORS
330
3F0
102
}
330
3F0
100
AcDbXrecord
 10
0.0
 20
0.0
 30
0.0
  0
XRECORD
  5
3FE
102
{ACAD_REACTORS
330
3F0
102
}
330
3F0
100
AcDbXrecord
340
0
  0
XRECORD
  5
3FF
102
{ACAD_REACTORS
330
3F0
102
}
330
3F0
100
AcDbXrecord
 70
     0
  0
XRECORD
  5
3F4
102
{ACAD_REACTORS
330
3F0
102
}
330
3F0
100
AcDbXrecord
  1

  0
XRECORD
  5
3F1
102
{ACAD_REACTORS
330
3F0
102
}
330
3F0
100
AcDbXrecord
 90
        1
  0
XRECORD
  5
3F2
102
{ACAD_REACTORS
330
3F0
102
}
330
3F0
100
AcDbXrecord
 90
       70
  0
XRECORD
  5
409
102
{ACAD_REACTORS
330
3F0
102
}
330
3F0
100
AcDbXrecord
340
0
  0
XRECORD
  5
40F
102
{ACAD_REACTORS
330
3F0
102
}
330
3F0
100
AcDbXrecord
 10
0.0
 20
0.0
 30
0.0
  0
XRECORD
  5
40B
102
{ACAD_REACTORS
330
3F0
102
}
330
3F0
100
AcDbXrecord
 10
0.0
 20
0.0
 30
0.0
  0
XRECORD
  5
40E
102
{ACAD_REACTORS
330
3F0
102
}
330
3F0
100
AcDbXrecord
 10
0.0
 20
0.0
 30
0.0
  0
XRECORD
  5
40C
102
{ACAD_REACTORS
330
3F0
102
}
330
3F0
100
AcDbXrecord
 10
0.0
 20
0.0
 30
0.0
  0
XRECORD
  5
40D
102
{ACAD_REACTORS
330
3F0
102
}
330
3F0
100
AcDbXrecord
 10
0.0
 20
0.0
 30
0.0
  0
XRECORD
  5
40A
102
{ACAD_REACTORS
330
3F0
102
}
330
3F0
100
AcDbXrecord
 10
0.0
 20
0.0
 30
0.0
  0
XRECORD
  5
407
102
{ACAD_REACTORS
330
3F0
102
}
330
3F0
100
AcDbXrecord
340
0
  0
XRECORD
  5
408
102
{ACAD_REACTORS
330
3F0
102
}
330
3F0
100
AcDbXrecord
 70
     0
  0
XRECORD
  5
3FC
102
{ACAD_REACTORS
330
3F0
102
}
330
3F0
100
AcDbXrecord
  1
{882E51B2-8DB5-11D6-88E6-0090279574E7}
  0
DICTIONARYVAR
  5
3EE
102
{ACAD_REACTORS
330
2CB
102
}
330
2CB
100
DictionaryVariables
280
     0
  1
1
  0
DICTIONARYVAR
  5
2CC
102
{ACAD_REACTORS
330
2CB
102
}
330
2CB
100
DictionaryVariables
280
     0
  1
97
  0
ENDSEC
  0
EOF
