  0
SECTION
  2
HEADER
  9
$ACADVER
  1
AC1014
  9
$ACADMAINTVER
 70
     9
  9
$DWGCODEPAGE
  3
ANSI_1252
  9
$INSBASE
 10
1.436514536993834
 20
1.283839012750076
 30
0.0
  9
$EXTMIN
 10
-0.3064670422333088
 20
0.2164755741838338
 30
0.0
  9
$EXTMAX
 10
3.178752279513819
 20
1.286945614467874
 30
0.0
  9
$LIMMIN
 10
0.0
 20
0.0
  9
$LIMMAX
 10
18.0
 20
12.0
  9
$ORTHOMODE
 70
     1
  9
$REGENMODE
 70
     1
  9
$FILLMODE
 70
     1
  9
$QTEXTMODE
 70
     0
  9
$MIRRTEXT
 70
     0
  9
$DRAGMODE
 70
     2
  9
$LTSCALE
 40
1.0
  9
$OSMODE
 70
    39
  9
$ATTMODE
 70
     1
  9
$TEXTSIZE
 40
0.125
  9
$TRACEWID
 40
0.05
  9
$TEXTSTYLE
  7
ROMANS
  9
$CLAYER
  8
0
  9
$CELTYPE
  6
BYLAYER
  9
$CECOLOR
 62
   256
  9
$CELTSCALE
 40
1.0
  9
$DELOBJ
 70
     1
  9
$DISPSILH
 70
     1
  9
$DIMSCALE
 40
1.0
  9
$DIMASZ
 40
0.125
  9
$DIMEXO
 40
0.125
  9
$DIMDLI
 40
0.375
  9
$DIMRND
 40
0.0
  9
$DIMDLE
 40
0.0
  9
$DIMEXE
 40
0.125
  9
$DIMTP
 40
0.0
  9
$DIMTM
 40
0.0
  9
$DIMTXT
 40
0.125
  9
$DIMCEN
 40
-0.125
  9
$DIMTSZ
 40
0.0
  9
$DIMTOL
 70
     0
  9
$DIMLIM
 70
     0
  9
$DIMTIH
 70
     1
  9
$DIMTOH
 70
     1
  9
$DIMSE1
 70
     0
  9
$DIMSE2
 70
     0
  9
$DIMTAD
 70
     0
  9
$DIMZIN
 70
     4
  9
$DIMBLK
  1

  9
$DIMASO
 70
     1
  9
$DIMSHO
 70
     1
  9
$DIMPOST
  1

  9
$DIMAPOST
  1

  9
$DIMALT
 70
     0
  9
$DIMALTD
 70
     2
  9
$DIMALTF
 40
25.4
  9
$DIMLFAC
 40
1.0
  9
$DIMTOFL
 70
     0
  9
$DIMTVP
 40
0.0
  9
$DIMTIX
 70
     1
  9
$DIMSOXD
 70
     0
  9
$DIMSAH
 70
     0
  9
$DIMBLK1
  1

  9
$DIMBLK2
  1

  9
$DIMSTYLE
  2
STANDARD
  9
$DIMCLRD
 70
     0
  9
$DIMCLRE
 70
     0
  9
$DIMCLRT
 70
     0
  9
$DIMTFAC
 40
1.0
  9
$DIMGAP
 40
0.09
  9
$DIMJUST
 70
     0
  9
$DIMSD1
 70
     0
  9
$DIMSD2
 70
     0
  9
$DIMTOLJ
 70
     1
  9
$DIMTZIN
 70
     4
  9
$DIMALTZ
 70
     0
  9
$DIMALTTZ
 70
     0
  9
$DIMFIT
 70
     3
  9
$DIMUPT
 70
     0
  9
$DIMUNIT
 70
     2
  9
$DIMDEC
 70
     3
  9
$DIMTDEC
 70
     3
  9
$DIMALTU
 70
     2
  9
$DIMALTTD
 70
     2
  9
$DIMTXSTY
  7
ROMANS
  9
$DIMAUNIT
 70
     0
  9
$LUNITS
 70
     2
  9
$LUPREC
 70
     3
  9
$SKETCHINC
 40
0.1
  9
$FILLETRAD
 40
0.03125
  9
$AUNITS
 70
     0
  9
$AUPREC
 70
     0
  9
$MENU
  1
ACAD
  9
$ELEVATION
 40
0.0
  9
$PELEVATION
 40
0.0
  9
$THICKNESS
 40
0.0
  9
$LIMCHECK
 70
     0
  9
$BLIPMODE
 70
     0
  9
$CHAMFERA
 40
0.0
  9
$CHAMFERB
 40
0.0
  9
$CHAMFERC
 40
0.0
  9
$CHAMFERD
 40
0.0
  9
$SKPOLY
 70
     0
  9
$TDCREATE
 40
2448994.522231365
  9
$TDUPDATE
 40
2452458.303032002
  9
$TDINDWG
 40
0.0005190509
  9
$TDUSRTIMER
 40
0.0005190509
  9
$USRTIMER
 70
     1
  9
$ANGBASE
 50
0.0
  9
$ANGDIR
 70
     0
  9
$PDMODE
 70
     0
  9
$PDSIZE
 40
0.0
  9
$PLINEWID
 40
0.0
  9
$COORDS
 70
     2
  9
$SPLFRAME
 70
     0
  9
$SPLINETYPE
 70
     6
  9
$SPLINESEGS
 70
     8
  9
$ATTDIA
 70
     0
  9
$ATTREQ
 70
     1
  9
$HANDLING
 70
 22529
  9
$HANDSEED
  5
7DE1B343D9E1E59
  9
$SURFTAB1
 70
     6
  9
$SURFTAB2
 70
     6
  9
$SURFTYPE
 70
     6
  9
$SURFU
 70
     6
  9
$SURFV
 70
     6
  9
$UCSNAME
  2

  9
$UCSORG
 10
0.0
 20
0.0
 30
0.0
  9
$UCSXDIR
 10
1.0
 20
0.0
 30
0.0
  9
$UCSYDIR
 10
0.0
 20
1.0
 30
0.0
  9
$PUCSNAME
  2

  9
$PUCSORG
 10
0.0
 20
0.0
 30
0.0
  9
$PUCSXDIR
 10
1.0
 20
0.0
 30
0.0
  9
$PUCSYDIR
 10
0.0
 20
1.0
 30
0.0
  9
$USERI1
 70
     0
  9
$USERI2
 70
     0
  9
$USERI3
 70
     0
  9
$USERI4
 70
     0
  9
$USERI5
 70
     0
  9
$USERR1
 40
0.0
  9
$USERR2
 40
0.0
  9
$USERR3
 40
0.0
  9
$USERR4
 40
0.0
  9
$USERR5
 40
0.0
  9
$WORLDVIEW
 70
     1
  9
$SHADEDGE
 70
     3
  9
$SHADEDIF
 70
    70
  9
$TILEMODE
 70
     1
  9
$MAXACTVP
 70
    16
  9
$PINSBASE
 10
0.0
 20
0.0
 30
0.0
  9
$PLIMCHECK
 70
     0
  9
$PEXTMIN
 10
1.000000000000000E+20
 20
1.000000000000000E+20
 30
1.000000000000000E+20
  9
$PEXTMAX
 10
-1.000000000000000E+20
 20
-1.000000000000000E+20
 30
-1.000000000000000E+20
  9
$PLIMMIN
 10
0.0
 20
0.0
  9
$PLIMMAX
 10
12.0
 20
9.0
  9
$UNITMODE
 70
     0
  9
$VISRETAIN
 70
     0
  9
$PLINEGEN
 70
     1
  9
$PSLTSCALE
 70
     0
  9
$TREEDEPTH
 70
  3020
  9
$PICKSTYLE
 70
     1
  9
$CMLSTYLE
  2
STANDARD
  9
$CMLJUST
 70
     0
  9
$CMLSCALE
 40
1.0
  9
$PROXYGRAPHICS
 70
     1
  9
$MEASUREMENT
 70
     0
  0
ENDSEC
  0
SECTION
  2
CLASSES
  0
CLASS
  1
LWPOLYLINE
  2
AcDbPolyline
  3
AutoCAD 2000
 90
        0
280
     0
281
     1
  0
CLASS
  1
ACDBDICTIONARYWDFLT
  2
AcDbDictionaryWithDefault
  3
AutoCAD 2000
 90
        0
280
     0
281
     0
  0
CLASS
  1
ACDBPLACEHOLDER
  2
AcDbPlaceHolder
  3
AutoCAD 2000
 90
        0
280
     0
281
     0
  0
CLASS
  1
LAYOUT
  2
AcDbLayout
  3
AutoCAD 2000
 90
        0
280
     0
281
     0
  0
CLASS
  1
DICTIONARYVAR
  2
AcDbDictionaryVar
  3
AutoCAD 2000
 90
        0
280
     0
281
     0
  0
CLASS
  1
LONG_TRANSACTION
  2
AcDbLongTransaction
  3
AutoCAD 2000
 90
        0
280
     0
281
     0
  0
CLASS
  1
LWPOLYLINE
  2
AcDbPolyline
  3
AutoCAD 2000
 90
        0
280
     0
281
     1
  0
CLASS
  1
HATCH
  2
AcDbHatch
  3
AutoCAD 2000
 90
        0
280
     0
281
     1
  0
CLASS
  1
XRECORD
  2
AcDbXrecord
  3
AutoCAD 2000
 90
        0
280
     0
281
     0
  0
ENDSEC
  0
SECTION
  2
TABLES
  0
TABLE
  2
VPORT
  5
7DE1B343D9E1E00
330
0
100
AcDbSymbolTable
 70
     2
  0
VPORT
  5
7DE1B343D9E1E34
330
7DE1B343D9E1E00
100
AcDbSymbolTableRecord
100
AcDbViewportTableRecord
  2
*ACTIVE
 70
     0
 10
0.0
 20
0.0
 11
1.0
 21
1.0
 12
4.411768092425334
 22
0.7517395237830229
 13
0.0
 23
0.0
 14
0.015625
 24
0.015625
 15
0.0
 25
0.0
 16
0.0
 26
0.0
 36
1.0
 17
0.0
 27
0.0
 37
0.0
 40
2.282194787933889
 41
4.320930232558139
 42
50.0
 43
0.0
 44
0.0
 50
0.0
 51
0.0
 71
     0
 72
  2000
 73
     1
 74
     0
 75
     0
 76
     0
 77
     0
 78
     0
  0
ENDTAB
  0
TABLE
  2
LTYPE
  5
7DE1B343D9E1DFD
330
0
100
AcDbSymbolTable
 70
     1
  0
LTYPE
  5
7DE1B343D9E1E0A
330
7DE1B343D9E1DFD
100
AcDbSymbolTableRecord
100
AcDbLinetypeTableRecord
  2
BYBLOCK
 70
     0
  3

 72
    65
 73
     0
 40
0.0
  0
LTYPE
  5
7DE1B343D9E1E0B
330
7DE1B343D9E1DFD
100
AcDbSymbolTableRecord
100
AcDbLinetypeTableRecord
  2
BYLAYER
 70
     0
  3

 72
    65
 73
     0
 40
0.0
  0
LTYPE
  5
7DE1B343D9E1E0C
330
7DE1B343D9E1DFD
100
AcDbSymbolTableRecord
100
AcDbLinetypeTableRecord
  2
CONTINUOUS
 70
     0
  3
Solid line
 72
    65
 73
     0
 40
0.0
  0
ENDTAB
  0
TABLE
  2
LAYER
  5
7DE1B343D9E1DFA
330
0
100
AcDbSymbolTable
 70
     2
  0
LAYER
  5
7DE1B343D9E1E07
330
7DE1B343D9E1DFA
100
AcDbSymbolTableRecord
100
AcDbLayerTableRecord
  2
0
 70
     0
 62
     7
  6
CONTINUOUS
  0
LAYER
  5
7DE1B343D9E1E17
330
7DE1B343D9E1DFA
100
AcDbSymbolTableRecord
100
AcDbLayerTableRecord
  2
TEXT
 70
     0
 62
     3
  6
CONTINUOUS
  0
ENDTAB
  0
TABLE
  2
STYLE
  5
7DE1B343D9E1DFB
330
0
100
AcDbSymbolTable
 70
     3
  0
STYLE
  5
7DE1B343D9E1E08
330
7DE1B343D9E1DFB
100
AcDbSymbolTableRecord
100
AcDbTextStyleTableRecord
  2
STANDARD
 70
     0
 40
0.0
 41
1.0
 50
0.0
 71
     0
 42
0.3125
  3
txt
  4

  0
STYLE
  5
7DE1B343D9E1E14
330
7DE1B343D9E1DFB
100
AcDbSymbolTableRecord
100
AcDbTextStyleTableRecord
  2
ITALICC
 70
     0
 40
0.0
 41
1.0
 50
0.0
 71
     0
 42
0.125
  3
italicc
  4

  0
STYLE
  5
7DE1B343D9E1E24
330
7DE1B343D9E1DFB
100
AcDbSymbolTableRecord
100
AcDbTextStyleTableRecord
  2
ROMANS
 70
     0
 40
0.0
 41
1.0
 50
0.0
 71
     0
 42
0.125
  3
romans.shx
  4

  0
ENDTAB
  0
TABLE
  2
VIEW
  5
7DE1B343D9E1DFE
330
0
100
AcDbSymbolTable
 70
     0
  0
ENDTAB
  0
TABLE
  2
UCS
  5
7DE1B343D9E1DFF
330
0
100
AcDbSymbolTable
 70
     0
  0
ENDTAB
  0
TABLE
  2
APPID
  5
7DE1B343D9E1E01
330
0
100
AcDbSymbolTable
 70
     1
  0
APPID
  5
7DE1B343D9E1E09
330
7DE1B343D9E1E01
100
AcDbSymbolTableRecord
100
AcDbRegAppTableRecord
  2
ACAD
 70
     0
  0
ENDTAB
  0
TABLE
  2
DIMSTYLE
  5
7DE1B343D9E1E02
330
0
100
AcDbSymbolTable
 70
     1
  0
DIMSTYLE
105
7DE1B343D9E1E1C
330
7DE1B343D9E1E02
100
AcDbSymbolTableRecord
100
AcDbDimStyleTableRecord
  2
STANDARD
 70
     0
  3

  4

  5

  6

  7

 40
1.0
 41
0.125
 42
0.125
 43
0.375
 44
0.125
 45
0.0
 46
0.0
 47
0.0
 48
0.0
140
0.125
141
-0.125
142
0.0
143
25.4
144
1.0
145
0.0
146
1.0
147
0.09
 71
     0
 72
     0
 73
     1
 74
     1
 75
     0
 76
     0
 77
     0
 78
     4
170
     0
171
     2
172
     0
173
     0
174
     1
175
     0
176
     0
177
     0
178
     0
270
     2
271
     3
272
     3
273
     2
274
     2
340
7DE1B343D9E1E24
275
     0
280
     0
281
     0
282
     0
283
     1
284
     4
285
     0
286
     0
287
     3
288
     0
  0
ENDTAB
  0
TABLE
  2
BLOCK_RECORD
  5
7DE1B343D9E1DF9
330
0
100
AcDbSymbolTable
 70
     0
  0
BLOCK_RECORD
  5
7DE1B343D9E1E10
102
{ACAD_XDICTIONARY
360
7DE1B343D9E1E57
102
}
330
7DE1B343D9E1DF9
100
AcDbSymbolTableRecord
100
AcDbBlockTableRecord
  2
*MODEL_SPACE
  0
BLOCK_RECORD
  5
7DE1B343D9E1E0D
102
{ACAD_XDICTIONARY
360
7DE1B343D9E1E55
102
}
330
7DE1B343D9E1DF9
100
AcDbSymbolTableRecord
100
AcDbBlockTableRecord
  2
*PAPER_SPACE
  0
ENDTAB
  0
ENDSEC
  0
SECTION
  2
BLOCKS
  0
BLOCK
  5
7DE1B343D9E1E1A
330
7DE1B343D9E1E10
100
AcDbEntity
  8
0
100
AcDbBlockBegin
  2
*MODEL_SPACE
 70
     0
 10
0.0
 20
0.0
 30
0.0
  3
*MODEL_SPACE
  1

  0
ENDBLK
  5
7DE1B343D9E1E1B
330
7DE1B343D9E1E10
100
AcDbEntity
  8
0
100
AcDbBlockEnd
  0
BLOCK
  5
7DE1B343D9E1E18
330
7DE1B343D9E1E0D
100
AcDbEntity
 67
     1
  8
0
100
AcDbBlockBegin
  2
*PAPER_SPACE
 70
     0
 10
0.0
 20
0.0
 30
0.0
  3
*PAPER_SPACE
  1

  0
ENDBLK
  5
7DE1B343D9E1E19
330
7DE1B343D9E1E0D
100
AcDbEntity
 67
     1
  8
0
100
AcDbBlockEnd
  0
ENDSEC
  0
SECTION
  2
ENTITIES
  0
LWPOLYLINE
  5
7DE1B343D9E0A2E
330
7DE1B343D9E1E10
100
AcDbEntity
  8
0
100
AcDbPolyline
 90
       14
 70
     1
 43
0.0
 10
1.289014536993834
 20
0.986339012750076
 42
0.4142135623730951
 10
1.304014536993834
 20
0.971339012750076
 10
1.325014536993834
 20
0.971339012750076
 42
0.4142135623730951
 10
1.340014536993834
 20
0.986339012750076
 10
1.340014536993834
 20
1.232839012750076
 10
1.533014536993834
 20
1.232839012750076
 10
1.533014536993834
 20
0.986339012750076
 42
0.4142135623730993
 10
1.548014536993834
 20
0.971339012750076
 10
1.569014536993834
 20
0.971339012750076
 42
0.4142135623730951
 10
1.584014536993834
 20
0.9863390127500759
 10
1.584014536993834
 20
1.268839012750076
 42
0.4142135623730951
 10
1.569014536993834
 20
1.283839012750076
 10
1.304014536993834
 20
1.283839012750075
 42
0.4142135623730951
 10
1.289014536993834
 20
1.268839012750075
  0
TEXT
  5
7DE1B343D9E1CBB
330
7DE1B343D9E1E10
100
AcDbEntity
  8
TEXT
100
AcDbText
 10
0.6954431084224063
 20
0.6744941782664153
 30
0.0
 40
0.125
  1
PART #110251
  7
ITALICC
 72
     1
 11
1.436514536993834
 21
0.6744941782664153
 31
0.0
100
AcDbText
  0
TEXT
  5
7DE1B343D9E1CBC
330
7DE1B343D9E1E10
100
AcDbEntity
  8
TEXT
100
AcDbText
 10
1.849819695244155
 20
0.2275715355940402
 30
0.0
 40
0.0522247191011236
  1
Phone  1-800-328-2495
 41
1.272321428571429
 72
     5
 11
3.178752279513819
 21
0.2275715355940402
 31
0.0
100
AcDbText
  0
TEXT
  5
7DE1B343D9E1CBD
330
7DE1B343D9E1E10
100
AcDbEntity
  8
TEXT
100
AcDbText
 10
1.849819695244155
 20
0.5073468164929168
 30
0.0
 40
0.0522247191011236
  1
Stylmark  Incorporated
 41
1.221428571428573
 72
     5
 11
3.178752279513819
 21
0.5073468164929168
 31
0.0
100
AcDbText
  0
TEXT
  5
7DE1B343D9E1CBE
330
7DE1B343D9E1E10
100
AcDbEntity
  8
TEXT
100
AcDbText
 10
1.849819695244155
 20
0.4140883895266246
 30
0.0
 40
0.0522247191011236
  1
6536 Main St. N.E. * P.O. Box 32008
 41
0.8388932496075366
 72
     5
 11
3.178752279513819
 21
0.4140883895266246
 31
0.0
100
AcDbText
  0
TEXT
  5
7DE1B343D9E1CBF
330
7DE1B343D9E1E10
100
AcDbEntity
  8
TEXT
100
AcDbText
 10
1.849819695244155
 20
0.3208299625603324
 30
0.0
 40
0.0522247191011236
  1
Minneapolis, MN 55432-0008
 41
1.11444212721585
 72
     5
 11
3.178752279513819
 21
0.3208299625603324
 31
0.0
100
AcDbText
  0
LWPOLYLINE
  5
7DE1B343D9E1CC0
330
7DE1B343D9E1E10
100
AcDbEntity
  8
TEXT
100
AcDbPolyline
 90
        3
 70
     0
 43
0.0006660908203125
 10
-0.3061339968231524
 20
0.341216298231475
 10
-0.3061339968231524
 20
0.2279808587783474
 10
-0.1928985573700301
 20
0.2279808587783474
  0
LWPOLYLINE
  5
7DE1B343D9E1CC5
330
7DE1B343D9E1E10
100
AcDbEntity
  8
TEXT
100
AcDbPolyline
 90
        3
 70
     0
 43
0.0006660908203125
 10
-0.279490364010655
 20
0.341216298231475
 10
-0.279490364010655
 20
0.2546244915908484
 10
-0.1928985573700301
 20
0.2546244915908484
  0
LWPOLYLINE
  5
7DE1B343D9E1CCA
330
7DE1B343D9E1E10
100
AcDbEntity
  8
TEXT
100
AcDbPolyline
 90
        2
 70
     0
 43
0.0001332181640625
 10
-0.2328640065887781
 20
0.3512076605361603
 10
-0.3061339968231524
 20
0.341216298231475
  0
LWPOLYLINE
  5
7DE1B343D9E1CCE
330
7DE1B343D9E1E10
100
AcDbEntity
  8
TEXT
100
AcDbPolyline
 90
        2
 70
     0
 43
0.0001332181640625
 10
-0.279490364010655
 20
0.341216298231475
 10
-0.2195421901825276
 20
0.3512076605361603
  0
LWPOLYLINE
  5
7DE1B343D9E1CD2
330
7DE1B343D9E1E10
100
AcDbEntity
  8
TEXT
100
AcDbPolyline
 90
        2
 70
     0
 43
0.0001332181640625
 10
-0.279490364010655
 20
0.2546244915908484
 10
-0.2195421901825276
 20
0.314572665418974
  0
LWPOLYLINE
  5
7DE1B343D9E1CD6
330
7DE1B343D9E1E10
100
AcDbEntity
  8
TEXT
100
AcDbPolyline
 90
        3
 70
     0
 43
0.0006660908203125
 10
-0.1928985573700301
 20
0.4944171869033508
 10
-0.3061339968231524
 20
0.4944171869033508
 10
-0.3061339968231524
 20
0.381181747450223
  0
LWPOLYLINE
  5
7DE1B343D9E1CDB
330
7DE1B343D9E1E10
100
AcDbEntity
  8
TEXT
100
AcDbPolyline
 90
        3
 70
     0
 43
0.0006660908203125
 10
-0.1928985573700301
 20
0.4677735540908497
 10
-0.279490364010655
 20
0.4677735540908497
 10
-0.279490364010655
 20
0.381181747450223
  0
LWPOLYLINE
  5
7DE1B343D9E1CE0
330
7DE1B343D9E1E10
100
AcDbEntity
  8
TEXT
100
AcDbPolyline
 90
        2
 70
     0
 43
0.0001332181640625
 10
-0.279490364010655
 20
0.4677735540908497
 10
-0.2195421901825294
 20
0.4078253802627242
  0
LWPOLYLINE
  5
7DE1B343D9E1CE4
330
7DE1B343D9E1E10
100
AcDbEntity
  8
TEXT
100
AcDbPolyline
 90
        2
 70
     0
 43
0.0001332181640625
 10
-0.279490364010655
 20
0.381181747450223
 10
-0.2195421901825294
 20
0.3711903851455343
  0
LWPOLYLINE
  5
7DE1B343D9E1CE8
330
7DE1B343D9E1E10
100
AcDbEntity
  8
TEXT
100
AcDbPolyline
 90
        2
 70
     0
 43
0.0001332181640625
 10
-0.3061339968231524
 20
0.381181747450223
 10
-0.2328640065887781
 20
0.3711903851455343
  0
LWPOLYLINE
  5
7DE1B343D9E1CEC
330
7DE1B343D9E1E10
100
AcDbEntity
  8
TEXT
100
AcDbPolyline
 90
        2
 70
     0
 43
0.0006660908203125
 10
-0.279490364010655
 20
0.341216298231475
 10
-0.3061339968231524
 20
0.341216298231475
  0
LWPOLYLINE
  5
7DE1B343D9E1CF0
330
7DE1B343D9E1E10
100
AcDbEntity
  8
TEXT
100
AcDbPolyline
 90
        2
 70
     0
 43
0.0006660908203125
 10
-0.279490364010655
 20
0.381181747450223
 10
-0.3061339968231524
 20
0.381181747450223
  0
LINE
  5
7DE1B343D9E1CF4
330
7DE1B343D9E1E10
100
AcDbEntity
  8
TEXT
100
AcDbLine
 10
1.209056432303345
 20
0.4301404922465818
 30
0.0
 11
1.101850158916055
 21
0.4301404922465818
 31
0.0
  0
LINE
  5
7DE1B343D9E1CF5
330
7DE1B343D9E1E10
100
AcDbEntity
  8
TEXT
100
AcDbLine
 10
1.238087330647823
 20
0.4944171869033472
 30
0.0
 11
1.103255421430764
 21
0.4944171869033472
 31
0.0
  0
ARC
  5
7DE1B343D9E1CF6
330
7DE1B343D9E1E10
100
AcDbEntity
  8
TEXT
100
AcDbCircle
 10
1.162569517824081
 20
0.3251799376403308
 30
0.0
 40
0.0676855811441166
100
AcDbArc
 50
90.0
 51
153.7768192527749
  0
LWPOLYLINE
  5
7DE1B343D9E1CF7
330
7DE1B343D9E1E10
100
AcDbEntity
  8
TEXT
100
AcDbPolyline
 90
        2
 70
     0
 43
0.0
 10
1.100817663461245
 20
0.2714350988652743
 42
0.2901071551932823
 10
1.143893596328881
 20
0.2279441539148361
 42
5.328517124445801
  0
ARC
  5
7DE1B343D9E1CFB
330
7DE1B343D9E1E10
100
AcDbEntity
  8
TEXT
100
AcDbCircle
 10
0.4574381401525956
 20
0.2877365452528859
 30
0.0
 40
0.0601160179737537
100
AcDbArc
 50
180.0000000000003
 51
264.0521544866073
  0
LINE
  5
7DE1B343D9E1CFC
330
7DE1B343D9E1E10
100
AcDbEntity
  8
TEXT
100
AcDbLine
 10
0.4609534957781434
 20
0.5288051044974854
 30
0.0
 11
0.4009108909341364
 21
0.5288051044974854
 31
0.0
  0
ARC
  5
7DE1B343D9E1CFD
330
7DE1B343D9E1E10
100
AcDbEntity
  8
TEXT
100
AcDbCircle
 10
0.2251791380356249
 20
0.4123297274568455
 30
0.0
 40
0.0820874594465043
100
AcDbArc
 50
90.0
 51
270.0
  0
LWPOLYLINE
  5
7DE1B343D9E1CFE
330
7DE1B343D9E1E10
100
AcDbEntity
  8
TEXT
100
AcDbPolyline
 90
        2
 70
     0
 43
0.0001332181640625
 10
-0.1829071950653396
 20
0.4211471966689711
 10
-0.1928985573700301
 20
0.4944171869033508
  0
LWPOLYLINE
  5
7DE1B343D9E1D02
330
7DE1B343D9E1E10
100
AcDbEntity
  8
TEXT
100
AcDbPolyline
 90
        2
 70
     0
 43
0.0001332181640625
 10
-0.1928985573700301
 20
0.4677735540908497
 10
-0.1829071950653396
 20
0.4078253802627242
  0
LWPOLYLINE
  5
7DE1B343D9E1D06
330
7DE1B343D9E1E10
100
AcDbEntity
  8
TEXT
100
AcDbPolyline
 90
        3
 70
     0
 43
0.0006660908203125
 10
-0.0396976686981527
 20
0.381181747450223
 10
-0.0396976686981527
 20
0.4944171869033508
 10
-0.1529331081512786
 20
0.4944171869033508
  0
LWPOLYLINE
  5
7DE1B343D9E1D0B
330
7DE1B343D9E1E10
100
AcDbEntity
  8
TEXT
100
AcDbPolyline
 90
        3
 70
     0
 43
0.0006660908203125
 10
-0.0663413015106538
 20
0.381181747450223
 10
-0.0663413015106538
 20
0.4677735540908497
 10
-0.1529331081512786
 20
0.4677735540908497
  0
LWPOLYLINE
  5
7DE1B343D9E1D10
330
7DE1B343D9E1E10
100
AcDbEntity
  8
TEXT
100
AcDbPolyline
 90
        2
 70
     0
 43
0.0001332181640625
 10
-0.0663413015106538
 20
0.4677735540908497
 10
-0.1262894753387775
 20
0.4078253802627242
  0
LWPOLYLINE
  5
7DE1B343D9E1D14
330
7DE1B343D9E1E10
100
AcDbEntity
  8
TEXT
100
AcDbPolyline
 90
        2
 70
     0
 43
0.0001332181640625
 10
-0.1529331081512786
 20
0.4677735540908497
 10
-0.1629244704559674
 20
0.4078253802627242
  0
LWPOLYLINE
  5
7DE1B343D9E1D18
330
7DE1B343D9E1E10
100
AcDbEntity
  8
TEXT
100
AcDbPolyline
 90
        2
 70
     0
 43
0.0001332181640625
 10
-0.1529331081512786
 20
0.4944171869033508
 10
-0.1629244704559674
 20
0.4211471966689711
  0
LWPOLYLINE
  5
7DE1B343D9E1D1C
330
7DE1B343D9E1E10
100
AcDbEntity
  8
TEXT
100
AcDbPolyline
 90
        2
 70
     0
 43
0.0001332181640625
 10
-0.1129676589325288
 20
0.3711903851455343
 10
-0.0396976686981527
 20
0.381181747450223
  0
LWPOLYLINE
  5
7DE1B343D9E1D20
330
7DE1B343D9E1E10
100
AcDbEntity
  8
TEXT
100
AcDbPolyline
 90
        2
 70
     0
 43
0.0001332181640625
 10
-0.0663413015106538
 20
0.381181747450223
 10
-0.1262894753387775
 20
0.3711903851455343
  0
LWPOLYLINE
  5
7DE1B343D9E1D24
330
7DE1B343D9E1E10
100
AcDbEntity
  8
TEXT
100
AcDbPolyline
 90
        2
 70
     0
 43
0.0001332181640625
 10
-0.0396976686981527
 20
0.341216298231475
 10
-0.1129676589325288
 20
0.3512076605361603
  0
LWPOLYLINE
  5
7DE1B343D9E1D28
330
7DE1B343D9E1E10
100
AcDbEntity
  8
TEXT
100
AcDbPolyline
 90
        2
 70
     0
 43
0.0001332181640625
 10
-0.0663413015106538
 20
0.341216298231475
 10
-0.1262894753387775
 20
0.3512076605361603
  0
LWPOLYLINE
  5
7DE1B343D9E1D2C
330
7DE1B343D9E1E10
100
AcDbEntity
  8
TEXT
100
AcDbPolyline
 90
        2
 70
     0
 43
0.0001332181640625
 10
-0.0663413015106538
 20
0.2546244915908484
 10
-0.1262894753387775
 20
0.314572665418974
  0
LWPOLYLINE
  5
7DE1B343D9E1D30
330
7DE1B343D9E1E10
100
AcDbEntity
  8
TEXT
100
AcDbPolyline
 90
        3
 70
     0
 43
0.0006660908203125
 10
-0.1529331081512786
 20
0.2546244915908484
 10
-0.0663413015106538
 20
0.2546244915908484
 10
-0.0663413015106538
 20
0.341216298231475
  0
LWPOLYLINE
  5
7DE1B343D9E1D35
330
7DE1B343D9E1E10
100
AcDbEntity
  8
TEXT
100
AcDbPolyline
 90
        3
 70
     0
 43
0.0006660908203125
 10
-0.1529331081512786
 20
0.2279808587783474
 10
-0.0396976686981527
 20
0.2279808587783474
 10
-0.0396976686981527
 20
0.341216298231475
  0
LWPOLYLINE
  5
7DE1B343D9E1D3A
330
7DE1B343D9E1E10
100
AcDbEntity
  8
TEXT
100
AcDbPolyline
 90
        5
 70
     0
 43
0.0001332181640625
 10
-0.1829071950653396
 20
0.3012508490127235
 10
-0.1829071950653396
 20
0.314572665418974
 10
-0.2195421901825276
 20
0.314572665418974
 10
-0.2195421901825276
 20
0.3512076605361603
 10
-0.2328640065887781
 20
0.3512076605361603
  0
LWPOLYLINE
  5
7DE1B343D9E1D41
330
7DE1B343D9E1E10
100
AcDbEntity
  8
TEXT
100
AcDbPolyline
 90
        2
 70
     0
 43
0.0006660908203125
 10
-0.1928985573700301
 20
0.2546244915908484
 10
-0.1928985573700301
 20
0.2279808587783474
  0
LWPOLYLINE
  5
7DE1B343D9E1D45
330
7DE1B343D9E1E10
100
AcDbEntity
  8
TEXT
100
AcDbPolyline
 90
        2
 70
     0
 43
0.0001332181640625
 10
-0.1928985573700301
 20
0.2546244915908484
 10
-0.1829071950653396
 20
0.314572665418974
  0
LWPOLYLINE
  5
7DE1B343D9E1D49
330
7DE1B343D9E1E10
100
AcDbEntity
  8
TEXT
100
AcDbPolyline
 90
        2
 70
     0
 43
0.0001332181640625
 10
-0.1928985573700301
 20
0.2279808587783474
 10
-0.1829071950653396
 20
0.3012508490127235
  0
LWPOLYLINE
  5
7DE1B343D9E1D4D
330
7DE1B343D9E1E10
100
AcDbEntity
  8
TEXT
100
AcDbPolyline
 90
        5
 70
     0
 43
0.0001332181640625
 10
-0.2328640065887781
 20
0.3711903851455343
 10
-0.2195421901825294
 20
0.3711903851455343
 10
-0.2195421901825294
 20
0.4078253802627242
 10
-0.1829071950653396
 20
0.4078253802627242
 10
-0.1829071950653396
 20
0.4211471966689711
  0
LWPOLYLINE
  5
7DE1B343D9E1D54
330
7DE1B343D9E1E10
100
AcDbEntity
  8
TEXT
100
AcDbPolyline
 90
        5
 70
     0
 43
0.0001332181640625
 10
-0.1629244704559674
 20
0.4211471966689711
 10
-0.1629244704559674
 20
0.4078253802627242
 10
-0.1262894753387775
 20
0.4078253802627242
 10
-0.1262894753387775
 20
0.3711903851455343
 10
-0.1129676589325288
 20
0.3711903851455343
  0
LWPOLYLINE
  5
7DE1B343D9E1D5B
330
7DE1B343D9E1E10
100
AcDbEntity
  8
TEXT
100
AcDbPolyline
 90
        2
 70
     0
 43
0.0001332181640625
 10
-0.1529331081512786
 20
0.2546244915908484
 10
-0.1629244704559674
 20
0.314572665418974
  0
LWPOLYLINE
  5
7DE1B343D9E1D5F
330
7DE1B343D9E1E10
100
AcDbEntity
  8
TEXT
100
AcDbPolyline
 90
        2
 70
     0
 43
0.0001332181640625
 10
-0.1629244704559674
 20
0.3012508490127235
 10
-0.1529331081512786
 20
0.2279808587783474
  0
LWPOLYLINE
  5
7DE1B343D9E1D63
330
7DE1B343D9E1E10
100
AcDbEntity
  8
TEXT
100
AcDbPolyline
 90
        2
 70
     0
 43
0.0006660908203125
 10
-0.1529331081512786
 20
0.2546244915908484
 10
-0.1529331081512786
 20
0.2279808587783474
  0
LWPOLYLINE
  5
7DE1B343D9E1D67
330
7DE1B343D9E1E10
100
AcDbEntity
  8
TEXT
100
AcDbPolyline
 90
        5
 70
     0
 43
0.0001332181640625
 10
-0.1129676589325288
 20
0.3512076605361603
 10
-0.1262894753387775
 20
0.3512076605361603
 10
-0.1262894753387775
 20
0.314572665418974
 10
-0.1629244704559674
 20
0.314572665418974
 10
-0.1629244704559674
 20
0.3012508490127235
  0
LWPOLYLINE
  5
7DE1B343D9E1D6E
330
7DE1B343D9E1E10
100
AcDbEntity
  8
TEXT
100
AcDbPolyline
 90
        2
 70
     0
 43
0.0006660908203125
 10
-0.0663413015106538
 20
0.381181747450223
 10
-0.0396976686981527
 20
0.381181747450223
  0
LWPOLYLINE
  5
7DE1B343D9E1D72
330
7DE1B343D9E1E10
100
AcDbEntity
  8
TEXT
100
AcDbPolyline
 90
        2
 70
     0
 43
0.0006660908203125
 10
-0.0663413015106538
 20
0.341216298231475
 10
-0.0396976686981527
 20
0.341216298231475
  0
LINE
  5
7DE1B343D9E1D76
330
7DE1B343D9E1E10
100
AcDbEntity
  8
TEXT
100
AcDbLine
 10
0.2304164681498722
 20
0.4301404922465818
 30
0.0
 11
0.3973221221788434
 21
0.4301404922465818
 31
0.0
  0
LINE
  5
7DE1B343D9E1D77
330
7DE1B343D9E1E10
100
AcDbEntity
  8
TEXT
100
AcDbLine
 10
0.2960166043941732
 20
0.3943357706359538
 30
0.0
 11
0.2304164681498722
 21
0.3943357706359538
 31
0.0
  0
LINE
  5
7DE1B343D9E1D78
330
7DE1B343D9E1E10
100
AcDbEntity
  8
TEXT
100
AcDbLine
 10
0.1430916785891205
 20
0.2279441539148361
 30
0.0
 11
0.2960166043941732
 21
0.2279441539148361
 31
0.0
  0
LINE
  5
7DE1B343D9E1D79
330
7DE1B343D9E1E10
100
AcDbEntity
  8
TEXT
100
AcDbLine
 10
0.3009569783004529
 20
0.2963011602482755
 30
0.0
 11
0.1430916785891187
 21
0.2963011602482755
 31
0.0
  0
LINE
  5
7DE1B343D9E1D7A
330
7DE1B343D9E1E10
100
AcDbEntity
  8
TEXT
100
AcDbLine
 10
0.2251791380356241
 20
0.3302422680103401
 30
0.0
 11
0.3009569783004529
 21
0.3302422680103401
 31
0.0
  0
ARC
  5
7DE1B343D9E1D7B
330
7DE1B343D9E1E10
100
AcDbEntity
  8
TEXT
100
AcDbCircle
 10
0.230416468149873
 20
0.4122381314412696
 30
0.0
 40
0.017902360805315
100
AcDbArc
 50
90.0
 51
270.0
  0
LINE
  5
7DE1B343D9E1D7C
330
7DE1B343D9E1E10
100
AcDbEntity
  8
TEXT
100
AcDbLine
 10
0.1430916785891187
 20
0.2963011602482755
 30
0.0
 11
0.1430916785891205
 21
0.2279441539148361
 31
0.0
  0
LINE
  5
7DE1B343D9E1D7D
330
7DE1B343D9E1E10
100
AcDbEntity
  8
TEXT
100
AcDbLine
 10
0.3973221221788434
 20
0.4301404922465818
 30
0.0
 11
0.3973221221788434
 21
0.2877365452528859
 31
0.0
  0
ARC
  5
7DE1B343D9E1D7E
330
7DE1B343D9E1E10
100
AcDbEntity
  8
TEXT
100
AcDbCircle
 10
0.2960166043941741
 20
0.3111399622753932
 30
0.0
 40
0.0831958083605586
100
AcDbArc
 50
270.0
 51
90.0
  0
ARC
  5
7DE1B343D9E1D7F
330
7DE1B343D9E1E10
100
AcDbEntity
  8
TEXT
100
AcDbCircle
 10
0.3009569783004538
 20
0.3132717141293095
 30
0.0
 40
0.0169705538810321
100
AcDbArc
 50
270.0
 51
90.0
  0
LWPOLYLINE
  5
7DE1B343D9E1D80
330
7DE1B343D9E1E10
100
AcDbEntity
  8
TEXT
100
AcDbPolyline
 90
        2
 70
     0
 43
0.0006660908203125
 10
-0.1928985573700301
 20
0.4677735540908497
 10
-0.1928985573700301
 20
0.4944171869033508
  0
LWPOLYLINE
  5
7DE1B343D9E1D84
330
7DE1B343D9E1E10
100
AcDbEntity
  8
TEXT
100
AcDbPolyline
 90
        2
 70
     0
 43
0.0006660908203125
 10
-0.1529331081512786
 20
0.4677735540908497
 10
-0.1529331081512786
 20
0.4944171869033508
  0
LINE
  5
7DE1B343D9E1D88
330
7DE1B343D9E1E10
100
AcDbEntity
  8
TEXT
100
AcDbLine
 10
0.4009108909341364
 20
0.4944171869033472
 30
0.0
 11
0.2251791380356241
 21
0.4944171869033472
 31
0.0
  0
LINE
  5
7DE1B343D9E1D89
330
7DE1B343D9E1E10
100
AcDbEntity
  8
TEXT
100
AcDbLine
 10
0.4009108909341364
 20
0.5288051044974854
 30
0.0
 11
0.4009108909341364
 21
0.4944171869033472
 31
0.0
  0
LINE
  5
7DE1B343D9E1D8A
330
7DE1B343D9E1E10
100
AcDbEntity
  8
TEXT
100
AcDbLine
 10
0.5913827829539886
 20
0.3935451907902265
 30
0.0
 11
0.5327524619220508
 21
0.4944171869033472
 31
0.0
  0
LINE
  5
7DE1B343D9E1D8B
330
7DE1B343D9E1E10
100
AcDbEntity
  8
TEXT
100
AcDbLine
 10
0.6501313457598541
 20
0.4944171869033472
 30
0.0
 11
0.5913827829539886
 21
0.3935451907902265
 31
0.0
  0
LINE
  5
7DE1B343D9E1D8C
330
7DE1B343D9E1E10
100
AcDbEntity
  8
TEXT
100
AcDbLine
 10
0.7470619711195954
 20
0.3103319920178353
 30
0.0
 11
0.7470619711195954
 21
0.5624286646421578
 31
0.0
  0
LINE
  5
7DE1B343D9E1D8D
330
7DE1B343D9E1E10
100
AcDbEntity
  8
TEXT
100
AcDbLine
 10
0.7793738252572556
 20
0.4944171869033472
 30
0.0
 11
0.7793738252572556
 21
0.2935529801709389
 31
0.0
  0
LINE
  5
7DE1B343D9E1D8E
330
7DE1B343D9E1E10
100
AcDbEntity
  8
TEXT
100
AcDbLine
 10
0.7793738252572556
 20
0.2935529801709389
 30
0.0
 11
0.7623801883726542
 21
0.2935529801709389
 31
0.0
  0
LINE
  5
7DE1B343D9E1D8F
330
7DE1B343D9E1E10
100
AcDbEntity
  8
TEXT
100
AcDbLine
 10
0.7482015446157902
 20
0.2279441539148361
 30
0.0
 11
0.8462048783152248
 21
0.2279441539148361
 31
0.0
  0
LINE
  5
7DE1B343D9E1D90
330
7DE1B343D9E1E10
100
AcDbEntity
  8
TEXT
100
AcDbLine
 10
0.5817825459570343
 20
0.2479026600198491
 30
0.0
 11
0.6790822520504789
 21
0.4122528709551173
 31
0.0
  0
ARC
  5
7DE1B343D9E1D91
330
7DE1B343D9E1E10
100
AcDbEntity
  8
TEXT
100
AcDbCircle
 10
0.5477389860448203
 20
0.2674918761885319
 30
0.0
 40
0.0392772371940762
100
AcDbArc
 50
270.1604552698595
 51
330.0831797321295
  0
LINE
  5
7DE1B343D9E1D92
330
7DE1B343D9E1E10
100
AcDbEntity
  8
TEXT
100
AcDbLine
 10
0.4512087296589491
 20
0.2279441539148361
 30
0.0
 11
0.5478489807339435
 21
0.2282147930131184
 31
0.0
  0
LWPOLYLINE
  5
7DE1B343D9E1D93
330
7DE1B343D9E1E10
100
AcDbEntity
  8
TEXT
100
AcDbPolyline
 90
        6
 70
     1
 43
0.0
 10
0.4937325332340988
 20
0.4301404922465818
 10
0.4634159390138906
 20
0.4301404922465818
 10
0.4634159390138906
 20
0.3070294941916873
 42
0.407328721240804
 10
0.474959590175367
 20
0.2952105795153013
 10
0.5355812892200978
 20
0.2952105795153013
 10
0.5530466296274157
 20
0.3280228085587804
  0
LINE
  5
7DE1B343D9E1D9B
330
7DE1B343D9E1E10
100
AcDbEntity
  8
TEXT
100
AcDbLine
 10
0.6790822520504789
 20
0.4122528709551173
 30
0.0
 11
0.6790822520504789
 21
0.2794954961297609
 31
0.0
  0
ARC
  5
7DE1B343D9E1D9C
330
7DE1B343D9E1E10
100
AcDbEntity
  8
TEXT
100
AcDbCircle
 10
0.7623801883726525
 20
0.3089347864143643
 30
0.0
 40
0.0153818062434269
100
AcDbArc
 50
174.7883570302258
 51
270.0
  0
LWPOLYLINE
  5
7DE1B343D9E1D9D
330
7DE1B343D9E1E10
100
AcDbEntity
  8
TEXT
100
AcDbPolyline
 90
        2
 70
     0
 43
0.0
 10
0.6790822520504772
 20
0.2794954961297644
 42
0.3318488747599744
 10
0.7482015446157902
 20
0.2279441539148361
 42
-6.868794160588311
  0
LINE
  5
7DE1B343D9E1DA1
330
7DE1B343D9E1E10
100
AcDbEntity
  8
TEXT
100
AcDbLine
 10
0.9035939473044859
 20
0.2279441539148361
 30
0.0
 11
0.9706519940863259
 21
0.2279441539148361
 31
0.0
  0
LINE
  5
7DE1B343D9E1DA2
330
7DE1B343D9E1E10
100
AcDbEntity
  8
TEXT
100
AcDbLine
 10
0.9035939473044859
 20
0.4225867030804718
 30
0.0
 11
0.9035939473044859
 21
0.2279441539148361
 31
0.0
  0
LINE
  5
7DE1B343D9E1DA3
330
7DE1B343D9E1E10
100
AcDbEntity
  8
TEXT
100
AcDbLine
 10
0.8462048783152248
 20
0.4301404922465818
 30
0.0
 11
0.8960401581383724
 21
0.4301404922465818
 31
0.0
  0
LINE
  5
7DE1B343D9E1DA4
330
7DE1B343D9E1E10
100
AcDbEntity
  8
TEXT
100
AcDbLine
 10
0.8462048783152248
 20
0.2279441539148361
 30
0.0
 11
0.8462048783152248
 21
0.4301404922465818
 31
0.0
  0
LWPOLYLINE
  5
7DE1B343D9E1DA5
330
7DE1B343D9E1E10
100
AcDbEntity
  8
TEXT
100
AcDbPolyline
 90
        2
 70
     0
 43
0.0
 10
0.8960401581383706
 20
0.4301404922465818
 42
-0.4142135623731017
 10
0.9035939473044841
 20
0.4225867030804718
 42
-0.9999999999999998
  0
LINE
  5
7DE1B343D9E1DA9
330
7DE1B343D9E1E10
100
AcDbEntity
  8
TEXT
100
AcDbLine
 10
1.101850158916055
 20
0.4301404922465818
 30
0.0
 11
1.101850158916055
 21
0.3550880861723751
 31
0.0
  0
LINE
  5
7DE1B343D9E1DAA
330
7DE1B343D9E1E10
100
AcDbEntity
  8
TEXT
100
AcDbLine
 10
0.9706519940863259
 20
0.4301404922465818
 30
0.0
 11
1.024785591007276
 21
0.4301404922465818
 31
0.0
  0
LINE
  5
7DE1B343D9E1DAB
330
7DE1B343D9E1E10
100
AcDbEntity
  8
TEXT
100
AcDbLine
 10
0.9706519940863259
 20
0.2279441539148361
 30
0.0
 11
0.9706519940863259
 21
0.4301404922465818
 31
0.0
  0
LWPOLYLINE
  5
7DE1B343D9E1DAC
330
7DE1B343D9E1E10
100
AcDbEntity
  8
TEXT
100
AcDbPolyline
 90
        2
 70
     0
 43
0.0
 10
1.024785591007274
 20
0.4301404922465818
 42
-0.4142135623731017
 10
1.032339380173387
 20
0.4225867030804718
 42
-0.9999999999999998
  0
LWPOLYLINE
  5
7DE1B343D9E1DB0
330
7DE1B343D9E1E10
100
AcDbEntity
  8
TEXT
100
AcDbPolyline
 90
        4
 70
     0
 43
0.0
 10
1.032339380173387
 20
0.4225867030804718
 10
1.032339380173387
 20
0.2279441539148361
 10
1.100817663461245
 20
0.2279441539148361
 10
1.100817663461245
 20
0.2714350988652743
 42
-1.714843617202739
  0
LINE
  5
7DE1B343D9E1DB6
330
7DE1B343D9E1E10
100
AcDbEntity
  8
TEXT
100
AcDbLine
 10
0.4609534957781434
 20
0.4944171869033472
 30
0.0
 11
0.4609534957781434
 21
0.5288051044974854
 31
0.0
  0
LINE
  5
7DE1B343D9E1DB7
330
7DE1B343D9E1E10
100
AcDbEntity
  8
TEXT
100
AcDbLine
 10
0.5327524619220508
 20
0.4944171869033472
 30
0.0
 11
0.4609534957781434
 21
0.4944171869033472
 31
0.0
  0
LINE
  5
7DE1B343D9E1DB8
330
7DE1B343D9E1E10
100
AcDbEntity
  8
TEXT
100
AcDbLine
 10
0.6802532585532304
 20
0.4944171869033472
 30
0.0
 11
0.6501313457598541
 21
0.4944171869033472
 31
0.0
  0
LINE
  5
7DE1B343D9E1DB9
330
7DE1B343D9E1E10
100
AcDbEntity
  8
TEXT
100
AcDbLine
 10
0.6802532585532304
 20
0.5624286646421578
 30
0.0
 11
0.6802532585532304
 21
0.4944171869033472
 31
0.0
  0
LINE
  5
7DE1B343D9E1DBA
330
7DE1B343D9E1E10
100
AcDbEntity
  8
TEXT
100
AcDbLine
 10
0.7470619711195954
 20
0.5624286646421578
 30
0.0
 11
0.6802532585532304
 21
0.5624286646421578
 31
0.0
  0
LWPOLYLINE
  5
7DE1B343D9E1DBB
330
7DE1B343D9E1E10
100
AcDbEntity
  8
TEXT
100
AcDbPolyline
 90
        3
 70
     0
 43
0.0
 10
1.067473730717597
 20
0.4944171869033508
 10
0.9491735719015533
 20
0.4944171869033508
 10
0.9491735719015533
 20
0.4672496901424548
 42
-1.960274751411753
  0
LINE
  5
7DE1B343D9E1DC0
330
7DE1B343D9E1E10
100
AcDbEntity
  8
TEXT
100
AcDbLine
 10
0.9133918811883919
 20
0.4944171869033472
 30
0.0
 11
0.7793738252572556
 21
0.4944171869033472
 31
0.0
  0
LWPOLYLINE
  5
7DE1B343D9E1DC1
330
7DE1B343D9E1E10
100
AcDbEntity
  8
TEXT
100
AcDbPolyline
 90
        2
 70
     0
 43
0.0
 10
0.9133918811883919
 20
0.4944171869033508
 42
-0.3328679258950098
 10
0.9491735719015533
 20
0.4672496901424548
 42
6.772930709997214
  0
LINE
  5
7DE1B343D9E1DC5
330
7DE1B343D9E1E10
100
AcDbEntity
  8
TEXT
100
AcDbLine
 10
1.103255421430764
 20
0.4944171869033472
 30
0.0
 11
1.103255421430764
 21
0.4660946411337033
 31
0.0
  0
LWPOLYLINE
  5
7DE1B343D9E1DC6
330
7DE1B343D9E1E10
100
AcDbEntity
  8
TEXT
100
AcDbPolyline
 90
        2
 70
     0
 43
0.0
 10
1.067473730717597
 20
0.4944171869033508
 42
-0.3277054968067132
 10
1.103255421430762
 20
0.4660946411337069
 42
6.667889725900311
  0
LINE
  5
7DE1B343D9E1DCA
330
7DE1B343D9E1E10
100
AcDbEntity
  8
TEXT
100
AcDbLine
 10
1.317047269522864
 20
0.3892052083499198
 30
0.0
 11
1.273296498340962
 21
0.4714554843460651
 31
0.0
  0
LINE
  5
7DE1B343D9E1DCB
330
7DE1B343D9E1E10
100
AcDbEntity
  8
TEXT
100
AcDbLine
 10
1.317047269522864
 20
0.4944171869033472
 30
0.0
 11
1.317047269522864
 21
0.3892052083499198
 31
0.0
  0
LINE
  5
7DE1B343D9E1DCC
330
7DE1B343D9E1E10
100
AcDbEntity
  8
TEXT
100
AcDbLine
 10
1.544731008461233
 20
0.4185518604918091
 30
0.0
 11
1.544731008461233
 21
0.5598813926709479
 31
0.0
  0
LINE
  5
7DE1B343D9E1DCD
330
7DE1B343D9E1E10
100
AcDbEntity
  8
TEXT
100
AcDbLine
 10
1.591829167017217
 20
0.4944171869033472
 30
0.0
 11
1.544731008461233
 21
0.4185518604918091
 31
0.0
  0
LINE
  5
7DE1B343D9E1DCE
330
7DE1B343D9E1E10
100
AcDbEntity
  8
TEXT
100
AcDbLine
 10
1.60226388378114
 20
0.3845239439623735
 30
0.0
 11
1.666820999746846
 21
0.4944171869033472
 31
0.0
  0
LINE
  5
7DE1B343D9E1DCF
330
7DE1B343D9E1E10
100
AcDbEntity
  8
TEXT
100
AcDbLine
 10
1.48089601723846
 20
0.2279441539148361
 30
0.0
 11
1.54527420155708
 21
0.2279441539148361
 31
0.0
  0
LWPOLYLINE
  5
7DE1B343D9E1DD0
330
7DE1B343D9E1E10
100
AcDbEntity
  8
TEXT
100
AcDbPolyline
 90
        2
 70
     0
 43
0.0
 10
1.320986946827902
 20
0.2714350988652743
 42
-0.2901071551932486
 10
1.277911013960257
 20
0.2279441539148361
 42
-5.328517124445184
  0
ARC
  5
7DE1B343D9E1DD4
330
7DE1B343D9E1E10
100
AcDbEntity
  8
TEXT
100
AcDbCircle
 10
1.209056432303343
 20
0.4017811172465845
 30
0.0
 40
0.028359375
100
AcDbArc
 50
25.78218179591245
 51
90.0
  0
LINE
  5
7DE1B343D9E1DD5
330
7DE1B343D9E1E10
100
AcDbEntity
  8
TEXT
100
AcDbLine
 10
1.244857507607466
 20
0.3928655187844494
 30
0.0
 11
1.234592747193901
 21
0.4141160583571438
 31
0.0
  0
LINE
  5
7DE1B343D9E1DD6
330
7DE1B343D9E1E10
100
AcDbEntity
  8
TEXT
100
AcDbLine
 10
1.162569517824083
 20
0.3928655187844494
 30
0.0
 11
1.244857507607466
 21
0.3928655187844494
 31
0.0
  0
LWPOLYLINE
  5
7DE1B343D9E1DD7
330
7DE1B343D9E1E10
100
AcDbEntity
  8
TEXT
100
AcDbPolyline
 90
        4
 70
     1
 43
0.0
 10
1.257788548890365
 20
0.3309081318988614
 10
1.169128230230506
 20
0.3309081318988614
 42
0.9999999999999998
 10
1.169128230230506
 20
0.2885095913950006
 10
1.257788548890365
 20
0.2885095913950006
 42
1.0
  0
LWPOLYLINE
  5
7DE1B343D9E1DDD
330
7DE1B343D9E1E10
100
AcDbEntity
  8
TEXT
100
AcDbPolyline
 90
        2
 70
     0
 43
0.0
 10
1.143893596328881
 20
0.2279441539148361
 10
1.277911013960257
 20
0.2279441539148361
 42
0.9999999999999998
  0
LINE
  5
7DE1B343D9E1DE1
330
7DE1B343D9E1E10
100
AcDbEntity
  8
TEXT
100
AcDbLine
 10
1.404248035945897
 20
0.4301404922465818
 30
0.0
 11
1.480896017238455
 21
0.4301404922465818
 31
0.0
  0
LINE
  5
7DE1B343D9E1DE2
330
7DE1B343D9E1E10
100
AcDbEntity
  8
TEXT
100
AcDbLine
 10
1.480896017238455
 20
0.4301404922465818
 30
0.0
 11
1.48089601723846
 21
0.2279441539148361
 31
0.0
  0
ARC
  5
7DE1B343D9E1DE3
330
7DE1B343D9E1E10
100
AcDbEntity
  8
TEXT
100
AcDbCircle
 10
1.404248035945895
 20
0.405234616963919
 30
0.0
 40
0.0249058752826653
100
AcDbArc
 50
89.99971217465335
 51
179.9999999999985
  0
LINE
  5
7DE1B343D9E1DE4
330
7DE1B343D9E1E10
100
AcDbEntity
  8
TEXT
100
AcDbLine
 10
1.379342160663238
 20
0.2279441539148361
 30
0.0
 11
1.379342160663232
 21
0.4052346593463046
 31
0.0
  0
LWPOLYLINE
  5
7DE1B343D9E1DE5
330
7DE1B343D9E1E10
100
AcDbEntity
  8
TEXT
100
AcDbPolyline
 90
        2
 70
     0
 43
0.0
 10
1.320986946827902
 20
0.2279441539148361
 10
1.379342160663236
 20
0.2279441539148361
  0
LWPOLYLINE
  5
7DE1B343D9E1DE9
330
7DE1B343D9E1E10
100
AcDbEntity
  8
TEXT
100
AcDbPolyline
 90
        2
 70
     0
 43
0.0
 10
1.320986946827902
 20
0.2714350988652743
 10
1.320986946827902
 20
0.2279441539148361
  0
LINE
  5
7DE1B343D9E1DED
330
7DE1B343D9E1E10
100
AcDbEntity
  8
TEXT
100
AcDbLine
 10
1.697756107144751
 20
0.2279441539148361
 30
0.0
 11
1.60226388378114
 21
0.3845239439623735
 31
0.0
  0
LINE
  5
7DE1B343D9E1DEE
330
7DE1B343D9E1E10
100
AcDbEntity
  8
TEXT
100
AcDbLine
 10
1.621177734768545
 20
0.2279441539148361
 30
0.0
 11
1.697756107144751
 21
0.2279441539148361
 31
0.0
  0
LINE
  5
7DE1B343D9E1DEF
330
7DE1B343D9E1E10
100
AcDbEntity
  8
TEXT
100
AcDbLine
 10
1.54527420155708
 20
0.3595237223910164
 30
0.0
 11
1.621177734768545
 21
0.2279441539148361
 31
0.0
  0
LINE
  5
7DE1B343D9E1DF0
330
7DE1B343D9E1E10
100
AcDbEntity
  8
TEXT
100
AcDbLine
 10
1.54527420155708
 20
0.2279441539148361
 30
0.0
 11
1.54527420155708
 21
0.3595237223910164
 31
0.0
  0
LINE
  5
7DE1B343D9E1DF1
330
7DE1B343D9E1E10
100
AcDbEntity
  8
TEXT
100
AcDbLine
 10
1.544731008461233
 20
0.5598813926709479
 30
0.0
 11
1.47641612991196
 21
0.5598813926709479
 31
0.0
  0
ARC
  5
7DE1B343D9E1DF2
330
7DE1B343D9E1E10
100
AcDbEntity
  8
TEXT
100
AcDbCircle
 10
1.236060390870754
 20
0.4528336197824448
 30
0.0
 40
0.0416329381542859
100
AcDbArc
 50
26.56974201007528
 51
87.20939649401342
  0
LINE
  5
7DE1B343D9E1DF3
330
7DE1B343D9E1E10
100
AcDbEntity
  8
TEXT
100
AcDbLine
 10
1.380944175822365
 20
0.4944171869033472
 30
0.0
 11
1.317047269522864
 21
0.4944171869033472
 31
0.0
  0
LINE
  5
7DE1B343D9E1DF4
330
7DE1B343D9E1E10
100
AcDbEntity
  8
TEXT
100
AcDbLine
 10
1.380944175822365
 20
0.4668695370424726
 30
0.0
 11
1.380944175822365
 21
0.4944171869033472
 31
0.0
  0
ARC
  5
7DE1B343D9E1DF5
330
7DE1B343D9E1E10
100
AcDbEntity
  8
TEXT
100
AcDbCircle
 10
1.412136992885473
 20
0.4631714596210824
 30
0.0
 40
0.0314112657011332
100
AcDbArc
 50
95.88484768694724
 51
173.2388340632136
  0
LINE
  5
7DE1B343D9E1DF6
330
7DE1B343D9E1E10
100
AcDbEntity
  8
TEXT
100
AcDbLine
 10
1.476416129911954
 20
0.4944171869033472
 30
0.0
 11
1.408916412262438
 21
0.4944171869033472
 31
0.0
  0
LINE
  5
7DE1B343D9E1DF7
330
7DE1B343D9E1E10
100
AcDbEntity
  8
TEXT
100
AcDbLine
 10
1.47641612991196
 20
0.5598813926709479
 30
0.0
 11
1.476416129911954
 21
0.4944171869033472
 31
0.0
  0
LINE
  5
7DE1B343D9E1DF8
330
7DE1B343D9E1E10
100
AcDbEntity
  8
TEXT
100
AcDbLine
 10
1.666820999746846
 20
0.4944171869033472
 30
0.0
 11
1.591829167017219
 21
0.4944171869033472
 31
0.0
  0
ENDSEC
  0
SECTION
  2
OBJECTS
  0
DICTIONARY
  5
7DE1B343D9E1E04
330
0
100
AcDbDictionary
  3
ACAD_GROUP
350
7DE1B343D9E1E05
  3
ACAD_LAYOUT
350
7DE1B343D9E1E2A
  3
ACAD_MLINESTYLE
350
7DE1B343D9E1E06
  3
ACAD_PLOTSETTINGS
350
7DE1B343D9E1E2B
  3
ACAD_PLOTSTYLENAME
350
7DE1B343D9E1E28
  3
ACDBHEADERROUNDTRIPXREC
350
7DE1B343D9E1E35
  3
ACDBVARIABLEDICTIONARY
350
7DE1B343D9E1E32
  0
DICTIONARY
  5
7DE1B343D9E1E57
330
7DE1B343D9E1E10
100
AcDbDictionary
280
     1
  3
ACAD_LAYOUTSELFREF
360
7DE1B343D9E1E58
  0
DICTIONARY
  5
7DE1B343D9E1E55
330
7DE1B343D9E1E0D
100
AcDbDictionary
280
     1
  3
ACAD_LAYOUTSELFREF
360
7DE1B343D9E1E56
  0
DICTIONARY
  5
7DE1B343D9E1E05
102
{ACAD_REACTORS
330
7DE1B343D9E1E04
102
}
330
7DE1B343D9E1E04
100
AcDbDictionary
  0
DICTIONARY
  5
7DE1B343D9E1E2A
102
{ACAD_REACTORS
330
7DE1B343D9E1E04
102
}
330
7DE1B343D9E1E04
100
AcDbDictionary
  0
DICTIONARY
  5
7DE1B343D9E1E06
102
{ACAD_REACTORS
330
7DE1B343D9E1E04
102
}
330
7DE1B343D9E1E04
100
AcDbDictionary
  3
STANDARD
350
7DE1B343D9E1E13
  0
DICTIONARY
  5
7DE1B343D9E1E2B
102
{ACAD_REACTORS
330
7DE1B343D9E1E04
102
}
330
7DE1B343D9E1E04
100
AcDbDictionary
  0
ACDBDICTIONARYWDFLT
  5
7DE1B343D9E1E28
102
{ACAD_REACTORS
330
7DE1B343D9E1E04
102
}
330
7DE1B343D9E1E04
100
AcDbDictionary
281
     1
  3
Normal
350
7DE1B343D9E1E29
100
AcDbDictionaryWithDefault
340
7DE1B343D9E1E29
  0
DICTIONARY
  5
7DE1B343D9E1E35
102
{ACAD_REACTORS
330
7DE1B343D9E1E04
102
}
330
7DE1B343D9E1E04
100
AcDbDictionary
  3
CEPSNTYPE
350
7DE1B343D9E1E3F
  3
FINGERPRINTGUID
350
7DE1B343D9E1E40
  3
HYPERLINKBASE
350
7DE1B343D9E1E38
  3
INSUNITS
350
7DE1B343D9E1E3E
  3
LAYOUTDICT
350
7DE1B343D9E1E3A
  3
LWETCUNION
350
7DE1B343D9E1E3D
  3
PLOTSETDICT
350
7DE1B343D9E1E3B
  3
PLOTSTYLNAMDICT
350
7DE1B343D9E1E3C
  3
PSVPSCALE
350
7DE1B343D9E1E42
  3
PUCSBASE
350
7DE1B343D9E1E45
  3
PUCSORGBACK
350
7DE1B343D9E1E4B
  3
PUCSORGBOTTOM
350
7DE1B343D9E1E47
  3
PUCSORGFRONT
350
7DE1B343D9E1E4A
  3
PUCSORGLEFT
350
7DE1B343D9E1E48
  3
PUCSORGRIGHT
350
7DE1B343D9E1E49
  3
PUCSORGTOP
350
7DE1B343D9E1E46
  3
PUCSORTHOREF
350
7DE1B343D9E1E43
  3
PUCSORTHOVIEW
350
7DE1B343D9E1E44
  3
STYLESHEET
350
7DE1B343D9E1E39
  3
TSTACKALIGN
350
7DE1B343D9E1E36
  3
TSTACKSIZE
350
7DE1B343D9E1E37
  3
UCSBASE
350
7DE1B343D9E1E4E
  3
UCSORGBACK
350
7DE1B343D9E1E54
  3
UCSORGBOTTOM
350
7DE1B343D9E1E50
  3
UCSORGFRONT
350
7DE1B343D9E1E53
  3
UCSORGLEFT
350
7DE1B343D9E1E51
  3
UCSORGRIGHT
350
7DE1B343D9E1E52
  3
UCSORGTOP
350
7DE1B343D9E1E4F
  3
UCSORTHOREF
350
7DE1B343D9E1E4C
  3
UCSORTHOVIEW
350
7DE1B343D9E1E4D
  3
VERSIONGUID
350
7DE1B343D9E1E41
  0
DICTIONARY
  5
7DE1B343D9E1E32
102
{ACAD_REACTORS
330
7DE1B343D9E1E04
102
}
330
7DE1B343D9E1E04
100
AcDbDictionary
  3
DIMASSOC
350
7DE1B343D9E1E33
  0
XRECORD
  5
7DE1B343D9E1E58
102
{ACAD_REACTORS
330
7DE1B343D9E1E57
102
}
330
7DE1B343D9E1E57
100
AcDbXrecord
340
7DE1B343D9E1E10
  0
XRECORD
  5
7DE1B343D9E1E56
102
{ACAD_REACTORS
330
7DE1B343D9E1E55
102
}
330
7DE1B343D9E1E55
100
AcDbXrecord
340
7DE1B343D9E1E0D
  0
MLINESTYLE
  5
7DE1B343D9E1E13
102
{ACAD_REACTORS
330
7DE1B343D9E1E06
102
}
330
7DE1B343D9E1E06
100
AcDbMlineStyle
  2
STANDARD
 70
     0
  3

 62
     0
 51
90.0
 52
90.0
 71
     2
 49
0.5
 62
   256
  6
BYLAYER
 49
-0.5
 62
   256
  6
BYLAYER
  0
ACDBPLACEHOLDER
  5
7DE1B343D9E1E29
102
{ACAD_REACTORS
330
7DE1B343D9E1E28
102
}
330
7DE1B343D9E1E28
100
AcDbPlaceHolder
280
     0
  0
XRECORD
  5
7DE1B343D9E1E3F
102
{ACAD_REACTORS
330
7DE1B343D9E1E35
102
}
330
7DE1B343D9E1E35
100
AcDbXrecord
 90
        0
  0
XRECORD
  5
7DE1B343D9E1E40
102
{ACAD_REACTORS
330
7DE1B343D9E1E35
102
}
330
7DE1B343D9E1E35
100
AcDbXrecord
  1
{83C9A7B0-8DB5-11D6-88E6-0090279574E7}
  0
XRECORD
  5
7DE1B343D9E1E38
102
{ACAD_REACTORS
330
7DE1B343D9E1E35
102
}
330
7DE1B343D9E1E35
100
AcDbXrecord
  1

  0
XRECORD
  5
7DE1B343D9E1E3E
102
{ACAD_REACTORS
330
7DE1B343D9E1E35
102
}
330
7DE1B343D9E1E35
100
AcDbXrecord
 90
        0
  0
XRECORD
  5
7DE1B343D9E1E3A
102
{ACAD_REACTORS
330
7DE1B343D9E1E35
102
}
330
7DE1B343D9E1E35
100
AcDbXrecord
340
7DE1B343D9E1E2A
  0
XRECORD
  5
7DE1B343D9E1E3D
102
{ACAD_REACTORS
330
7DE1B343D9E1E35
102
}
330
7DE1B343D9E1E35
100
AcDbXrecord
 90
    14877
  0
XRECORD
  5
7DE1B343D9E1E3B
102
{ACAD_REACTORS
330
7DE1B343D9E1E35
102
}
330
7DE1B343D9E1E35
100
AcDbXrecord
340
7DE1B343D9E1E2B
  0
XRECORD
  5
7DE1B343D9E1E3C
102
{ACAD_REACTORS
330
7DE1B343D9E1E35
102
}
330
7DE1B343D9E1E35
100
AcDbXrecord
340
7DE1B343D9E1E28
  0
XRECORD
  5
7DE1B343D9E1E42
102
{ACAD_REACTORS
330
7DE1B343D9E1E35
102
}
330
7DE1B343D9E1E35
100
AcDbXrecord
 40
0.0
  0
XRECORD
  5
7DE1B343D9E1E45
102
{ACAD_REACTORS
330
7DE1B343D9E1E35
102
}
330
7DE1B343D9E1E35
100
AcDbXrecord
340
0
  0
XRECORD
  5
7DE1B343D9E1E4B
102
{ACAD_REACTORS
330
7DE1B343D9E1E35
102
}
330
7DE1B343D9E1E35
100
AcDbXrecord
 10
0.0
 20
0.0
 30
0.0
  0
XRECORD
  5
7DE1B343D9E1E47
102
{ACAD_REACTORS
330
7DE1B343D9E1E35
102
}
330
7DE1B343D9E1E35
100
AcDbXrecord
 10
0.0
 20
0.0
 30
0.0
  0
XRECORD
  5
7DE1B343D9E1E4A
102
{ACAD_REACTORS
330
7DE1B343D9E1E35
102
}
330
7DE1B343D9E1E35
100
AcDbXrecord
 10
0.0
 20
0.0
 30
0.0
  0
XRECORD
  5
7DE1B343D9E1E48
102
{ACAD_REACTORS
330
7DE1B343D9E1E35
102
}
330
7DE1B343D9E1E35
100
AcDbXrecord
 10
0.0
 20
0.0
 30
0.0
  0
XRECORD
  5
7DE1B343D9E1E49
102
{ACAD_REACTORS
330
7DE1B343D9E1E35
102
}
330
7DE1B343D9E1E35
100
AcDbXrecord
 10
0.0
 20
0.0
 30
0.0
  0
XRECORD
  5
7DE1B343D9E1E46
102
{ACAD_REACTORS
330
7DE1B343D9E1E35
102
}
330
7DE1B343D9E1E35
100
AcDbXrecord
 10
0.0
 20
0.0
 30
0.0
  0
XRECORD
  5
7DE1B343D9E1E43
102
{ACAD_REACTORS
330
7DE1B343D9E1E35
102
}
330
7DE1B343D9E1E35
100
AcDbXrecord
340
0
  0
XRECORD
  5
7DE1B343D9E1E44
102
{ACAD_REACTORS
330
7DE1B343D9E1E35
102
}
330
7DE1B343D9E1E35
100
AcDbXrecord
 70
     0
  0
XRECORD
  5
7DE1B343D9E1E39
102
{ACAD_REACTORS
330
7DE1B343D9E1E35
102
}
330
7DE1B343D9E1E35
100
AcDbXrecord
  1

  0
XRECORD
  5
7DE1B343D9E1E36
102
{ACAD_REACTORS
330
7DE1B343D9E1E35
102
}
330
7DE1B343D9E1E35
100
AcDbXrecord
 90
        1
  0
XRECORD
  5
7DE1B343D9E1E37
102
{ACAD_REACTORS
330
7DE1B343D9E1E35
102
}
330
7DE1B343D9E1E35
100
AcDbXrecord
 90
       70
  0
XRECORD
  5
7DE1B343D9E1E4E
102
{ACAD_REACTORS
330
7DE1B343D9E1E35
102
}
330
7DE1B343D9E1E35
100
AcDbXrecord
340
0
  0
XRECORD
  5
7DE1B343D9E1E54
102
{ACAD_REACTORS
330
7DE1B343D9E1E35
102
}
330
7DE1B343D9E1E35
100
AcDbXrecord
 10
0.0
 20
0.0
 30
0.0
  0
XRECORD
  5
7DE1B343D9E1E50
102
{ACAD_REACTORS
330
7DE1B343D9E1E35
102
}
330
7DE1B343D9E1E35
100
AcDbXrecord
 10
0.0
 20
0.0
 30
0.0
  0
XRECORD
  5
7DE1B343D9E1E53
102
{ACAD_REACTORS
330
7DE1B343D9E1E35
102
}
330
7DE1B343D9E1E35
100
AcDbXrecord
 10
0.0
 20
0.0
 30
0.0
  0
XRECORD
  5
7DE1B343D9E1E51
102
{ACAD_REACTORS
330
7DE1B343D9E1E35
102
}
330
7DE1B343D9E1E35
100
AcDbXrecord
 10
0.0
 20
0.0
 30
0.0
  0
XRECORD
  5
7DE1B343D9E1E52
102
{ACAD_REACTORS
330
7DE1B343D9E1E35
102
}
330
7DE1B343D9E1E35
100
AcDbXrecord
 10
0.0
 20
0.0
 30
0.0
  0
XRECORD
  5
7DE1B343D9E1E4F
102
{ACAD_REACTORS
330
7DE1B343D9E1E35
102
}
330
7DE1B343D9E1E35
100
AcDbXrecord
 10
0.0
 20
0.0
 30
0.0
  0
XRECORD
  5
7DE1B343D9E1E4C
102
{ACAD_REACTORS
330
7DE1B343D9E1E35
102
}
330
7DE1B343D9E1E35
100
AcDbXrecord
340
0
  0
XRECORD
  5
7DE1B343D9E1E4D
102
{ACAD_REACTORS
330
7DE1B343D9E1E35
102
}
330
7DE1B343D9E1E35
100
AcDbXrecord
 70
     0
  0
XRECORD
  5
7DE1B343D9E1E41
102
{ACAD_REACTORS
330
7DE1B343D9E1E35
102
}
330
7DE1B343D9E1E35
100
AcDbXrecord
  1
{83C9A7B2-8DB5-11D6-88E6-0090279574E7}
  0
DICTIONARYVAR
  5
7DE1B343D9E1E33
102
{ACAD_REACTORS
330
7DE1B343D9E1E32
102
}
330
7DE1B343D9E1E32
100
DictionaryVariables
280
     0
  1
1
  0
ENDSEC
  0
EOF
