  0
SECTION
  2
HEADER
  9
$ACADVER
  1
AC1014
  9
$ACADMAINTVER
 70
     9
  9
$DWGCODEPAGE
  3
ANSI_1252
  9
$INSBASE
 10
0.0
 20
0.0
 30
0.0
  9
$EXTMIN
 10
-1.000944043829979
 20
1.520250691926573
 30
0.0
  9
$EXTMAX
 10
2.484275277917149
 20
2.912463203435596
 30
0.0
  9
$LIMMIN
 10
0.0
 20
0.0
  9
$LIMMAX
 10
8.5
 20
11.0
  9
$ORTHOMODE
 70
     0
  9
$REGENMODE
 70
     1
  9
$FILLMODE
 70
     1
  9
$QTEXTMODE
 70
     0
  9
$MIRRTEXT
 70
     0
  9
$DRAGMODE
 70
     2
  9
$LTSCALE
 40
1.0
  9
$OSMODE
 70
    39
  9
$ATTMODE
 70
     1
  9
$TEXTSIZE
 40
0.125
  9
$TRACEWID
 40
0.05
  9
$TEXTSTYLE
  7
ROMANS
  9
$CLAYER
  8
0
  9
$CELTYPE
  6
CONTINUOUS
  9
$CECOLOR
 62
   256
  9
$CELTSCALE
 40
1.0
  9
$DELOBJ
 70
     1
  9
$DISPSILH
 70
     1
  9
$DIMSCALE
 40
2.0
  9
$DIMASZ
 40
0.125
  9
$DIMEXO
 40
0.125
  9
$DIMDLI
 40
0.375
  9
$DIMRND
 40
0.0
  9
$DIMDLE
 40
0.0
  9
$DIMEXE
 40
0.125
  9
$DIMTP
 40
0.0
  9
$DIMTM
 40
0.04
  9
$DIMTXT
 40
0.125
  9
$DIMCEN
 40
-0.125
  9
$DIMTSZ
 40
0.0
  9
$DIMTOL
 70
     0
  9
$DIMLIM
 70
     0
  9
$DIMTIH
 70
     1
  9
$DIMTOH
 70
     1
  9
$DIMSE1
 70
     0
  9
$DIMSE2
 70
     0
  9
$DIMTAD
 70
     0
  9
$DIMZIN
 70
     4
  9
$DIMBLK
  1

  9
$DIMASO
 70
     1
  9
$DIMSHO
 70
     1
  9
$DIMPOST
  1

  9
$DIMAPOST
  1

  9
$DIMALT
 70
     0
  9
$DIMALTD
 70
     2
  9
$DIMALTF
 40
25.4
  9
$DIMLFAC
 40
0.25
  9
$DIMTOFL
 70
     0
  9
$DIMTVP
 40
0.0
  9
$DIMTIX
 70
     1
  9
$DIMSOXD
 70
     0
  9
$DIMSAH
 70
     0
  9
$DIMBLK1
  1

  9
$DIMBLK2
  1

  9
$DIMSTYLE
  2
STANDARD
  9
$DIMCLRD
 70
     0
  9
$DIMCLRE
 70
     0
  9
$DIMCLRT
 70
     0
  9
$DIMTFAC
 40
1.0
  9
$DIMGAP
 40
0.09
  9
$DIMJUST
 70
     0
  9
$DIMSD1
 70
     0
  9
$DIMSD2
 70
     0
  9
$DIMTOLJ
 70
     1
  9
$DIMTZIN
 70
     4
  9
$DIMALTZ
 70
     0
  9
$DIMALTTZ
 70
     0
  9
$DIMFIT
 70
     3
  9
$DIMUPT
 70
     0
  9
$DIMUNIT
 70
     2
  9
$DIMDEC
 70
     3
  9
$DIMTDEC
 70
     3
  9
$DIMALTU
 70
     2
  9
$DIMALTTD
 70
     2
  9
$DIMTXSTY
  7
ROMANS
  9
$DIMAUNIT
 70
     0
  9
$LUNITS
 70
     2
  9
$LUPREC
 70
     3
  9
$SKETCHINC
 40
0.1
  9
$FILLETRAD
 40
0.75
  9
$AUNITS
 70
     0
  9
$AUPREC
 70
     0
  9
$MENU
  1
AUTOMSTR
  9
$ELEVATION
 40
0.0
  9
$PELEVATION
 40
0.0
  9
$THICKNESS
 40
0.0
  9
$LIMCHECK
 70
     0
  9
$BLIPMODE
 70
     0
  9
$CHAMFERA
 40
0.0
  9
$CHAMFERB
 40
0.0
  9
$CHAMFERC
 40
0.0
  9
$CHAMFERD
 40
0.0
  9
$SKPOLY
 70
     0
  9
$TDCREATE
 40
2448348.698835879
  9
$TDUPDATE
 40
2452458.302948090
  9
$TDINDWG
 40
0.0846797685
  9
$TDUSRTIMER
 40
0.0846797685
  9
$USRTIMER
 70
     1
  9
$ANGBASE
 50
0.0
  9
$ANGDIR
 70
     0
  9
$PDMODE
 70
     0
  9
$PDSIZE
 40
0.0
  9
$PLINEWID
 40
0.0
  9
$COORDS
 70
     2
  9
$SPLFRAME
 70
     0
  9
$SPLINETYPE
 70
     6
  9
$SPLINESEGS
 70
     8
  9
$ATTDIA
 70
     0
  9
$ATTREQ
 70
     1
  9
$HANDLING
 70
 22529
  9
$HANDSEED
  5
71C
  9
$SURFTAB1
 70
     6
  9
$SURFTAB2
 70
     6
  9
$SURFTYPE
 70
     6
  9
$SURFU
 70
     6
  9
$SURFV
 70
     6
  9
$UCSNAME
  2

  9
$UCSORG
 10
0.0
 20
0.0
 30
0.0
  9
$UCSXDIR
 10
1.0
 20
0.0
 30
0.0
  9
$UCSYDIR
 10
0.0
 20
1.0
 30
0.0
  9
$PUCSNAME
  2

  9
$PUCSORG
 10
0.0
 20
0.0
 30
0.0
  9
$PUCSXDIR
 10
1.0
 20
0.0
 30
0.0
  9
$PUCSYDIR
 10
0.0
 20
1.0
 30
0.0
  9
$USERI1
 70
     0
  9
$USERI2
 70
     0
  9
$USERI3
 70
     0
  9
$USERI4
 70
     0
  9
$USERI5
 70
     0
  9
$USERR1
 40
0.0
  9
$USERR2
 40
0.0
  9
$USERR3
 40
0.0
  9
$USERR4
 40
0.0
  9
$USERR5
 40
0.0
  9
$WORLDVIEW
 70
     1
  9
$SHADEDGE
 70
     3
  9
$SHADEDIF
 70
    70
  9
$TILEMODE
 70
     1
  9
$MAXACTVP
 70
    16
  9
$PINSBASE
 10
0.0
 20
0.0
 30
0.0
  9
$PLIMCHECK
 70
     0
  9
$PEXTMIN
 10
1.000000000000000E+20
 20
1.000000000000000E+20
 30
1.000000000000000E+20
  9
$PEXTMAX
 10
-1.000000000000000E+20
 20
-1.000000000000000E+20
 30
-1.000000000000000E+20
  9
$PLIMMIN
 10
0.0
 20
0.0
  9
$PLIMMAX
 10
12.0
 20
9.0
  9
$UNITMODE
 70
     0
  9
$VISRETAIN
 70
     0
  9
$PLINEGEN
 70
     1
  9
$PSLTSCALE
 70
     0
  9
$TREEDEPTH
 70
  3020
  9
$PICKSTYLE
 70
     1
  9
$CMLSTYLE
  2
STANDARD
  9
$CMLJUST
 70
     0
  9
$CMLSCALE
 40
1.0
  9
$PROXYGRAPHICS
 70
     1
  9
$MEASUREMENT
 70
     0
  0
ENDSEC
  0
SECTION
  2
CLASSES
  0
CLASS
  1
LWPOLYLINE
  2
AcDbPolyline
  3
AutoCAD 2000
 90
        0
280
     0
281
     1
  0
CLASS
  1
DICTIONARYVAR
  2
AcDbDictionaryVar
  3
AutoCAD 2000
 90
        0
280
     0
281
     0
  0
CLASS
  1
ACDBDICTIONARYWDFLT
  2
AcDbDictionaryWithDefault
  3
AutoCAD 2000
 90
        0
280
     0
281
     0
  0
CLASS
  1
ACDBPLACEHOLDER
  2
AcDbPlaceHolder
  3
AutoCAD 2000
 90
        0
280
     0
281
     0
  0
CLASS
  1
LAYOUT
  2
AcDbLayout
  3
AutoCAD 2000
 90
        0
280
     0
281
     0
  0
CLASS
  1
LONG_TRANSACTION
  2
AcDbLongTransaction
  3
AutoCAD 2000
 90
        0
280
     0
281
     0
  0
CLASS
  1
LWPOLYLINE
  2
AcDbPolyline
  3
AutoCAD 2000
 90
        0
280
     0
281
     1
  0
CLASS
  1
HATCH
  2
AcDbHatch
  3
AutoCAD 2000
 90
        0
280
     0
281
     1
  0
CLASS
  1
XRECORD
  2
AcDbXrecord
  3
AutoCAD 2000
 90
        0
280
     0
281
     0
  0
ENDSEC
  0
SECTION
  2
TABLES
  0
TABLE
  2
VPORT
  5
8
330
0
100
AcDbSymbolTable
 70
     2
  0
VPORT
  5
6F7
330
8
100
AcDbSymbolTableRecord
100
AcDbViewportTableRecord
  2
*ACTIVE
 70
     0
 10
0.0
 20
0.0
 11
1.0
 21
1.0
 12
3.663865047118337
 22
2.21649431503086
 13
0.0
 23
0.0
 14
0.015625
 24
0.015625
 15
0.0
 25
0.0
 16
0.0
 26
0.0
 36
1.0
 17
0.0
 27
0.0
 37
0.0
 40
2.163572207623892
 41
4.320930232558139
 42
50.0
 43
0.0
 44
0.0
 50
0.0
 51
0.0
 71
     0
 72
  2000
 73
     1
 74
     1
 75
     0
 76
     0
 77
     0
 78
     0
  0
ENDTAB
  0
TABLE
  2
LTYPE
  5
5
330
0
100
AcDbSymbolTable
 70
     1
  0
LTYPE
  5
12
330
5
100
AcDbSymbolTableRecord
100
AcDbLinetypeTableRecord
  2
BYBLOCK
 70
     0
  3

 72
    65
 73
     0
 40
0.0
  0
LTYPE
  5
13
330
5
100
AcDbSymbolTableRecord
100
AcDbLinetypeTableRecord
  2
BYLAYER
 70
     0
  3

 72
    65
 73
     0
 40
0.0
  0
LTYPE
  5
14
330
5
100
AcDbSymbolTableRecord
100
AcDbLinetypeTableRecord
  2
CONTINUOUS
 70
     0
  3
Solid line
 72
    65
 73
     0
 40
0.0
  0
ENDTAB
  0
TABLE
  2
LAYER
  5
2
330
0
100
AcDbSymbolTable
 70
     2
  0
LAYER
  5
F
330
2
100
AcDbSymbolTableRecord
100
AcDbLayerTableRecord
  2
0
 70
     0
 62
     7
  6
CONTINUOUS
  0
LAYER
  5
2B
330
2
100
AcDbSymbolTableRecord
100
AcDbLayerTableRecord
  2
TEXT
 70
     0
 62
     3
  6
CONTINUOUS
  0
ENDTAB
  0
TABLE
  2
STYLE
  5
3
330
0
100
AcDbSymbolTable
 70
     3
  0
STYLE
  5
10
330
3
100
AcDbSymbolTableRecord
100
AcDbTextStyleTableRecord
  2
STANDARD
 70
     0
 40
0.0
 41
1.0
 50
0.0
 71
     0
 42
0.125
  3
txt
  4

  0
STYLE
  5
3E9
330
3
100
AcDbSymbolTableRecord
100
AcDbTextStyleTableRecord
  2
ROMANS
 70
     0
 40
0.0
 41
1.0
 50
0.0
 71
     0
 42
0.125
  3
romans.shx
  4

  0
STYLE
  5
5E5
330
3
100
AcDbSymbolTableRecord
100
AcDbTextStyleTableRecord
  2
ITALICC
 70
     0
 40
0.0
 41
1.0
 50
0.0
 71
     0
 42
0.125
  3
italicc
  4

  0
ENDTAB
  0
TABLE
  2
VIEW
  5
6
330
0
100
AcDbSymbolTable
 70
     0
  0
ENDTAB
  0
TABLE
  2
UCS
  5
7
330
0
100
AcDbSymbolTable
 70
     0
  0
ENDTAB
  0
TABLE
  2
APPID
  5
9
330
0
100
AcDbSymbolTable
 70
     1
  0
APPID
  5
11
330
9
100
AcDbSymbolTableRecord
100
AcDbRegAppTableRecord
  2
ACAD
 70
     0
  0
ENDTAB
  0
TABLE
  2
DIMSTYLE
  5
A
330
0
100
AcDbSymbolTable
 70
     1
  0
DIMSTYLE
105
3DE
330
A
100
AcDbSymbolTableRecord
100
AcDbDimStyleTableRecord
  2
STANDARD
 70
     0
  3

  4

  5

  6

  7

 40
2.0
 41
0.125
 42
0.125
 43
0.375
 44
0.125
 45
0.0
 46
0.0
 47
0.0
 48
0.04
140
0.125
141
-0.125
142
0.0
143
25.4
144
0.25
145
0.0
146
1.0
147
0.09
 71
     0
 72
     0
 73
     1
 74
     1
 75
     0
 76
     0
 77
     0
 78
     4
170
     0
171
     2
172
     0
173
     0
174
     1
175
     0
176
     0
177
     0
178
     0
270
     2
271
     3
272
     3
273
     2
274
     2
340
3E9
275
     0
280
     0
281
     0
282
     0
283
     1
284
     4
285
     0
286
     0
287
     3
288
     0
  0
ENDTAB
  0
TABLE
  2
BLOCK_RECORD
  5
1
330
0
100
AcDbSymbolTable
 70
     0
  0
BLOCK_RECORD
  5
18
102
{ACAD_XDICTIONARY
360
71A
102
}
330
1
100
AcDbSymbolTableRecord
100
AcDbBlockTableRecord
  2
*MODEL_SPACE
  0
BLOCK_RECORD
  5
15
102
{ACAD_XDICTIONARY
360
718
102
}
330
1
100
AcDbSymbolTableRecord
100
AcDbBlockTableRecord
  2
*PAPER_SPACE
  0
ENDTAB
  0
ENDSEC
  0
SECTION
  2
BLOCKS
  0
BLOCK
  5
34
330
18
100
AcDbEntity
  8
0
100
AcDbBlockBegin
  2
*MODEL_SPACE
 70
     0
 10
0.0
 20
0.0
 30
0.0
  3
*MODEL_SPACE
  1

  0
ENDBLK
  5
35
330
18
100
AcDbEntity
  8
0
100
AcDbBlockEnd
  0
BLOCK
  5
32
330
15
100
AcDbEntity
 67
     1
  8
0
100
AcDbBlockBegin
  2
*PAPER_SPACE
 70
     0
 10
0.0
 20
0.0
 30
0.0
  3
*PAPER_SPACE
  1

  0
ENDBLK
  5
33
330
15
100
AcDbEntity
 67
     1
  8
0
100
AcDbBlockEnd
  0
ENDSEC
  0
SECTION
  2
ENTITIES
  0
LWPOLYLINE
  5
3A3
330
18
100
AcDbEntity
  8
0
100
AcDbPolyline
 90
       22
 70
     1
 43
0.0
 10
0.3125
 20
2.40625
 10
0.3125
 20
2.876249999999999
 42
-0.4142135623730951
 10
0.3425000000000011
 20
2.90625
 10
1.282499999999999
 20
2.90625
 42
-0.4142135623730951
 10
1.3125
 20
2.876249999999999
 10
1.3125
 20
2.40625
 10
1.153389727457342
 20
2.40625
 10
1.123305234706307
 20
2.458357869964728
 42
-0.3000993905501907
 10
1.124920689421111
 20
2.485477612001717
 42
0.8157099752277082
 10
1.075499999999999
 20
2.541158965343808
 10
1.04425
 20
2.595285553080335
 42
-0.7208478347506025
 10
1.186912120417182
 20
2.468749999999996
 10
1.25
 20
2.46875
 10
1.25
 20
2.84375
 10
0.375
 20
2.84375
 10
0.375
 20
2.46875
 10
0.4380878795828167
 20
2.468750000000001
 42
-0.7208478347505806
 10
0.5807499999999966
 20
2.595285553080328
 10
0.5494999999999948
 20
2.541158965343801
 42
0.8157099752276785
 10
0.5000793105788901
 20
2.485477612001717
 42
-0.3000993905501899
 10
0.5016947652936921
 20
2.458357869964728
 10
0.4716102725426588
 20
2.40625
  0
TEXT
  5
66A
330
18
100
AcDbEntity
  8
TEXT
100
AcDbText
 10
-0.0109386550790262
 20
1.978269296009155
 30
0.0
 40
0.125
  1
PART #110248
  7
ITALICC
 72
     1
 11
0.7420375353971638
 21
1.978269296009155
 31
0.0
100
AcDbText
  0
LINE
  5
66B
330
18
100
AcDbEntity
  8
TEXT
100
AcDbLine
 10
0.7097710343492265
 20
1.733915609989321
 30
0.0
 11
0.7864190156417843
 21
1.733915609989321
 31
0.0
  0
LINE
  5
66C
330
18
100
AcDbEntity
  8
TEXT
100
AcDbLine
 10
0.7819391283152842
 20
1.798192304646087
 30
0.0
 11
0.7144394106657677
 21
1.798192304646087
 31
0.0
  0
LWPOLYLINE
  5
66D
330
18
100
AcDbEntity
  8
TEXT
100
AcDbPolyline
 90
        5
 70
     0
 43
0.0001332181640625
 10
-0.9273410081854486
 20
1.674965502888274
 10
-0.9140191917791998
 20
1.674965502888274
 10
-0.9140191917791998
 20
1.711600498005464
 10
-0.87738419666201
 20
1.711600498005464
 10
-0.87738419666201
 20
1.724922314411711
  0
LWPOLYLINE
  5
66E
330
18
100
AcDbEntity
  8
TEXT
100
AcDbPolyline
 90
        3
 70
     0
 43
0.0006660908203125
 10
-0.8873755589667005
 20
1.771548671833589
 10
-0.9739673656073254
 20
1.771548671833589
 10
-0.9739673656073254
 20
1.684956865192963
  0
LWPOLYLINE
  5
66F
330
18
100
AcDbEntity
  8
TEXT
100
AcDbPolyline
 90
        3
 70
     0
 43
0.0006660908203125
 10
-0.8873755589667005
 20
1.79819230464609
 10
-1.000610998419822
 20
1.79819230464609
 10
-1.000610998419822
 20
1.684956865192963
  0
LWPOLYLINE
  5
670
330
18
100
AcDbEntity
  8
TEXT
100
AcDbPolyline
 90
        5
 70
     0
 43
0.0001332181640625
 10
-0.87738419666201
 20
1.605025966755463
 10
-0.87738419666201
 20
1.618347783161714
 10
-0.914019191779198
 20
1.618347783161714
 10
-0.914019191779198
 20
1.6549827782789
 10
-0.9273410081854486
 20
1.6549827782789
  0
LWPOLYLINE
  5
671
330
18
100
AcDbEntity
  8
TEXT
100
AcDbPolyline
 90
        3
 70
     0
 43
0.0006660908203125
 10
-0.9739673656073254
 20
1.644991415974215
 10
-0.9739673656073254
 20
1.558399609333588
 10
-0.8873755589667005
 20
1.558399609333588
  0
LWPOLYLINE
  5
672
330
18
100
AcDbEntity
  8
TEXT
100
AcDbPolyline
 90
        3
 70
     0
 43
0.0006660908203125
 10
-1.000610998419822
 20
1.644991415974215
 10
-1.000610998419822
 20
1.531755976521087
 10
-0.8873755589667005
 20
1.531755976521087
  0
LWPOLYLINE
  5
673
330
18
100
AcDbEntity
  8
TEXT
100
AcDbPolyline
 90
        2
 70
     0
 43
0.0001332181640625
 10
-0.9739673656073254
 20
1.644991415974215
 10
-0.914019191779198
 20
1.6549827782789
  0
LWPOLYLINE
  5
674
330
18
100
AcDbEntity
  8
TEXT
100
AcDbPolyline
 90
        2
 70
     0
 43
0.0001332181640625
 10
-0.9273410081854486
 20
1.6549827782789
 10
-1.000610998419822
 20
1.644991415974215
  0
LWPOLYLINE
  5
675
330
18
100
AcDbEntity
  8
TEXT
100
AcDbPolyline
 90
        2
 70
     0
 43
0.0006660908203125
 10
-0.9739673656073254
 20
1.644991415974215
 10
-1.000610998419822
 20
1.644991415974215
  0
LWPOLYLINE
  5
676
330
18
100
AcDbEntity
  8
TEXT
100
AcDbPolyline
 90
        2
 70
     0
 43
0.0001332181640625
 10
-0.9739673656073254
 20
1.558399609333588
 10
-0.914019191779198
 20
1.618347783161714
  0
LWPOLYLINE
  5
677
330
18
100
AcDbEntity
  8
TEXT
100
AcDbPolyline
 90
        2
 70
     0
 43
0.0006660908203125
 10
-0.9739673656073254
 20
1.684956865192963
 10
-1.000610998419822
 20
1.684956865192963
  0
LWPOLYLINE
  5
678
330
18
100
AcDbEntity
  8
TEXT
100
AcDbPolyline
 90
        2
 70
     0
 43
0.0001332181640625
 10
-1.000610998419822
 20
1.684956865192963
 10
-0.9273410081854486
 20
1.674965502888274
  0
LWPOLYLINE
  5
679
330
18
100
AcDbEntity
  8
TEXT
100
AcDbPolyline
 90
        2
 70
     0
 43
0.0001332181640625
 10
-0.9739673656073254
 20
1.684956865192963
 10
-0.9140191917791998
 20
1.674965502888274
  0
LWPOLYLINE
  5
67A
330
18
100
AcDbEntity
  8
TEXT
100
AcDbPolyline
 90
        2
 70
     0
 43
0.0001332181640625
 10
-0.9739673656073254
 20
1.771548671833589
 10
-0.9140191917791998
 20
1.711600498005464
  0
LWPOLYLINE
  5
67B
330
18
100
AcDbEntity
  8
TEXT
100
AcDbPolyline
 90
        5
 70
     0
 43
0.0001332181640625
 10
-0.8074446605291992
 20
1.6549827782789
 10
-0.8207664769354479
 20
1.6549827782789
 10
-0.8207664769354479
 20
1.618347783161714
 10
-0.8574014720526378
 20
1.618347783161714
 10
-0.8574014720526378
 20
1.605025966755463
  0
LWPOLYLINE
  5
67C
330
18
100
AcDbEntity
  8
TEXT
100
AcDbPolyline
 90
        2
 70
     0
 43
0.0001332181640625
 10
-0.7608183031073242
 20
1.644991415974215
 10
-0.8207664769354479
 20
1.6549827782789
  0
LWPOLYLINE
  5
67D
330
18
100
AcDbEntity
  8
TEXT
100
AcDbPolyline
 90
        2
 70
     0
 43
0.0001332181640625
 10
-0.7341746702948231
 20
1.644991415974215
 10
-0.8074446605291992
 20
1.6549827782789
  0
LWPOLYLINE
  5
67E
330
18
100
AcDbEntity
  8
TEXT
100
AcDbPolyline
 90
        3
 70
     0
 43
0.0006660908203125
 10
-0.847410109747949
 20
1.531755976521087
 10
-0.7341746702948231
 20
1.531755976521087
 10
-0.7341746702948231
 20
1.644991415974215
  0
LWPOLYLINE
  5
67F
330
18
100
AcDbEntity
  8
TEXT
100
AcDbPolyline
 90
        3
 70
     0
 43
0.0006660908203125
 10
-0.847410109747949
 20
1.558399609333588
 10
-0.7608183031073242
 20
1.558399609333588
 10
-0.7608183031073242
 20
1.644991415974215
  0
LWPOLYLINE
  5
680
330
18
100
AcDbEntity
  8
TEXT
100
AcDbPolyline
 90
        2
 70
     0
 43
0.0001332181640625
 10
-0.7608183031073242
 20
1.558399609333588
 10
-0.8207664769354479
 20
1.618347783161714
  0
LWPOLYLINE
  5
681
330
18
100
AcDbEntity
  8
TEXT
100
AcDbPolyline
 90
        2
 70
     0
 43
0.0006660908203125
 10
-0.847410109747949
 20
1.558399609333588
 10
-0.847410109747949
 20
1.531755976521087
  0
LWPOLYLINE
  5
682
330
18
100
AcDbEntity
  8
TEXT
100
AcDbPolyline
 90
        2
 70
     0
 43
0.0001332181640625
 10
-0.8574014720526378
 20
1.605025966755463
 10
-0.847410109747949
 20
1.531755976521087
  0
LWPOLYLINE
  5
683
330
18
100
AcDbEntity
  8
TEXT
100
AcDbPolyline
 90
        2
 70
     0
 43
0.0001332181640625
 10
-0.847410109747949
 20
1.558399609333588
 10
-0.8574014720526378
 20
1.618347783161714
  0
LWPOLYLINE
  5
684
330
18
100
AcDbEntity
  8
TEXT
100
AcDbPolyline
 90
        2
 70
     0
 43
0.0001332181640625
 10
-0.8873755589667005
 20
1.531755976521087
 10
-0.87738419666201
 20
1.605025966755463
  0
LWPOLYLINE
  5
685
330
18
100
AcDbEntity
  8
TEXT
100
AcDbPolyline
 90
        2
 70
     0
 43
0.0001332181640625
 10
-0.8873755589667005
 20
1.558399609333588
 10
-0.87738419666201
 20
1.618347783161714
  0
LWPOLYLINE
  5
686
330
18
100
AcDbEntity
  8
TEXT
100
AcDbPolyline
 90
        2
 70
     0
 43
0.0006660908203125
 10
-0.8873755589667005
 20
1.558399609333588
 10
-0.8873755589667005
 20
1.531755976521087
  0
LWPOLYLINE
  5
687
330
18
100
AcDbEntity
  8
TEXT
100
AcDbPolyline
 90
        2
 70
     0
 43
0.0006660908203125
 10
-0.7608183031073242
 20
1.644991415974215
 10
-0.7341746702948231
 20
1.644991415974215
  0
LWPOLYLINE
  5
688
330
18
100
AcDbEntity
  8
TEXT
100
AcDbPolyline
 90
        2
 70
     0
 43
0.0001332181640625
 10
-0.7608183031073242
 20
1.771548671833589
 10
-0.8207664769354479
 20
1.711600498005464
  0
LWPOLYLINE
  5
689
330
18
100
AcDbEntity
  8
TEXT
100
AcDbPolyline
 90
        2
 70
     0
 43
0.0001332181640625
 10
-0.7608183031073242
 20
1.684956865192963
 10
-0.8207664769354479
 20
1.674965502888274
  0
LWPOLYLINE
  5
68A
330
18
100
AcDbEntity
  8
TEXT
100
AcDbPolyline
 90
        2
 70
     0
 43
0.0001332181640625
 10
-0.8074446605291992
 20
1.674965502888274
 10
-0.7341746702948231
 20
1.684956865192963
  0
LWPOLYLINE
  5
68B
330
18
100
AcDbEntity
  8
TEXT
100
AcDbPolyline
 90
        3
 70
     0
 43
0.0006660908203125
 10
-0.7608183031073242
 20
1.684956865192963
 10
-0.7608183031073242
 20
1.771548671833589
 10
-0.847410109747949
 20
1.771548671833589
  0
LWPOLYLINE
  5
68C
330
18
100
AcDbEntity
  8
TEXT
100
AcDbPolyline
 90
        3
 70
     0
 43
0.0006660908203125
 10
-0.7341746702948231
 20
1.684956865192963
 10
-0.7341746702948231
 20
1.79819230464609
 10
-0.847410109747949
 20
1.79819230464609
  0
LWPOLYLINE
  5
68D
330
18
100
AcDbEntity
  8
TEXT
100
AcDbPolyline
 90
        2
 70
     0
 43
0.0001332181640625
 10
-0.847410109747949
 20
1.79819230464609
 10
-0.8574014720526378
 20
1.724922314411711
  0
LWPOLYLINE
  5
68E
330
18
100
AcDbEntity
  8
TEXT
100
AcDbPolyline
 90
        2
 70
     0
 43
0.0001332181640625
 10
-0.847410109747949
 20
1.771548671833589
 10
-0.8574014720526378
 20
1.711600498005464
  0
LWPOLYLINE
  5
68F
330
18
100
AcDbEntity
  8
TEXT
100
AcDbPolyline
 90
        2
 70
     0
 43
0.0006660908203125
 10
-0.847410109747949
 20
1.771548671833589
 10
-0.847410109747949
 20
1.79819230464609
  0
LWPOLYLINE
  5
690
330
18
100
AcDbEntity
  8
TEXT
100
AcDbPolyline
 90
        5
 70
     0
 43
0.0001332181640625
 10
-0.8574014720526378
 20
1.724922314411711
 10
-0.8574014720526378
 20
1.711600498005464
 10
-0.8207664769354479
 20
1.711600498005464
 10
-0.8207664769354479
 20
1.674965502888274
 10
-0.8074446605291992
 20
1.674965502888274
  0
LWPOLYLINE
  5
691
330
18
100
AcDbEntity
  8
TEXT
100
AcDbPolyline
 90
        2
 70
     0
 43
0.0001332181640625
 10
-0.8873755589667005
 20
1.771548671833589
 10
-0.87738419666201
 20
1.711600498005464
  0
LWPOLYLINE
  5
692
330
18
100
AcDbEntity
  8
TEXT
100
AcDbPolyline
 90
        2
 70
     0
 43
0.0001332181640625
 10
-0.87738419666201
 20
1.724922314411711
 10
-0.8873755589667005
 20
1.79819230464609
  0
LWPOLYLINE
  5
693
330
18
100
AcDbEntity
  8
TEXT
100
AcDbPolyline
 90
        2
 70
     0
 43
0.0006660908203125
 10
-0.8873755589667005
 20
1.771548671833589
 10
-0.8873755589667005
 20
1.79819230464609
  0
LWPOLYLINE
  5
694
330
18
100
AcDbEntity
  8
TEXT
100
AcDbPolyline
 90
        2
 70
     0
 43
0.0006660908203125
 10
-0.7608183031073242
 20
1.684956865192963
 10
-0.7341746702948231
 20
1.684956865192963
  0
LWPOLYLINE
  5
695
330
18
100
AcDbEntity
  8
TEXT
100
AcDbPolyline
 90
        2
 70
     0
 43
0.0
 10
-0.0153947495461928
 20
1.583270613872504
 42
0.3318488747599744
 10
0.0537245430191202
 20
1.531719271657576
 42
-6.868794160588311
  0
LINE
  5
696
330
18
100
AcDbEntity
  8
TEXT
100
AcDbLine
 10
0.0525849695229246
 20
1.866203782384897
 30
0.0
 11
-0.0142237430434404
 21
1.866203782384897
 31
0.0
  0
LINE
  5
697
330
18
100
AcDbEntity
  8
TEXT
100
AcDbLine
 10
-0.2935661106625344
 20
1.798192304646087
 30
0.0
 11
-0.4692978635610459
 21
1.798192304646087
 31
0.0
  0
ARC
  5
698
330
18
100
AcDbEntity
  8
TEXT
100
AcDbCircle
 10
-0.3984603972024963
 20
1.614915080018133
 30
0.0
 40
0.0831958083605586
100
AcDbArc
 50
270.0
 51
90.0
  0
LINE
  5
699
330
18
100
AcDbEntity
  8
TEXT
100
AcDbLine
 10
-0.4640605334467978
 20
1.733915609989321
 30
0.0
 11
-0.2971548794178274
 21
1.733915609989321
 31
0.0
  0
LINE
  5
69A
330
18
100
AcDbEntity
  8
TEXT
100
AcDbLine
 10
-0.393520023296217
 20
1.600076277991015
 30
0.0
 11
-0.5513853230075512
 21
1.600076277991015
 31
0.0
  0
LINE
  5
69B
330
18
100
AcDbEntity
  8
TEXT
100
AcDbLine
 10
-0.5513853230075494
 20
1.531719271657576
 30
0.0
 11
-0.3984603972024967
 21
1.531719271657576
 31
0.0
  0
ARC
  5
69C
330
18
100
AcDbEntity
  8
TEXT
100
AcDbCircle
 10
-0.4692978635610455
 20
1.716104845199585
 30
0.0
 40
0.0820874594465043
100
AcDbArc
 50
90.0
 51
270.0
  0
LINE
  5
69D
330
18
100
AcDbEntity
  8
TEXT
100
AcDbLine
 10
-0.5513853230075512
 20
1.600076277991015
 30
0.0
 11
-0.5513853230075494
 21
1.531719271657576
 31
0.0
  0
LINE
  5
69E
330
18
100
AcDbEntity
  8
TEXT
100
AcDbLine
 10
-0.4692978635610459
 20
1.63401738575308
 30
0.0
 11
-0.393520023296217
 21
1.63401738575308
 31
0.0
  0
ARC
  5
69F
330
18
100
AcDbEntity
  8
TEXT
100
AcDbCircle
 10
-0.3935200232962166
 20
1.617046831872049
 30
0.0
 40
0.0169705538810321
100
AcDbArc
 50
270.0
 51
90.0
  0
LINE
  5
6A0
330
18
100
AcDbEntity
  8
TEXT
100
AcDbLine
 10
-0.3984603972024967
 20
1.698110888378693
 30
0.0
 11
-0.4640605334467978
 21
1.698110888378693
 31
0.0
  0
ARC
  5
6A1
330
18
100
AcDbEntity
  8
TEXT
100
AcDbCircle
 10
-0.4640605334467974
 20
1.716013249184009
 30
0.0
 40
0.017902360805315
100
AcDbArc
 50
90.0
 51
270.0
  0
LINE
  5
6A2
330
18
100
AcDbEntity
  8
TEXT
100
AcDbLine
 10
-0.1030942186426822
 20
1.697320308532966
 30
0.0
 11
-0.1617245396746201
 21
1.798192304646087
 31
0.0
  0
LINE
  5
6A3
330
18
100
AcDbEntity
  8
TEXT
100
AcDbLine
 10
-0.2432682719377217
 20
1.531719271657576
 30
0.0
 11
-0.1466280208627273
 21
1.531989910755858
 31
0.0
  0
LWPOLYLINE
  5
6A4
330
18
100
AcDbEntity
  8
TEXT
100
AcDbPolyline
 90
        6
 70
     1
 43
0.0
 10
-0.2007444683625716
 20
1.733915609989321
 10
-0.2310610625827798
 20
1.733915609989321
 10
-0.2310610625827798
 20
1.610804611934427
 42
0.407328721240804
 10
-0.2195174114213034
 20
1.598985697258041
 10
-0.1588957123765726
 20
1.598985697258041
 10
-0.1414303719692547
 20
1.63179792630152
  0
LINE
  5
6A5
330
18
100
AcDbEntity
  8
TEXT
100
AcDbLine
 10
-0.2971548794178274
 20
1.733915609989321
 30
0.0
 11
-0.2971548794178274
 21
1.591511662995626
 31
0.0
  0
ARC
  5
6A6
330
18
100
AcDbEntity
  8
TEXT
100
AcDbCircle
 10
-0.2370388614440748
 20
1.591511662995626
 30
0.0
 40
0.0601160179737537
100
AcDbArc
 50
180.0000000000003
 51
264.0521544866073
  0
LINE
  5
6A7
330
18
100
AcDbEntity
  8
TEXT
100
AcDbLine
 10
-0.2335235058185274
 20
1.832580222240225
 30
0.0
 11
-0.2935661106625344
 21
1.832580222240225
 31
0.0
  0
LINE
  5
6A8
330
18
100
AcDbEntity
  8
TEXT
100
AcDbLine
 10
-0.2935661106625344
 20
1.832580222240225
 30
0.0
 11
-0.2935661106625344
 21
1.798192304646087
 31
0.0
  0
LINE
  5
6A9
330
18
100
AcDbEntity
  8
TEXT
100
AcDbLine
 10
-0.2335235058185274
 20
1.798192304646087
 30
0.0
 11
-0.2335235058185274
 21
1.832580222240225
 31
0.0
  0
LINE
  5
6AA
330
18
100
AcDbEntity
  8
TEXT
100
AcDbLine
 10
-0.1617245396746201
 20
1.798192304646087
 30
0.0
 11
-0.2335235058185274
 21
1.798192304646087
 31
0.0
  0
LINE
  5
6AB
330
18
100
AcDbEntity
  8
TEXT
100
AcDbLine
 10
-0.1126944556396365
 20
1.551677777762589
 30
0.0
 11
-0.0153947495461919
 21
1.716027988697857
 31
0.0
  0
LINE
  5
6AC
330
18
100
AcDbEntity
  8
TEXT
100
AcDbLine
 10
-0.0153947495461919
 20
1.716027988697857
 30
0.0
 11
-0.0153947495461919
 21
1.583270613872501
 31
0.0
  0
ARC
  5
6AD
330
18
100
AcDbEntity
  8
TEXT
100
AcDbCircle
 10
-0.1467380155518501
 20
1.571266993931272
 30
0.0
 40
0.0392772371940762
100
AcDbArc
 50
270.1604552698595
 51
330.0831797321295
  0
LINE
  5
6AE
330
18
100
AcDbEntity
  8
TEXT
100
AcDbLine
 10
-0.0443456558368167
 20
1.798192304646087
 30
0.0
 11
-0.1030942186426822
 21
1.697320308532966
 31
0.0
  0
LINE
  5
6AF
330
18
100
AcDbEntity
  8
TEXT
100
AcDbLine
 10
-0.0142237430434404
 20
1.866203782384897
 30
0.0
 11
-0.0142237430434404
 21
1.798192304646087
 31
0.0
  0
LINE
  5
6B0
330
18
100
AcDbEntity
  8
TEXT
100
AcDbLine
 10
-0.0142237430434404
 20
1.798192304646087
 30
0.0
 11
-0.0443456558368167
 21
1.798192304646087
 31
0.0
  0
LWPOLYLINE
  5
6B1
330
18
100
AcDbEntity
  8
TEXT
100
AcDbPolyline
 90
        4
 70
     0
 43
0.0
 10
0.3378623785767179
 20
1.726361820823211
 10
0.3378623785767179
 20
1.531719271657576
 10
0.4063406618645758
 20
1.531719271657576
 10
0.4063406618645758
 20
1.575210216608014
 42
-1.714843617202739
  0
LWPOLYLINE
  5
6B2
330
18
100
AcDbEntity
  8
TEXT
100
AcDbPolyline
 90
        2
 70
     0
 43
0.0
 10
0.3729967291209277
 20
1.79819230464609
 42
-0.3277054968067132
 10
0.4087784198340927
 20
1.769869758876446
 42
6.667889725900311
  0
LWPOLYLINE
  5
6B3
330
18
100
AcDbEntity
  8
TEXT
100
AcDbPolyline
 90
        2
 70
     0
 43
0.0
 10
0.2015631565417006
 20
1.733915609989321
 42
-0.4142135623731017
 10
0.2091169457078141
 20
1.726361820823211
 42
-0.9999999999999998
  0
LINE
  5
6B4
330
18
100
AcDbEntity
  8
TEXT
100
AcDbLine
 10
0.2189148795917211
 20
1.798192304646087
 30
0.0
 11
0.0848968236605847
 21
1.798192304646087
 31
0.0
  0
LINE
  5
6B5
330
18
100
AcDbEntity
  8
TEXT
100
AcDbLine
 10
0.1517278767185539
 20
1.531719271657576
 30
0.0
 11
0.1517278767185539
 21
1.733915609989321
 31
0.0
  0
LINE
  5
6B6
330
18
100
AcDbEntity
  8
TEXT
100
AcDbLine
 10
0.0848968236605847
 20
1.798192304646087
 30
0.0
 11
0.0848968236605847
 21
1.597328097913679
 31
0.0
  0
LINE
  5
6B7
330
18
100
AcDbEntity
  8
TEXT
100
AcDbLine
 10
0.0525849695229246
 20
1.614107109760575
 30
0.0
 11
0.0525849695229246
 21
1.866203782384897
 31
0.0
  0
LINE
  5
6B8
330
18
100
AcDbEntity
  8
TEXT
100
AcDbLine
 10
0.0537245430191193
 20
1.531719271657576
 30
0.0
 11
0.1517278767185539
 21
1.531719271657576
 31
0.0
  0
LINE
  5
6B9
330
18
100
AcDbEntity
  8
TEXT
100
AcDbLine
 10
0.0848968236605847
 20
1.597328097913679
 30
0.0
 11
0.0679031867759834
 21
1.597328097913679
 31
0.0
  0
ARC
  5
6BA
330
18
100
AcDbEntity
  8
TEXT
100
AcDbCircle
 10
0.0679031867759825
 20
1.612709904157104
 30
0.0
 40
0.0153818062434269
100
AcDbArc
 50
174.7883570302258
 51
270.0
  0
LINE
  5
6BB
330
18
100
AcDbEntity
  8
TEXT
100
AcDbLine
 10
0.1517278767185539
 20
1.733915609989321
 30
0.0
 11
0.2015631565417015
 21
1.733915609989321
 31
0.0
  0
LINE
  5
6BC
330
18
100
AcDbEntity
  8
TEXT
100
AcDbLine
 10
0.209116945707815
 20
1.726361820823211
 30
0.0
 11
0.209116945707815
 21
1.531719271657576
 31
0.0
  0
LINE
  5
6BD
330
18
100
AcDbEntity
  8
TEXT
100
AcDbLine
 10
0.276174992489655
 20
1.531719271657576
 30
0.0
 11
0.276174992489655
 21
1.733915609989321
 31
0.0
  0
LINE
  5
6BE
330
18
100
AcDbEntity
  8
TEXT
100
AcDbLine
 10
0.209116945707815
 20
1.531719271657576
 30
0.0
 11
0.276174992489655
 21
1.531719271657576
 31
0.0
  0
LWPOLYLINE
  5
6BF
330
18
100
AcDbEntity
  8
TEXT
100
AcDbPolyline
 90
        3
 70
     0
 43
0.0
 10
0.3729967291209277
 20
1.79819230464609
 10
0.2546965703048833
 20
1.79819230464609
 10
0.2546965703048833
 20
1.771024807885194
 42
-1.960274751411753
  0
LINE
  5
6C0
330
18
100
AcDbEntity
  8
TEXT
100
AcDbLine
 10
0.276174992489655
 20
1.733915609989321
 30
0.0
 11
0.3303085894106053
 21
1.733915609989321
 31
0.0
  0
LWPOLYLINE
  5
6C1
330
18
100
AcDbEntity
  8
TEXT
100
AcDbPolyline
 90
        2
 70
     0
 43
0.0
 10
0.218914879591722
 20
1.79819230464609
 42
-0.3328679258950098
 10
0.2546965703048833
 20
1.771024807885194
 42
6.772930709997214
  0
LWPOLYLINE
  5
6C2
330
18
100
AcDbEntity
  8
TEXT
100
AcDbPolyline
 90
        2
 70
     0
 43
0.0
 10
0.3303085894106044
 20
1.733915609989321
 42
-0.4142135623731017
 10
0.3378623785767179
 20
1.726361820823211
 42
-0.9999999999999998
  0
ARC
  5
6C3
330
18
100
AcDbEntity
  8
TEXT
100
AcDbCircle
 10
0.5415833892740843
 20
1.756608737525184
 30
0.0
 40
0.0416329381542859
100
AcDbArc
 50
26.56974201007528
 51
87.20939649401342
  0
LWPOLYLINE
  5
6C4
330
18
100
AcDbEntity
  8
TEXT
100
AcDbPolyline
 90
        2
 70
     0
 43
0.0
 10
0.4494165947322113
 20
1.531719271657576
 10
0.583434012363588
 20
1.531719271657576
 42
0.9999999999999998
  0
LWPOLYLINE
  5
6C5
330
18
100
AcDbEntity
  8
TEXT
100
AcDbPolyline
 90
        4
 70
     1
 43
0.0
 10
0.5633115472936954
 20
1.634683249641601
 10
0.4746512286338369
 20
1.634683249641601
 42
0.9999999999999998
 10
0.4746512286338369
 20
1.59228470913774
 10
0.5633115472936954
 20
1.59228470913774
 42
1.0
  0
LWPOLYLINE
  5
6C6
330
18
100
AcDbEntity
  8
TEXT
100
AcDbPolyline
 90
        2
 70
     0
 43
0.0
 10
0.4063406618645758
 20
1.575210216608014
 42
0.2901071551932823
 10
0.4494165947322113
 20
1.531719271657576
 42
5.328517124445801
  0
LINE
  5
6C7
330
18
100
AcDbEntity
  8
TEXT
100
AcDbLine
 10
0.5436103290511527
 20
1.798192304646087
 30
0.0
 11
0.4087784198340936
 21
1.798192304646087
 31
0.0
  0
LINE
  5
6C8
330
18
100
AcDbEntity
  8
TEXT
100
AcDbLine
 10
0.4680925162274124
 20
1.696640636527189
 30
0.0
 11
0.5503805060107956
 21
1.696640636527189
 31
0.0
  0
LINE
  5
6C9
330
18
100
AcDbEntity
  8
TEXT
100
AcDbLine
 10
0.5145794307066743
 20
1.733915609989321
 30
0.0
 11
0.4073731573193849
 21
1.733915609989321
 31
0.0
  0
LINE
  5
6CA
330
18
100
AcDbEntity
  8
TEXT
100
AcDbLine
 10
0.4087784198340936
 20
1.798192304646087
 30
0.0
 11
0.4087784198340936
 21
1.769869758876443
 31
0.0
  0
ARC
  5
6CB
330
18
100
AcDbEntity
  8
TEXT
100
AcDbCircle
 10
0.4680925162274115
 20
1.62895505538307
 30
0.0
 40
0.0676855811441166
100
AcDbArc
 50
90.0
 51
153.7768192527749
  0
LINE
  5
6CC
330
18
100
AcDbEntity
  8
TEXT
100
AcDbLine
 10
0.4073731573193849
 20
1.733915609989321
 30
0.0
 11
0.4073731573193849
 21
1.658863203915115
 31
0.0
  0
LINE
  5
6CD
330
18
100
AcDbEntity
  8
TEXT
100
AcDbLine
 10
0.5503805060107956
 20
1.696640636527189
 30
0.0
 11
0.5401157455972312
 21
1.717891176099883
 31
0.0
  0
ARC
  5
6CE
330
18
100
AcDbEntity
  8
TEXT
100
AcDbCircle
 10
0.5145794307066734
 20
1.705556234989324
 30
0.0
 40
0.028359375
100
AcDbArc
 50
25.78218179591245
 51
90.0
  0
LINE
  5
6CF
330
18
100
AcDbEntity
  8
TEXT
100
AcDbLine
 10
0.6848651590665673
 20
1.531719271657576
 30
0.0
 11
0.684865159066562
 21
1.709009777089044
 31
0.0
  0
LWPOLYLINE
  5
6D0
330
18
100
AcDbEntity
  8
TEXT
100
AcDbPolyline
 90
        2
 70
     0
 43
0.0
 10
0.6265099452312324
 20
1.531719271657576
 10
0.6848651590665665
 20
1.531719271657576
  0
LWPOLYLINE
  5
6D1
330
18
100
AcDbEntity
  8
TEXT
100
AcDbPolyline
 90
        2
 70
     0
 43
0.0
 10
0.6265099452312324
 20
1.575210216608014
 42
-0.2901071551932486
 10
0.583434012363588
 20
1.531719271657576
 42
-5.328517124445184
  0
LWPOLYLINE
  5
6D2
330
18
100
AcDbEntity
  8
TEXT
100
AcDbPolyline
 90
        2
 70
     0
 43
0.0
 10
0.6265099452312324
 20
1.575210216608014
 10
0.6265099452312324
 20
1.531719271657576
  0
LINE
  5
6D3
330
18
100
AcDbEntity
  8
TEXT
100
AcDbLine
 10
0.6864671742256947
 20
1.798192304646087
 30
0.0
 11
0.6225702679261938
 21
1.798192304646087
 31
0.0
  0
LINE
  5
6D4
330
18
100
AcDbEntity
  8
TEXT
100
AcDbLine
 10
0.6225702679261938
 20
1.798192304646087
 30
0.0
 11
0.6225702679261938
 21
1.692980326092659
 31
0.0
  0
LINE
  5
6D5
330
18
100
AcDbEntity
  8
TEXT
100
AcDbLine
 10
0.6225702679261938
 20
1.692980326092659
 30
0.0
 11
0.5788194967442922
 21
1.775230602088805
 31
0.0
  0
ARC
  5
6D6
330
18
100
AcDbEntity
  8
TEXT
100
AcDbCircle
 10
0.7097710343492257
 20
1.709009734706659
 30
0.0
 40
0.0249058752826653
100
AcDbArc
 50
89.99971217465335
 51
179.9999999999985
  0
ARC
  5
6D7
330
18
100
AcDbEntity
  8
TEXT
100
AcDbCircle
 10
0.7176599912888034
 20
1.766946577363822
 30
0.0
 40
0.0314112657011332
100
AcDbArc
 50
95.88484768694724
 51
173.2388340632136
  0
LINE
  5
6D8
330
18
100
AcDbEntity
  8
TEXT
100
AcDbLine
 10
0.6864671742256947
 20
1.770644654785212
 30
0.0
 11
0.6864671742256947
 21
1.798192304646087
 31
0.0
  0
TEXT
  5
6D9
330
18
100
AcDbEntity
  8
TEXT
100
AcDbText
 10
1.155342693647485
 20
1.624605080303072
 30
0.0
 40
0.0522247191011236
  1
Minneapolis, MN 55432-0008
 41
1.11444212721585
 72
     5
 11
2.484275277917149
 21
1.624605080303072
 31
0.0
100
AcDbText
  0
TEXT
  5
6DA
330
18
100
AcDbEntity
  8
TEXT
100
AcDbText
 10
1.155342693647485
 20
1.717863507269364
 30
0.0
 40
0.0522247191011236
  1
6536 Main St. N.E. * P.O. Box 32008
 41
0.8388932496075355
 72
     5
 11
2.484275277917149
 21
1.717863507269364
 31
0.0
100
AcDbText
  0
TEXT
  5
6DB
330
18
100
AcDbEntity
  8
TEXT
100
AcDbText
 10
1.155342693647485
 20
1.811121934235656
 30
0.0
 40
0.0522247191011236
  1
Stylmark  Incorporated
 41
1.221428571428571
 72
     5
 11
2.484275277917149
 21
1.811121934235656
 31
0.0
100
AcDbText
  0
TEXT
  5
6DC
330
18
100
AcDbEntity
  8
TEXT
100
AcDbText
 10
1.155342693647485
 20
1.53134665333678
 30
0.0
 40
0.0522247191011236
  1
Phone  1-800-328-2495
 41
1.272321428571429
 72
     5
 11
2.484275277917149
 21
1.53134665333678
 31
0.0
100
AcDbText
  0
LINE
  5
6DD
330
18
100
AcDbEntity
  8
TEXT
100
AcDbLine
 10
0.9077868821844701
 20
1.688299061705113
 30
0.0
 11
0.9723439981501753
 21
1.798192304646087
 31
0.0
  0
LINE
  5
6DE
330
18
100
AcDbEntity
  8
TEXT
100
AcDbLine
 10
0.9723439981501753
 20
1.798192304646087
 30
0.0
 11
0.8973521654205489
 21
1.798192304646087
 31
0.0
  0
LINE
  5
6DF
330
18
100
AcDbEntity
  8
TEXT
100
AcDbLine
 10
0.9267007331718746
 20
1.531719271657576
 30
0.0
 11
1.00327910554808
 21
1.531719271657576
 31
0.0
  0
LINE
  5
6E0
330
18
100
AcDbEntity
  8
TEXT
100
AcDbLine
 10
1.00327910554808
 20
1.531719271657576
 30
0.0
 11
0.9077868821844701
 21
1.688299061705113
 31
0.0
  0
LINE
  5
6E1
330
18
100
AcDbEntity
  8
TEXT
100
AcDbLine
 10
0.85079719996041
 20
1.531719271657576
 30
0.0
 11
0.85079719996041
 21
1.663298840133756
 31
0.0
  0
LINE
  5
6E2
330
18
100
AcDbEntity
  8
TEXT
100
AcDbLine
 10
0.85079719996041
 20
1.663298840133756
 30
0.0
 11
0.9267007331718746
 21
1.531719271657576
 31
0.0
  0
LINE
  5
6E3
330
18
100
AcDbEntity
  8
TEXT
100
AcDbLine
 10
0.7864190156417843
 20
1.733915609989321
 30
0.0
 11
0.7864190156417897
 21
1.531719271657576
 31
0.0
  0
LINE
  5
6E4
330
18
100
AcDbEntity
  8
TEXT
100
AcDbLine
 10
0.7864190156417897
 20
1.531719271657576
 30
0.0
 11
0.85079719996041
 21
1.531719271657576
 31
0.0
  0
LINE
  5
6E5
330
18
100
AcDbEntity
  8
TEXT
100
AcDbLine
 10
0.8502540068645627
 20
1.863656510413687
 30
0.0
 11
0.7819391283152895
 21
1.863656510413687
 31
0.0
  0
LINE
  5
6E6
330
18
100
AcDbEntity
  8
TEXT
100
AcDbLine
 10
0.7819391283152895
 20
1.863656510413687
 30
0.0
 11
0.7819391283152842
 21
1.798192304646087
 31
0.0
  0
LINE
  5
6E7
330
18
100
AcDbEntity
  8
TEXT
100
AcDbLine
 10
0.8973521654205471
 20
1.798192304646087
 30
0.0
 11
0.8502540068645627
 21
1.722326978234549
 31
0.0
  0
LINE
  5
6E8
330
18
100
AcDbEntity
  8
TEXT
100
AcDbLine
 10
0.8502540068645627
 20
1.722326978234549
 30
0.0
 11
0.8502540068645627
 21
1.863656510413687
 31
0.0
  0
ENDSEC
  0
SECTION
  2
OBJECTS
  0
DICTIONARY
  5
C
330
0
100
AcDbDictionary
  3
ACAD_GROUP
350
D
  3
ACAD_LAYOUT
350
6EE
  3
ACAD_MLINESTYLE
350
E
  3
ACAD_PLOTSETTINGS
350
6EF
  3
ACAD_PLOTSTYLENAME
350
6EC
  3
ACDBHEADERROUNDTRIPXREC
350
6F8
  3
ACDBVARIABLEDICTIONARY
350
3EB
  0
DICTIONARY
  5
71A
330
18
100
AcDbDictionary
280
     1
  3
ACAD_LAYOUTSELFREF
360
71B
  0
DICTIONARY
  5
718
330
15
100
AcDbDictionary
280
     1
  3
ACAD_LAYOUTSELFREF
360
719
  0
DICTIONARY
  5
D
102
{ACAD_REACTORS
330
C
102
}
330
C
100
AcDbDictionary
  3
*A1
350
3ED
  3
*A2
350
5A6
  0
DICTIONARY
  5
6EE
102
{ACAD_REACTORS
330
C
102
}
330
C
100
AcDbDictionary
  0
DICTIONARY
  5
E
102
{ACAD_REACTORS
330
C
102
}
330
C
100
AcDbDictionary
  3
STANDARD
350
1B
  0
DICTIONARY
  5
6EF
102
{ACAD_REACTORS
330
C
102
}
330
C
100
AcDbDictionary
  0
ACDBDICTIONARYWDFLT
  5
6EC
102
{ACAD_REACTORS
330
C
102
}
330
C
100
AcDbDictionary
281
     1
  3
Normal
350
6ED
100
AcDbDictionaryWithDefault
340
6ED
  0
DICTIONARY
  5
6F8
102
{ACAD_REACTORS
330
C
102
}
330
C
100
AcDbDictionary
  3
CEPSNTYPE
350
702
  3
FINGERPRINTGUID
350
703
  3
HYPERLINKBASE
350
6FB
  3
INSUNITS
350
701
  3
LAYOUTDICT
350
6FD
  3
LWETCUNION
350
700
  3
PLOTSETDICT
350
6FE
  3
PLOTSTYLNAMDICT
350
6FF
  3
PSVPSCALE
350
705
  3
PUCSBASE
350
708
  3
PUCSORGBACK
350
70E
  3
PUCSORGBOTTOM
350
70A
  3
PUCSORGFRONT
350
70D
  3
PUCSORGLEFT
350
70B
  3
PUCSORGRIGHT
350
70C
  3
PUCSORGTOP
350
709
  3
PUCSORTHOREF
350
706
  3
PUCSORTHOVIEW
350
707
  3
STYLESHEET
350
6FC
  3
TSTACKALIGN
350
6F9
  3
TSTACKSIZE
350
6FA
  3
UCSBASE
350
711
  3
UCSORGBACK
350
717
  3
UCSORGBOTTOM
350
713
  3
UCSORGFRONT
350
716
  3
UCSORGLEFT
350
714
  3
UCSORGRIGHT
350
715
  3
UCSORGTOP
350
712
  3
UCSORTHOREF
350
70F
  3
UCSORTHOVIEW
350
710
  3
VERSIONGUID
350
704
  0
DICTIONARY
  5
3EB
102
{ACAD_REACTORS
330
C
102
}
330
C
100
AcDbDictionary
  3
DIMASSOC
350
6F6
  3
SORTENTS
350
3EC
  0
XRECORD
  5
71B
102
{ACAD_REACTORS
330
71A
102
}
330
71A
100
AcDbXrecord
340
18
  0
XRECORD
  5
719
102
{ACAD_REACTORS
330
718
102
}
330
718
100
AcDbXrecord
340
15
  0
GROUP
  5
3ED
102
{ACAD_REACTORS
330
D
102
}
330
D
100
AcDbGroup
300
BORDER FRAME 10-1-95
 70
     3
 71
     1
  0
GROUP
  5
5A6
102
{ACAD_REACTORS
330
D
102
}
330
D
100
AcDbGroup
300

 70
     1
 71
     1
  0
MLINESTYLE
  5
1B
102
{ACAD_REACTORS
330
E
102
}
330
E
100
AcDbMlineStyle
  2
STANDARD
 70
     0
  3

 62
     0
 51
90.0
 52
90.0
 71
     2
 49
0.5
 62
   256
  6
BYLAYER
 49
-0.5
 62
   256
  6
BYLAYER
  0
ACDBPLACEHOLDER
  5
6ED
102
{ACAD_REACTORS
330
6EC
102
}
330
6EC
100
AcDbPlaceHolder
280
     0
  0
XRECORD
  5
702
102
{ACAD_REACTORS
330
6F8
102
}
330
6F8
100
AcDbXrecord
 90
        0
  0
XRECORD
  5
703
102
{ACAD_REACTORS
330
6F8
102
}
330
6F8
100
AcDbXrecord
  1
{7F713730-8DB5-11D6-88E6-0090279574E7}
  0
XRECORD
  5
6FB
102
{ACAD_REACTORS
330
6F8
102
}
330
6F8
100
AcDbXrecord
  1

  0
XRECORD
  5
701
102
{ACAD_REACTORS
330
6F8
102
}
330
6F8
100
AcDbXrecord
 90
        0
  0
XRECORD
  5
6FD
102
{ACAD_REACTORS
330
6F8
102
}
330
6F8
100
AcDbXrecord
340
6EE
  0
XRECORD
  5
700
102
{ACAD_REACTORS
330
6F8
102
}
330
6F8
100
AcDbXrecord
 90
    14877
  0
XRECORD
  5
6FE
102
{ACAD_REACTORS
330
6F8
102
}
330
6F8
100
AcDbXrecord
340
6EF
  0
XRECORD
  5
6FF
102
{ACAD_REACTORS
330
6F8
102
}
330
6F8
100
AcDbXrecord
340
6EC
  0
XRECORD
  5
705
102
{ACAD_REACTORS
330
6F8
102
}
330
6F8
100
AcDbXrecord
 40
0.0
  0
XRECORD
  5
708
102
{ACAD_REACTORS
330
6F8
102
}
330
6F8
100
AcDbXrecord
340
0
  0
XRECORD
  5
70E
102
{ACAD_REACTORS
330
6F8
102
}
330
6F8
100
AcDbXrecord
 10
0.0
 20
0.0
 30
0.0
  0
XRECORD
  5
70A
102
{ACAD_REACTORS
330
6F8
102
}
330
6F8
100
AcDbXrecord
 10
0.0
 20
0.0
 30
0.0
  0
XRECORD
  5
70D
102
{ACAD_REACTORS
330
6F8
102
}
330
6F8
100
AcDbXrecord
 10
0.0
 20
0.0
 30
0.0
  0
XRECORD
  5
70B
102
{ACAD_REACTORS
330
6F8
102
}
330
6F8
100
AcDbXrecord
 10
0.0
 20
0.0
 30
0.0
  0
XRECORD
  5
70C
102
{ACAD_REACTORS
330
6F8
102
}
330
6F8
100
AcDbXrecord
 10
0.0
 20
0.0
 30
0.0
  0
XRECORD
  5
709
102
{ACAD_REACTORS
330
6F8
102
}
330
6F8
100
AcDbXrecord
 10
0.0
 20
0.0
 30
0.0
  0
XRECORD
  5
706
102
{ACAD_REACTORS
330
6F8
102
}
330
6F8
100
AcDbXrecord
340
0
  0
XRECORD
  5
707
102
{ACAD_REACTORS
330
6F8
102
}
330
6F8
100
AcDbXrecord
 70
     0
  0
XRECORD
  5
6FC
102
{ACAD_REACTORS
330
6F8
102
}
330
6F8
100
AcDbXrecord
  1

  0
XRECORD
  5
6F9
102
{ACAD_REACTORS
330
6F8
102
}
330
6F8
100
AcDbXrecord
 90
        1
  0
XRECORD
  5
6FA
102
{ACAD_REACTORS
330
6F8
102
}
330
6F8
100
AcDbXrecord
 90
       70
  0
XRECORD
  5
711
102
{ACAD_REACTORS
330
6F8
102
}
330
6F8
100
AcDbXrecord
340
0
  0
XRECORD
  5
717
102
{ACAD_REACTORS
330
6F8
102
}
330
6F8
100
AcDbXrecord
 10
0.0
 20
0.0
 30
0.0
  0
XRECORD
  5
713
102
{ACAD_REACTORS
330
6F8
102
}
330
6F8
100
AcDbXrecord
 10
0.0
 20
0.0
 30
0.0
  0
XRECORD
  5
716
102
{ACAD_REACTORS
330
6F8
102
}
330
6F8
100
AcDbXrecord
 10
0.0
 20
0.0
 30
0.0
  0
XRECORD
  5
714
102
{ACAD_REACTORS
330
6F8
102
}
330
6F8
100
AcDbXrecord
 10
0.0
 20
0.0
 30
0.0
  0
XRECORD
  5
715
102
{ACAD_REACTORS
330
6F8
102
}
330
6F8
100
AcDbXrecord
 10
0.0
 20
0.0
 30
0.0
  0
XRECORD
  5
712
102
{ACAD_REACTORS
330
6F8
102
}
330
6F8
100
AcDbXrecord
 10
0.0
 20
0.0
 30
0.0
  0
XRECORD
  5
70F
102
{ACAD_REACTORS
330
6F8
102
}
330
6F8
100
AcDbXrecord
340
0
  0
XRECORD
  5
710
102
{ACAD_REACTORS
330
6F8
102
}
330
6F8
100
AcDbXrecord
 70
     0
  0
XRECORD
  5
704
102
{ACAD_REACTORS
330
6F8
102
}
330
6F8
100
AcDbXrecord
  1
{7F713732-8DB5-11D6-88E6-0090279574E7}
  0
DICTIONARYVAR
  5
6F6
102
{ACAD_REACTORS
330
3EB
102
}
330
3EB
100
DictionaryVariables
280
     0
  1
1
  0
DICTIONARYVAR
  5
3EC
102
{ACAD_REACTORS
330
3EB
102
}
330
3EB
100
DictionaryVariables
280
     0
  1
97
  0
ENDSEC
  0
EOF
