  0
SECTION
  2
HEADER
  9
$ACADVER
  1
AC1014
  9
$ACADMAINTVER
 70
     9
  9
$DWGCODEPAGE
  3
ANSI_1252
  9
$INSBASE
 10
0.0
 20
0.0
 30
0.0
  9
$EXTMIN
 10
1.761614416069949
 20
4.802430293186581
 30
0.0
  9
$EXTMAX
 10
5.246833737817084
 20
6.991623737341528
 30
0.0
  9
$LIMMIN
 10
0.0
 20
0.0
  9
$LIMMAX
 10
8.5
 20
11.0
  9
$ORTHOMODE
 70
     0
  9
$REGENMODE
 70
     1
  9
$FILLMODE
 70
     1
  9
$QTEXTMODE
 70
     0
  9
$MIRRTEXT
 70
     0
  9
$DRAGMODE
 70
     2
  9
$LTSCALE
 40
1.0
  9
$OSMODE
 70
    39
  9
$ATTMODE
 70
     1
  9
$TEXTSIZE
 40
0.125
  9
$TRACEWID
 40
0.05
  9
$TEXTSTYLE
  7
ROMANS
  9
$CLAYER
  8
DIM
  9
$CELTYPE
  6
BYLAYER
  9
$CECOLOR
 62
   256
  9
$CELTSCALE
 40
1.0
  9
$DELOBJ
 70
     1
  9
$DISPSILH
 70
     1
  9
$DIMSCALE
 40
2.0
  9
$DIMASZ
 40
0.125
  9
$DIMEXO
 40
0.125
  9
$DIMDLI
 40
0.375
  9
$DIMRND
 40
0.0
  9
$DIMDLE
 40
0.0
  9
$DIMEXE
 40
0.125
  9
$DIMTP
 40
0.0
  9
$DIMTM
 40
0.02
  9
$DIMTXT
 40
0.125
  9
$DIMCEN
 40
-0.125
  9
$DIMTSZ
 40
0.0
  9
$DIMTOL
 70
     0
  9
$DIMLIM
 70
     0
  9
$DIMTIH
 70
     1
  9
$DIMTOH
 70
     1
  9
$DIMSE1
 70
     0
  9
$DIMSE2
 70
     0
  9
$DIMTAD
 70
     0
  9
$DIMZIN
 70
     4
  9
$DIMBLK
  1

  9
$DIMASO
 70
     1
  9
$DIMSHO
 70
     1
  9
$DIMPOST
  1

  9
$DIMAPOST
  1

  9
$DIMALT
 70
     0
  9
$DIMALTD
 70
     2
  9
$DIMALTF
 40
25.4
  9
$DIMLFAC
 40
1.0
  9
$DIMTOFL
 70
     0
  9
$DIMTVP
 40
0.0
  9
$DIMTIX
 70
     0
  9
$DIMSOXD
 70
     0
  9
$DIMSAH
 70
     0
  9
$DIMBLK1
  1

  9
$DIMBLK2
  1

  9
$DIMSTYLE
  2
STANDARD
  9
$DIMCLRD
 70
     0
  9
$DIMCLRE
 70
     0
  9
$DIMCLRT
 70
     0
  9
$DIMTFAC
 40
1.0
  9
$DIMGAP
 40
0.09
  9
$DIMJUST
 70
     0
  9
$DIMSD1
 70
     0
  9
$DIMSD2
 70
     0
  9
$DIMTOLJ
 70
     1
  9
$DIMTZIN
 70
     4
  9
$DIMALTZ
 70
     0
  9
$DIMALTTZ
 70
     0
  9
$DIMFIT
 70
     3
  9
$DIMUPT
 70
     0
  9
$DIMUNIT
 70
     2
  9
$DIMDEC
 70
     3
  9
$DIMTDEC
 70
     3
  9
$DIMALTU
 70
     2
  9
$DIMALTTD
 70
     2
  9
$DIMTXSTY
  7
ROMANS
  9
$DIMAUNIT
 70
     0
  9
$LUNITS
 70
     2
  9
$LUPREC
 70
     3
  9
$SKETCHINC
 40
0.1
  9
$FILLETRAD
 40
0.0
  9
$AUNITS
 70
     0
  9
$AUPREC
 70
     0
  9
$MENU
  1
AUTOMSTR
  9
$ELEVATION
 40
0.0
  9
$PELEVATION
 40
0.0
  9
$THICKNESS
 40
0.0
  9
$LIMCHECK
 70
     0
  9
$BLIPMODE
 70
     0
  9
$CHAMFERA
 40
0.0
  9
$CHAMFERB
 40
0.0
  9
$CHAMFERC
 40
0.0
  9
$CHAMFERD
 40
0.0
  9
$SKPOLY
 70
     0
  9
$TDCREATE
 40
2448348.641050347
  9
$TDUPDATE
 40
2452458.302862662
  9
$TDINDWG
 40
0.0465431944
  9
$TDUSRTIMER
 40
0.0465431944
  9
$USRTIMER
 70
     1
  9
$ANGBASE
 50
0.0
  9
$ANGDIR
 70
     0
  9
$PDMODE
 70
     0
  9
$PDSIZE
 40
0.0
  9
$PLINEWID
 40
0.0
  9
$COORDS
 70
     2
  9
$SPLFRAME
 70
     0
  9
$SPLINETYPE
 70
     6
  9
$SPLINESEGS
 70
     8
  9
$ATTDIA
 70
     0
  9
$ATTREQ
 70
     1
  9
$HANDLING
 70
 22529
  9
$HANDSEED
  5
6F2
  9
$SURFTAB1
 70
     6
  9
$SURFTAB2
 70
     6
  9
$SURFTYPE
 70
     6
  9
$SURFU
 70
     6
  9
$SURFV
 70
     6
  9
$UCSNAME
  2

  9
$UCSORG
 10
0.0
 20
0.0
 30
0.0
  9
$UCSXDIR
 10
1.0
 20
0.0
 30
0.0
  9
$UCSYDIR
 10
0.0
 20
1.0
 30
0.0
  9
$PUCSNAME
  2

  9
$PUCSORG
 10
0.0
 20
0.0
 30
0.0
  9
$PUCSXDIR
 10
1.0
 20
0.0
 30
0.0
  9
$PUCSYDIR
 10
0.0
 20
1.0
 30
0.0
  9
$USERI1
 70
     0
  9
$USERI2
 70
     0
  9
$USERI3
 70
     0
  9
$USERI4
 70
     0
  9
$USERI5
 70
     0
  9
$USERR1
 40
0.0
  9
$USERR2
 40
0.0
  9
$USERR3
 40
0.0
  9
$USERR4
 40
0.0
  9
$USERR5
 40
0.0
  9
$WORLDVIEW
 70
     1
  9
$SHADEDGE
 70
     3
  9
$SHADEDIF
 70
    70
  9
$TILEMODE
 70
     1
  9
$MAXACTVP
 70
    16
  9
$PINSBASE
 10
0.0
 20
0.0
 30
0.0
  9
$PLIMCHECK
 70
     0
  9
$PEXTMIN
 10
1.000000000000000E+20
 20
1.000000000000000E+20
 30
1.000000000000000E+20
  9
$PEXTMAX
 10
-1.000000000000000E+20
 20
-1.000000000000000E+20
 30
-1.000000000000000E+20
  9
$PLIMMIN
 10
0.0
 20
0.0
  9
$PLIMMAX
 10
12.0
 20
9.0
  9
$UNITMODE
 70
     0
  9
$VISRETAIN
 70
     0
  9
$PLINEGEN
 70
     1
  9
$PSLTSCALE
 70
     0
  9
$TREEDEPTH
 70
  3020
  9
$PICKSTYLE
 70
     1
  9
$CMLSTYLE
  2
STANDARD
  9
$CMLJUST
 70
     0
  9
$CMLSCALE
 40
1.0
  9
$PROXYGRAPHICS
 70
     1
  9
$MEASUREMENT
 70
     0
  0
ENDSEC
  0
SECTION
  2
CLASSES
  0
CLASS
  1
LWPOLYLINE
  2
AcDbPolyline
  3
AutoCAD 2000
 90
        0
280
     0
281
     1
  0
CLASS
  1
ACDBDICTIONARYWDFLT
  2
AcDbDictionaryWithDefault
  3
AutoCAD 2000
 90
        0
280
     0
281
     0
  0
CLASS
  1
ACDBPLACEHOLDER
  2
AcDbPlaceHolder
  3
AutoCAD 2000
 90
        0
280
     0
281
     0
  0
CLASS
  1
LAYOUT
  2
AcDbLayout
  3
AutoCAD 2000
 90
        0
280
     0
281
     0
  0
CLASS
  1
DICTIONARYVAR
  2
AcDbDictionaryVar
  3
AutoCAD 2000
 90
        0
280
     0
281
     0
  0
CLASS
  1
LONG_TRANSACTION
  2
AcDbLongTransaction
  3
AutoCAD 2000
 90
        0
280
     0
281
     0
  0
CLASS
  1
LWPOLYLINE
  2
AcDbPolyline
  3
AutoCAD 2000
 90
        0
280
     0
281
     1
  0
CLASS
  1
HATCH
  2
AcDbHatch
  3
AutoCAD 2000
 90
        0
280
     0
281
     1
  0
CLASS
  1
XRECORD
  2
AcDbXrecord
  3
AutoCAD 2000
 90
        0
280
     0
281
     0
  0
ENDSEC
  0
SECTION
  2
TABLES
  0
TABLE
  2
VPORT
  5
8
330
0
100
AcDbSymbolTable
 70
     2
  0
VPORT
  5
6CD
330
8
100
AcDbSymbolTableRecord
100
AcDbViewportTableRecord
  2
*ACTIVE
 70
     0
 10
0.0
 20
0.0
 11
1.0
 21
1.0
 12
6.487832473402366
 22
5.896782552579638
 13
0.0
 23
0.0
 14
0.015625
 24
0.015625
 15
0.0
 25
0.0
 16
0.0
 26
0.0
 36
1.0
 17
0.0
 27
0.0
 37
0.0
 40
2.209119199322771
 41
4.320930232558139
 42
50.0
 43
0.0
 44
0.0
 50
0.0
 51
0.0
 71
     0
 72
  2000
 73
     1
 74
     1
 75
     0
 76
     0
 77
     0
 78
     0
  0
ENDTAB
  0
TABLE
  2
LTYPE
  5
5
330
0
100
AcDbSymbolTable
 70
     1
  0
LTYPE
  5
12
330
5
100
AcDbSymbolTableRecord
100
AcDbLinetypeTableRecord
  2
BYBLOCK
 70
     0
  3

 72
    65
 73
     0
 40
0.0
  0
LTYPE
  5
13
330
5
100
AcDbSymbolTableRecord
100
AcDbLinetypeTableRecord
  2
BYLAYER
 70
     0
  3

 72
    65
 73
     0
 40
0.0
  0
LTYPE
  5
14
330
5
100
AcDbSymbolTableRecord
100
AcDbLinetypeTableRecord
  2
CONTINUOUS
 70
     0
  3
Solid line
 72
    65
 73
     0
 40
0.0
  0
ENDTAB
  0
TABLE
  2
LAYER
  5
2
330
0
100
AcDbSymbolTable
 70
     3
  0
LAYER
  5
F
330
2
100
AcDbSymbolTableRecord
100
AcDbLayerTableRecord
  2
0
 70
     0
 62
     7
  6
CONTINUOUS
  0
LAYER
  5
29
330
2
100
AcDbSymbolTableRecord
100
AcDbLayerTableRecord
  2
DIM
 70
     0
 62
     4
  6
CONTINUOUS
  0
LAYER
  5
2A
330
2
100
AcDbSymbolTableRecord
100
AcDbLayerTableRecord
  2
TEXT
 70
     0
 62
     3
  6
CONTINUOUS
  0
ENDTAB
  0
TABLE
  2
STYLE
  5
3
330
0
100
AcDbSymbolTable
 70
     3
  0
STYLE
  5
10
330
3
100
AcDbSymbolTableRecord
100
AcDbTextStyleTableRecord
  2
STANDARD
 70
     0
 40
0.0
 41
1.0
 50
0.0
 71
     0
 42
0.125
  3
txt
  4

  0
STYLE
  5
3C2
330
3
100
AcDbSymbolTableRecord
100
AcDbTextStyleTableRecord
  2
ROMANS
 70
     0
 40
0.0
 41
1.0
 50
0.0
 71
     0
 42
0.125
  3
romans.shx
  4

  0
STYLE
  5
5BA
330
3
100
AcDbSymbolTableRecord
100
AcDbTextStyleTableRecord
  2
ITALICC
 70
     0
 40
0.0
 41
1.0
 50
0.0
 71
     0
 42
0.125
  3
italicc
  4

  0
ENDTAB
  0
TABLE
  2
VIEW
  5
6
330
0
100
AcDbSymbolTable
 70
     0
  0
ENDTAB
  0
TABLE
  2
UCS
  5
7
330
0
100
AcDbSymbolTable
 70
     0
  0
ENDTAB
  0
TABLE
  2
APPID
  5
9
330
0
100
AcDbSymbolTable
 70
     1
  0
APPID
  5
11
330
9
100
AcDbSymbolTableRecord
100
AcDbRegAppTableRecord
  2
ACAD
 70
     0
  0
ENDTAB
  0
TABLE
  2
DIMSTYLE
  5
A
330
0
100
AcDbSymbolTable
 70
     1
  0
DIMSTYLE
105
3B7
330
A
100
AcDbSymbolTableRecord
100
AcDbDimStyleTableRecord
  2
STANDARD
 70
     0
  3

  4

  5

  6

  7

 40
2.0
 41
0.125
 42
0.125
 43
0.375
 44
0.125
 45
0.0
 46
0.0
 47
0.0
 48
0.02
140
0.125
141
-0.125
142
0.0
143
25.4
144
1.0
145
0.0
146
1.0
147
0.09
 71
     0
 72
     0
 73
     1
 74
     1
 75
     0
 76
     0
 77
     0
 78
     4
170
     0
171
     2
172
     0
173
     0
174
     0
175
     0
176
     0
177
     0
178
     0
270
     2
271
     3
272
     3
273
     2
274
     2
340
3C2
275
     0
280
     0
281
     0
282
     0
283
     1
284
     4
285
     0
286
     0
287
     3
288
     0
  0
ENDTAB
  0
TABLE
  2
BLOCK_RECORD
  5
1
330
0
100
AcDbSymbolTable
 70
     0
  0
BLOCK_RECORD
  5
18
102
{ACAD_XDICTIONARY
360
6F0
102
}
330
1
100
AcDbSymbolTableRecord
100
AcDbBlockTableRecord
  2
*MODEL_SPACE
  0
BLOCK_RECORD
  5
15
102
{ACAD_XDICTIONARY
360
6EE
102
}
330
1
100
AcDbSymbolTableRecord
100
AcDbBlockTableRecord
  2
*PAPER_SPACE
  0
ENDTAB
  0
ENDSEC
  0
SECTION
  2
BLOCKS
  0
BLOCK
  5
33
330
18
100
AcDbEntity
  8
0
100
AcDbBlockBegin
  2
*MODEL_SPACE
 70
     0
 10
0.0
 20
0.0
 30
0.0
  3
*MODEL_SPACE
  1

  0
ENDBLK
  5
34
330
18
100
AcDbEntity
  8
0
100
AcDbBlockEnd
  0
BLOCK
  5
31
330
15
100
AcDbEntity
 67
     1
  8
0
100
AcDbBlockBegin
  2
*PAPER_SPACE
 70
     0
 10
0.0
 20
0.0
 30
0.0
  3
*PAPER_SPACE
  1

  0
ENDBLK
  5
32
330
15
100
AcDbEntity
 67
     1
  8
0
100
AcDbBlockEnd
  0
ENDSEC
  0
SECTION
  2
ENTITIES
  0
LWPOLYLINE
  5
1C7
330
18
100
AcDbEntity
  8
0
100
AcDbPolyline
 90
       20
 70
     1
 43
0.0
 10
2.4375
 20
5.546875
 10
2.508373412263473
 20
5.546875
 42
0.2679491924311233
 10
2.535436706131736
 20
5.5625
 10
2.5625
 20
5.609375
 10
2.1325
 20
5.609375
 10
2.1325
 20
6.914374999999999
 10
4.992499999999999
 20
6.914374999999999
 10
4.992499999999999
 20
5.609375
 10
4.5625
 20
5.609375
 10
4.589563293868263
 20
5.5625
 42
0.2679491924311233
 10
4.616626587736528
 20
5.546875
 10
4.6875
 20
5.546875
 10
5.021113700699517
 20
5.484962572284933
 42
0.4690378118484448
 10
5.0625
 20
5.519375
 10
5.0625
 20
6.949374999999998
 42
0.4142135623730951
 10
5.027499999999999
 20
6.984374999999999
 10
2.0975
 20
6.984375
 42
0.4142135623730951
 10
2.0625
 20
6.949374999999999
 10
2.0625
 20
5.519375
 42
0.4690378118484448
 10
2.103886299300484
 20
5.484962572284933
  0
TEXT
  5
63F
330
18
100
AcDbEntity
  8
TEXT
100
AcDbText
 10
2.748643614344711
 20
5.260448897269164
 30
0.0
 40
0.125
  1
PART #110245
  7
ITALICC
 72
     1
 11
3.504595995297091
 21
5.260448897269164
 31
0.0
100
AcDbText
  0
LINE
  5
640
330
18
100
AcDbEntity
  8
TEXT
100
AcDbLine
 10
3.472329494249154
 20
5.016095211249329
 30
0.0
 11
3.548977475541712
 21
5.016095211249329
 31
0.0
  0
LINE
  5
641
330
18
100
AcDbEntity
  8
TEXT
100
AcDbLine
 10
3.544497588215212
 20
5.080371905906095
 30
0.0
 11
3.476997870565695
 21
5.080371905906095
 31
0.0
  0
LWPOLYLINE
  5
642
330
18
100
AcDbEntity
  8
TEXT
100
AcDbPolyline
 90
        5
 70
     0
 43
0.0001332181640625
 10
1.835217451714479
 20
4.957145104148282
 10
1.848539268120728
 20
4.957145104148282
 10
1.848539268120728
 20
4.993780099265472
 10
1.885174263237918
 20
4.993780099265472
 10
1.885174263237918
 20
5.007101915671719
  0
LWPOLYLINE
  5
643
330
18
100
AcDbEntity
  8
TEXT
100
AcDbPolyline
 90
        3
 70
     0
 43
0.0006660908203125
 10
1.875182900933227
 20
5.053728273093597
 10
1.788591094292602
 20
5.053728273093597
 10
1.788591094292602
 20
4.967136466452971
  0
LWPOLYLINE
  5
644
330
18
100
AcDbEntity
  8
TEXT
100
AcDbPolyline
 90
        3
 70
     0
 43
0.0006660908203125
 10
1.875182900933227
 20
5.080371905906098
 10
1.761947461480105
 20
5.080371905906098
 10
1.761947461480105
 20
4.967136466452971
  0
LWPOLYLINE
  5
645
330
18
100
AcDbEntity
  8
TEXT
100
AcDbPolyline
 90
        5
 70
     0
 43
0.0001332181640625
 10
1.885174263237918
 20
4.887205568015471
 10
1.885174263237918
 20
4.900527384421722
 10
1.84853926812073
 20
4.900527384421722
 10
1.84853926812073
 20
4.937162379538908
 10
1.835217451714479
 20
4.937162379538908
  0
LWPOLYLINE
  5
646
330
18
100
AcDbEntity
  8
TEXT
100
AcDbPolyline
 90
        3
 70
     0
 43
0.0006660908203125
 10
1.788591094292602
 20
4.927171017234223
 10
1.788591094292602
 20
4.840579210593596
 10
1.875182900933227
 20
4.840579210593596
  0
LWPOLYLINE
  5
647
330
18
100
AcDbEntity
  8
TEXT
100
AcDbPolyline
 90
        3
 70
     0
 43
0.0006660908203125
 10
1.761947461480105
 20
4.927171017234223
 10
1.761947461480105
 20
4.813935577781095
 10
1.875182900933227
 20
4.813935577781095
  0
LWPOLYLINE
  5
648
330
18
100
AcDbEntity
  8
TEXT
100
AcDbPolyline
 90
        2
 70
     0
 43
0.0001332181640625
 10
1.788591094292602
 20
4.927171017234223
 10
1.84853926812073
 20
4.937162379538908
  0
LWPOLYLINE
  5
649
330
18
100
AcDbEntity
  8
TEXT
100
AcDbPolyline
 90
        2
 70
     0
 43
0.0001332181640625
 10
1.835217451714479
 20
4.937162379538908
 10
1.761947461480105
 20
4.927171017234223
  0
LWPOLYLINE
  5
64A
330
18
100
AcDbEntity
  8
TEXT
100
AcDbPolyline
 90
        2
 70
     0
 43
0.0006660908203125
 10
1.788591094292602
 20
4.927171017234223
 10
1.761947461480105
 20
4.927171017234223
  0
LWPOLYLINE
  5
64B
330
18
100
AcDbEntity
  8
TEXT
100
AcDbPolyline
 90
        2
 70
     0
 43
0.0001332181640625
 10
1.788591094292602
 20
4.840579210593596
 10
1.84853926812073
 20
4.900527384421722
  0
LWPOLYLINE
  5
64C
330
18
100
AcDbEntity
  8
TEXT
100
AcDbPolyline
 90
        2
 70
     0
 43
0.0006660908203125
 10
1.788591094292602
 20
4.967136466452971
 10
1.761947461480105
 20
4.967136466452971
  0
LWPOLYLINE
  5
64D
330
18
100
AcDbEntity
  8
TEXT
100
AcDbPolyline
 90
        2
 70
     0
 43
0.0001332181640625
 10
1.761947461480105
 20
4.967136466452971
 10
1.835217451714479
 20
4.957145104148282
  0
LWPOLYLINE
  5
64E
330
18
100
AcDbEntity
  8
TEXT
100
AcDbPolyline
 90
        2
 70
     0
 43
0.0001332181640625
 10
1.788591094292602
 20
4.967136466452971
 10
1.848539268120728
 20
4.957145104148282
  0
LWPOLYLINE
  5
64F
330
18
100
AcDbEntity
  8
TEXT
100
AcDbPolyline
 90
        2
 70
     0
 43
0.0001332181640625
 10
1.788591094292602
 20
5.053728273093597
 10
1.848539268120728
 20
4.993780099265472
  0
LWPOLYLINE
  5
650
330
18
100
AcDbEntity
  8
TEXT
100
AcDbPolyline
 90
        5
 70
     0
 43
0.0001332181640625
 10
1.955113799370728
 20
4.937162379538908
 10
1.94179198296448
 20
4.937162379538908
 10
1.94179198296448
 20
4.900527384421722
 10
1.90515698784729
 20
4.900527384421722
 10
1.90515698784729
 20
4.887205568015471
  0
LWPOLYLINE
  5
651
330
18
100
AcDbEntity
  8
TEXT
100
AcDbPolyline
 90
        2
 70
     0
 43
0.0001332181640625
 10
2.001740156792604
 20
4.927171017234223
 10
1.94179198296448
 20
4.937162379538908
  0
LWPOLYLINE
  5
652
330
18
100
AcDbEntity
  8
TEXT
100
AcDbPolyline
 90
        2
 70
     0
 43
0.0001332181640625
 10
2.028383789605105
 20
4.927171017234223
 10
1.955113799370728
 20
4.937162379538908
  0
LWPOLYLINE
  5
653
330
18
100
AcDbEntity
  8
TEXT
100
AcDbPolyline
 90
        3
 70
     0
 43
0.0006660908203125
 10
1.915148350151979
 20
4.813935577781095
 10
2.028383789605105
 20
4.813935577781095
 10
2.028383789605105
 20
4.927171017234223
  0
LWPOLYLINE
  5
654
330
18
100
AcDbEntity
  8
TEXT
100
AcDbPolyline
 90
        3
 70
     0
 43
0.0006660908203125
 10
1.915148350151979
 20
4.840579210593596
 10
2.001740156792604
 20
4.840579210593596
 10
2.001740156792604
 20
4.927171017234223
  0
LWPOLYLINE
  5
655
330
18
100
AcDbEntity
  8
TEXT
100
AcDbPolyline
 90
        2
 70
     0
 43
0.0001332181640625
 10
2.001740156792604
 20
4.840579210593596
 10
1.94179198296448
 20
4.900527384421722
  0
LWPOLYLINE
  5
656
330
18
100
AcDbEntity
  8
TEXT
100
AcDbPolyline
 90
        2
 70
     0
 43
0.0006660908203125
 10
1.915148350151979
 20
4.840579210593596
 10
1.915148350151979
 20
4.813935577781095
  0
LWPOLYLINE
  5
657
330
18
100
AcDbEntity
  8
TEXT
100
AcDbPolyline
 90
        2
 70
     0
 43
0.0001332181640625
 10
1.90515698784729
 20
4.887205568015471
 10
1.915148350151979
 20
4.813935577781095
  0
LWPOLYLINE
  5
658
330
18
100
AcDbEntity
  8
TEXT
100
AcDbPolyline
 90
        2
 70
     0
 43
0.0001332181640625
 10
1.915148350151979
 20
4.840579210593596
 10
1.90515698784729
 20
4.900527384421722
  0
LWPOLYLINE
  5
659
330
18
100
AcDbEntity
  8
TEXT
100
AcDbPolyline
 90
        2
 70
     0
 43
0.0001332181640625
 10
1.875182900933227
 20
4.813935577781095
 10
1.885174263237918
 20
4.887205568015471
  0
LWPOLYLINE
  5
65A
330
18
100
AcDbEntity
  8
TEXT
100
AcDbPolyline
 90
        2
 70
     0
 43
0.0001332181640625
 10
1.875182900933227
 20
4.840579210593596
 10
1.885174263237918
 20
4.900527384421722
  0
LWPOLYLINE
  5
65B
330
18
100
AcDbEntity
  8
TEXT
100
AcDbPolyline
 90
        2
 70
     0
 43
0.0006660908203125
 10
1.875182900933227
 20
4.840579210593596
 10
1.875182900933227
 20
4.813935577781095
  0
LWPOLYLINE
  5
65C
330
18
100
AcDbEntity
  8
TEXT
100
AcDbPolyline
 90
        2
 70
     0
 43
0.0006660908203125
 10
2.001740156792604
 20
4.927171017234223
 10
2.028383789605105
 20
4.927171017234223
  0
LWPOLYLINE
  5
65D
330
18
100
AcDbEntity
  8
TEXT
100
AcDbPolyline
 90
        2
 70
     0
 43
0.0001332181640625
 10
2.001740156792604
 20
5.053728273093597
 10
1.94179198296448
 20
4.993780099265472
  0
LWPOLYLINE
  5
65E
330
18
100
AcDbEntity
  8
TEXT
100
AcDbPolyline
 90
        2
 70
     0
 43
0.0001332181640625
 10
2.001740156792604
 20
4.967136466452971
 10
1.94179198296448
 20
4.957145104148282
  0
LWPOLYLINE
  5
65F
330
18
100
AcDbEntity
  8
TEXT
100
AcDbPolyline
 90
        2
 70
     0
 43
0.0001332181640625
 10
1.955113799370728
 20
4.957145104148282
 10
2.028383789605105
 20
4.967136466452971
  0
LWPOLYLINE
  5
660
330
18
100
AcDbEntity
  8
TEXT
100
AcDbPolyline
 90
        3
 70
     0
 43
0.0006660908203125
 10
2.001740156792604
 20
4.967136466452971
 10
2.001740156792604
 20
5.053728273093597
 10
1.915148350151979
 20
5.053728273093597
  0
LWPOLYLINE
  5
661
330
18
100
AcDbEntity
  8
TEXT
100
AcDbPolyline
 90
        3
 70
     0
 43
0.0006660908203125
 10
2.028383789605105
 20
4.967136466452971
 10
2.028383789605105
 20
5.080371905906098
 10
1.915148350151979
 20
5.080371905906098
  0
LWPOLYLINE
  5
662
330
18
100
AcDbEntity
  8
TEXT
100
AcDbPolyline
 90
        2
 70
     0
 43
0.0001332181640625
 10
1.915148350151979
 20
5.080371905906098
 10
1.90515698784729
 20
5.007101915671719
  0
LWPOLYLINE
  5
663
330
18
100
AcDbEntity
  8
TEXT
100
AcDbPolyline
 90
        2
 70
     0
 43
0.0001332181640625
 10
1.915148350151979
 20
5.053728273093597
 10
1.90515698784729
 20
4.993780099265472
  0
LWPOLYLINE
  5
664
330
18
100
AcDbEntity
  8
TEXT
100
AcDbPolyline
 90
        2
 70
     0
 43
0.0006660908203125
 10
1.915148350151979
 20
5.053728273093597
 10
1.915148350151979
 20
5.080371905906098
  0
LWPOLYLINE
  5
665
330
18
100
AcDbEntity
  8
TEXT
100
AcDbPolyline
 90
        5
 70
     0
 43
0.0001332181640625
 10
1.90515698784729
 20
5.007101915671719
 10
1.90515698784729
 20
4.993780099265472
 10
1.94179198296448
 20
4.993780099265472
 10
1.94179198296448
 20
4.957145104148282
 10
1.955113799370728
 20
4.957145104148282
  0
LWPOLYLINE
  5
666
330
18
100
AcDbEntity
  8
TEXT
100
AcDbPolyline
 90
        2
 70
     0
 43
0.0001332181640625
 10
1.875182900933227
 20
5.053728273093597
 10
1.885174263237918
 20
4.993780099265472
  0
LWPOLYLINE
  5
667
330
18
100
AcDbEntity
  8
TEXT
100
AcDbPolyline
 90
        2
 70
     0
 43
0.0001332181640625
 10
1.885174263237918
 20
5.007101915671719
 10
1.875182900933227
 20
5.080371905906098
  0
LWPOLYLINE
  5
668
330
18
100
AcDbEntity
  8
TEXT
100
AcDbPolyline
 90
        2
 70
     0
 43
0.0006660908203125
 10
1.875182900933227
 20
5.053728273093597
 10
1.875182900933227
 20
5.080371905906098
  0
LWPOLYLINE
  5
669
330
18
100
AcDbEntity
  8
TEXT
100
AcDbPolyline
 90
        2
 70
     0
 43
0.0006660908203125
 10
2.001740156792604
 20
4.967136466452971
 10
2.028383789605105
 20
4.967136466452971
  0
LWPOLYLINE
  5
66A
330
18
100
AcDbEntity
  8
TEXT
100
AcDbPolyline
 90
        2
 70
     0
 43
0.0
 10
2.747163710353735
 20
4.865450215132512
 42
0.3318488747599744
 10
2.816283002919048
 20
4.813898872917584
 42
-6.868794160588311
  0
LINE
  5
66B
330
18
100
AcDbEntity
  8
TEXT
100
AcDbLine
 10
2.815143429422852
 20
5.148383383644905
 30
0.0
 11
2.748334716856487
 21
5.148383383644905
 31
0.0
  0
LINE
  5
66C
330
18
100
AcDbEntity
  8
TEXT
100
AcDbLine
 10
2.468992349237393
 20
5.080371905906095
 30
0.0
 11
2.293260596338882
 21
5.080371905906095
 31
0.0
  0
ARC
  5
66D
330
18
100
AcDbEntity
  8
TEXT
100
AcDbCircle
 10
2.364098062697431
 20
4.897094681278141
 30
0.0
 40
0.0831958083605586
100
AcDbArc
 50
270.0
 51
90.0
  0
LINE
  5
66E
330
18
100
AcDbEntity
  8
TEXT
100
AcDbLine
 10
2.29849792645313
 20
5.016095211249329
 30
0.0
 11
2.4654035804821
 21
5.016095211249329
 31
0.0
  0
LINE
  5
66F
330
18
100
AcDbEntity
  8
TEXT
100
AcDbLine
 10
2.369038436603711
 20
4.882255879251023
 30
0.0
 11
2.211173136892377
 21
4.882255879251023
 31
0.0
  0
LINE
  5
670
330
18
100
AcDbEntity
  8
TEXT
100
AcDbLine
 10
2.211173136892378
 20
4.813898872917584
 30
0.0
 11
2.364098062697431
 21
4.813898872917584
 31
0.0
  0
ARC
  5
671
330
18
100
AcDbEntity
  8
TEXT
100
AcDbCircle
 10
2.293260596338882
 20
4.998284446459593
 30
0.0
 40
0.0820874594465043
100
AcDbArc
 50
90.0
 51
270.0
  0
LINE
  5
672
330
18
100
AcDbEntity
  8
TEXT
100
AcDbLine
 10
2.211173136892377
 20
4.882255879251023
 30
0.0
 11
2.211173136892378
 21
4.813898872917584
 31
0.0
  0
LINE
  5
673
330
18
100
AcDbEntity
  8
TEXT
100
AcDbLine
 10
2.293260596338882
 20
4.916196987013088
 30
0.0
 11
2.369038436603711
 21
4.916196987013088
 31
0.0
  0
ARC
  5
674
330
18
100
AcDbEntity
  8
TEXT
100
AcDbCircle
 10
2.369038436603711
 20
4.899226433132057
 30
0.0
 40
0.0169705538810321
100
AcDbArc
 50
270.0
 51
90.0
  0
LINE
  5
675
330
18
100
AcDbEntity
  8
TEXT
100
AcDbLine
 10
2.364098062697431
 20
4.980290489638702
 30
0.0
 11
2.29849792645313
 21
4.980290489638702
 31
0.0
  0
ARC
  5
676
330
18
100
AcDbEntity
  8
TEXT
100
AcDbCircle
 10
2.29849792645313
 20
4.998192850444017
 30
0.0
 40
0.017902360805315
100
AcDbArc
 50
90.0
 51
270.0
  0
LINE
  5
677
330
18
100
AcDbEntity
  8
TEXT
100
AcDbLine
 10
2.659464241257246
 20
4.979499909792974
 30
0.0
 11
2.600833920225308
 21
5.080371905906095
 31
0.0
  0
LINE
  5
678
330
18
100
AcDbEntity
  8
TEXT
100
AcDbLine
 10
2.519290187962206
 20
4.813898872917584
 30
0.0
 11
2.6159304390372
 21
4.814169512015866
 31
0.0
  0
LWPOLYLINE
  5
679
330
18
100
AcDbEntity
  8
TEXT
100
AcDbPolyline
 90
        6
 70
     1
 43
0.0
 10
2.561813991537356
 20
5.016095211249329
 10
2.531497397317148
 20
5.016095211249329
 10
2.531497397317148
 20
4.892984213194435
 42
0.407328721240804
 10
2.543041048478624
 20
4.881165298518049
 10
2.603662747523355
 20
4.881165298518049
 10
2.621128087930673
 20
4.913977527561528
  0
LINE
  5
67A
330
18
100
AcDbEntity
  8
TEXT
100
AcDbLine
 10
2.4654035804821
 20
5.016095211249329
 30
0.0
 11
2.4654035804821
 21
4.873691264255634
 31
0.0
  0
ARC
  5
67B
330
18
100
AcDbEntity
  8
TEXT
100
AcDbCircle
 10
2.525519598455853
 20
4.873691264255634
 30
0.0
 40
0.0601160179737537
100
AcDbArc
 50
180.0000000000003
 51
264.0521544866073
  0
LINE
  5
67C
330
18
100
AcDbEntity
  8
TEXT
100
AcDbLine
 10
2.5290349540814
 20
5.114759823500233
 30
0.0
 11
2.468992349237393
 21
5.114759823500233
 31
0.0
  0
LINE
  5
67D
330
18
100
AcDbEntity
  8
TEXT
100
AcDbLine
 10
2.468992349237393
 20
5.114759823500233
 30
0.0
 11
2.468992349237393
 21
5.080371905906095
 31
0.0
  0
LINE
  5
67E
330
18
100
AcDbEntity
  8
TEXT
100
AcDbLine
 10
2.5290349540814
 20
5.080371905906095
 30
0.0
 11
2.5290349540814
 21
5.114759823500233
 31
0.0
  0
LINE
  5
67F
330
18
100
AcDbEntity
  8
TEXT
100
AcDbLine
 10
2.600833920225308
 20
5.080371905906095
 30
0.0
 11
2.5290349540814
 21
5.080371905906095
 31
0.0
  0
LINE
  5
680
330
18
100
AcDbEntity
  8
TEXT
100
AcDbLine
 10
2.649864004260291
 20
4.833857379022597
 30
0.0
 11
2.747163710353736
 21
4.998207589957865
 31
0.0
  0
LINE
  5
681
330
18
100
AcDbEntity
  8
TEXT
100
AcDbLine
 10
2.747163710353736
 20
4.998207589957865
 30
0.0
 11
2.747163710353736
 21
4.865450215132509
 31
0.0
  0
ARC
  5
682
330
18
100
AcDbEntity
  8
TEXT
100
AcDbCircle
 10
2.615820444348078
 20
4.85344659519128
 30
0.0
 40
0.0392772371940762
100
AcDbArc
 50
270.1604552698595
 51
330.0831797321295
  0
LINE
  5
683
330
18
100
AcDbEntity
  8
TEXT
100
AcDbLine
 10
2.718212804063111
 20
5.080371905906095
 30
0.0
 11
2.659464241257246
 21
4.979499909792974
 31
0.0
  0
LINE
  5
684
330
18
100
AcDbEntity
  8
TEXT
100
AcDbLine
 10
2.748334716856487
 20
5.148383383644905
 30
0.0
 11
2.748334716856487
 21
5.080371905906095
 31
0.0
  0
LINE
  5
685
330
18
100
AcDbEntity
  8
TEXT
100
AcDbLine
 10
2.748334716856487
 20
5.080371905906095
 30
0.0
 11
2.718212804063111
 21
5.080371905906095
 31
0.0
  0
LWPOLYLINE
  5
686
330
18
100
AcDbEntity
  8
TEXT
100
AcDbPolyline
 90
        4
 70
     0
 43
0.0
 10
3.100420838476646
 20
5.00854142208322
 10
3.100420838476646
 20
4.813898872917584
 10
3.168899121764503
 20
4.813898872917584
 10
3.168899121764503
 20
4.857389817868022
 42
-1.714843617202739
  0
LWPOLYLINE
  5
687
330
18
100
AcDbEntity
  8
TEXT
100
AcDbPolyline
 90
        2
 70
     0
 43
0.0
 10
3.135555189020855
 20
5.080371905906098
 42
-0.3277054968067132
 10
3.17133687973402
 20
5.052049360136455
 42
6.667889725900311
  0
LWPOLYLINE
  5
688
330
18
100
AcDbEntity
  8
TEXT
100
AcDbPolyline
 90
        2
 70
     0
 43
0.0
 10
2.964121616441628
 20
5.016095211249329
 42
-0.4142135623731017
 10
2.971675405607742
 20
5.00854142208322
 42
-0.9999999999999998
  0
LINE
  5
689
330
18
100
AcDbEntity
  8
TEXT
100
AcDbLine
 10
2.981473339491649
 20
5.080371905906095
 30
0.0
 11
2.847455283560512
 21
5.080371905906095
 31
0.0
  0
LINE
  5
68A
330
18
100
AcDbEntity
  8
TEXT
100
AcDbLine
 10
2.914286336618482
 20
4.813898872917584
 30
0.0
 11
2.914286336618482
 21
5.016095211249329
 31
0.0
  0
LINE
  5
68B
330
18
100
AcDbEntity
  8
TEXT
100
AcDbLine
 10
2.847455283560512
 20
5.080371905906095
 30
0.0
 11
2.847455283560512
 21
4.879507699173687
 31
0.0
  0
LINE
  5
68C
330
18
100
AcDbEntity
  8
TEXT
100
AcDbLine
 10
2.815143429422852
 20
4.896286711020583
 30
0.0
 11
2.815143429422852
 21
5.148383383644905
 31
0.0
  0
LINE
  5
68D
330
18
100
AcDbEntity
  8
TEXT
100
AcDbLine
 10
2.816283002919047
 20
4.813898872917584
 30
0.0
 11
2.914286336618482
 21
4.813898872917584
 31
0.0
  0
LINE
  5
68E
330
18
100
AcDbEntity
  8
TEXT
100
AcDbLine
 10
2.847455283560512
 20
4.879507699173687
 30
0.0
 11
2.830461646675911
 21
4.879507699173687
 31
0.0
  0
ARC
  5
68F
330
18
100
AcDbEntity
  8
TEXT
100
AcDbCircle
 10
2.83046164667591
 20
4.894889505417112
 30
0.0
 40
0.0153818062434269
100
AcDbArc
 50
174.7883570302258
 51
270.0
  0
LINE
  5
690
330
18
100
AcDbEntity
  8
TEXT
100
AcDbLine
 10
2.914286336618482
 20
5.016095211249329
 30
0.0
 11
2.964121616441629
 21
5.016095211249329
 31
0.0
  0
LINE
  5
691
330
18
100
AcDbEntity
  8
TEXT
100
AcDbLine
 10
2.971675405607743
 20
5.00854142208322
 30
0.0
 11
2.971675405607743
 21
4.813898872917584
 31
0.0
  0
LINE
  5
692
330
18
100
AcDbEntity
  8
TEXT
100
AcDbLine
 10
3.038733452389583
 20
4.813898872917584
 30
0.0
 11
3.038733452389583
 21
5.016095211249329
 31
0.0
  0
LINE
  5
693
330
18
100
AcDbEntity
  8
TEXT
100
AcDbLine
 10
2.971675405607743
 20
4.813898872917584
 30
0.0
 11
3.038733452389583
 21
4.813898872917584
 31
0.0
  0
LWPOLYLINE
  5
694
330
18
100
AcDbEntity
  8
TEXT
100
AcDbPolyline
 90
        3
 70
     0
 43
0.0
 10
3.135555189020855
 20
5.080371905906098
 10
3.017255030204811
 20
5.080371905906098
 10
3.017255030204811
 20
5.053204409145203
 42
-1.960274751411753
  0
LINE
  5
695
330
18
100
AcDbEntity
  8
TEXT
100
AcDbLine
 10
3.038733452389583
 20
5.016095211249329
 30
0.0
 11
3.092867049310533
 21
5.016095211249329
 31
0.0
  0
LWPOLYLINE
  5
696
330
18
100
AcDbEntity
  8
TEXT
100
AcDbPolyline
 90
        2
 70
     0
 43
0.0
 10
2.98147333949165
 20
5.080371905906098
 42
-0.3328679258950098
 10
3.017255030204811
 20
5.053204409145203
 42
6.772930709997214
  0
LWPOLYLINE
  5
697
330
18
100
AcDbEntity
  8
TEXT
100
AcDbPolyline
 90
        2
 70
     0
 43
0.0
 10
3.092867049310532
 20
5.016095211249329
 42
-0.4142135623731017
 10
3.100420838476646
 20
5.00854142208322
 42
-0.9999999999999998
  0
ARC
  5
698
330
18
100
AcDbEntity
  8
TEXT
100
AcDbCircle
 10
3.304141849174012
 20
5.038788338785193
 30
0.0
 40
0.0416329381542859
100
AcDbArc
 50
26.56974201007528
 51
87.20939649401342
  0
LWPOLYLINE
  5
699
330
18
100
AcDbEntity
  8
TEXT
100
AcDbPolyline
 90
        2
 70
     0
 43
0.0
 10
3.211975054632139
 20
4.813898872917584
 10
3.345992472263516
 20
4.813898872917584
 42
0.9999999999999998
  0
LWPOLYLINE
  5
69A
330
18
100
AcDbEntity
  8
TEXT
100
AcDbPolyline
 90
        4
 70
     1
 43
0.0
 10
3.325870007193623
 20
4.916862850901609
 10
3.237209688533765
 20
4.916862850901609
 42
0.9999999999999998
 10
3.237209688533765
 20
4.874464310397748
 10
3.325870007193623
 20
4.874464310397748
 42
1.0
  0
LWPOLYLINE
  5
69B
330
18
100
AcDbEntity
  8
TEXT
100
AcDbPolyline
 90
        2
 70
     0
 43
0.0
 10
3.168899121764503
 20
4.857389817868022
 42
0.2901071551932823
 10
3.211975054632139
 20
4.813898872917584
 42
5.328517124445801
  0
LINE
  5
69C
330
18
100
AcDbEntity
  8
TEXT
100
AcDbLine
 10
3.30616878895108
 20
5.080371905906095
 30
0.0
 11
3.171336879734021
 21
5.080371905906095
 31
0.0
  0
LINE
  5
69D
330
18
100
AcDbEntity
  8
TEXT
100
AcDbLine
 10
3.23065097612734
 20
4.978820237787197
 30
0.0
 11
3.312938965910723
 21
4.978820237787197
 31
0.0
  0
LINE
  5
69E
330
18
100
AcDbEntity
  8
TEXT
100
AcDbLine
 10
3.277137890606602
 20
5.016095211249329
 30
0.0
 11
3.169931617219313
 21
5.016095211249329
 31
0.0
  0
LINE
  5
69F
330
18
100
AcDbEntity
  8
TEXT
100
AcDbLine
 10
3.171336879734021
 20
5.080371905906095
 30
0.0
 11
3.171336879734021
 21
5.052049360136451
 31
0.0
  0
ARC
  5
6A0
330
18
100
AcDbEntity
  8
TEXT
100
AcDbCircle
 10
3.230650976127339
 20
4.911134656643079
 30
0.0
 40
0.0676855811441166
100
AcDbArc
 50
90.0
 51
153.7768192527749
  0
LINE
  5
6A1
330
18
100
AcDbEntity
  8
TEXT
100
AcDbLine
 10
3.169931617219313
 20
5.016095211249329
 30
0.0
 11
3.169931617219313
 21
4.941042805175123
 31
0.0
  0
LINE
  5
6A2
330
18
100
AcDbEntity
  8
TEXT
100
AcDbLine
 10
3.312938965910723
 20
4.978820237787197
 30
0.0
 11
3.302674205497159
 21
5.000070777359892
 31
0.0
  0
ARC
  5
6A3
330
18
100
AcDbEntity
  8
TEXT
100
AcDbCircle
 10
3.277137890606601
 20
4.987735836249332
 30
0.0
 40
0.028359375
100
AcDbArc
 50
25.78218179591245
 51
90.0
  0
LINE
  5
6A4
330
18
100
AcDbEntity
  8
TEXT
100
AcDbLine
 10
3.447423618966495
 20
4.813898872917584
 30
0.0
 11
3.44742361896649
 21
4.991189378349052
 31
0.0
  0
LWPOLYLINE
  5
6A5
330
18
100
AcDbEntity
  8
TEXT
100
AcDbPolyline
 90
        2
 70
     0
 43
0.0
 10
3.38906840513116
 20
4.813898872917584
 10
3.447423618966494
 20
4.813898872917584
  0
LWPOLYLINE
  5
6A6
330
18
100
AcDbEntity
  8
TEXT
100
AcDbPolyline
 90
        2
 70
     0
 43
0.0
 10
3.38906840513116
 20
4.857389817868022
 42
-0.2901071551932486
 10
3.345992472263516
 20
4.813898872917584
 42
-5.328517124445184
  0
LWPOLYLINE
  5
6A7
330
18
100
AcDbEntity
  8
TEXT
100
AcDbPolyline
 90
        2
 70
     0
 43
0.0
 10
3.38906840513116
 20
4.857389817868022
 10
3.38906840513116
 20
4.813898872917584
  0
LINE
  5
6A8
330
18
100
AcDbEntity
  8
TEXT
100
AcDbLine
 10
3.449025634125622
 20
5.080371905906095
 30
0.0
 11
3.385128727826121
 21
5.080371905906095
 31
0.0
  0
LINE
  5
6A9
330
18
100
AcDbEntity
  8
TEXT
100
AcDbLine
 10
3.385128727826121
 20
5.080371905906095
 30
0.0
 11
3.385128727826121
 21
4.975159927352668
 31
0.0
  0
LINE
  5
6AA
330
18
100
AcDbEntity
  8
TEXT
100
AcDbLine
 10
3.385128727826121
 20
4.975159927352668
 30
0.0
 11
3.34137795664422
 21
5.057410203348813
 31
0.0
  0
ARC
  5
6AB
330
18
100
AcDbEntity
  8
TEXT
100
AcDbCircle
 10
3.472329494249153
 20
4.991189335966667
 30
0.0
 40
0.0249058752826653
100
AcDbArc
 50
89.99971217465335
 51
179.9999999999985
  0
ARC
  5
6AC
330
18
100
AcDbEntity
  8
TEXT
100
AcDbCircle
 10
3.480218451188731
 20
5.04912617862383
 30
0.0
 40
0.0314112657011332
100
AcDbArc
 50
95.88484768694724
 51
173.2388340632136
  0
LINE
  5
6AD
330
18
100
AcDbEntity
  8
TEXT
100
AcDbLine
 10
3.449025634125622
 20
5.05282425604522
 30
0.0
 11
3.449025634125622
 21
5.080371905906095
 31
0.0
  0
TEXT
  5
6AE
330
18
100
AcDbEntity
  8
TEXT
100
AcDbText
 10
3.917901153547413
 20
4.90678468156308
 30
0.0
 40
0.0522247191011236
  1
Minneapolis, MN 55432-0008
 41
1.11444212721585
 72
     5
 11
5.246833737817077
 21
4.90678468156308
 31
0.0
100
AcDbText
  0
TEXT
  5
6AF
330
18
100
AcDbEntity
  8
TEXT
100
AcDbText
 10
3.917901153547413
 20
5.000043108529372
 30
0.0
 40
0.0522247191011236
  1
6536 Main St. N.E. * P.O. Box 32008
 41
0.8388932496075355
 72
     5
 11
5.246833737817077
 21
5.000043108529372
 31
0.0
100
AcDbText
  0
TEXT
  5
6B0
330
18
100
AcDbEntity
  8
TEXT
100
AcDbText
 10
3.917901153547413
 20
5.093301535495665
 30
0.0
 40
0.0522247191011236
  1
Stylmark  Incorporated
 41
1.221428571428571
 72
     5
 11
5.246833737817077
 21
5.093301535495665
 31
0.0
100
AcDbText
  0
TEXT
  5
6B1
330
18
100
AcDbEntity
  8
TEXT
100
AcDbText
 10
3.917901153547413
 20
4.813526254596788
 30
0.0
 40
0.0522247191011236
  1
Phone  1-800-328-2495
 41
1.272321428571429
 72
     5
 11
5.246833737817077
 21
4.813526254596788
 31
0.0
100
AcDbText
  0
LINE
  5
6B2
330
18
100
AcDbEntity
  8
TEXT
100
AcDbLine
 10
3.670345342084398
 20
4.970478662965121
 30
0.0
 11
3.734902458050103
 21
5.080371905906095
 31
0.0
  0
LINE
  5
6B3
330
18
100
AcDbEntity
  8
TEXT
100
AcDbLine
 10
3.734902458050103
 20
5.080371905906095
 30
0.0
 11
3.659910625320477
 21
5.080371905906095
 31
0.0
  0
LINE
  5
6B4
330
18
100
AcDbEntity
  8
TEXT
100
AcDbLine
 10
3.689259193071802
 20
4.813898872917584
 30
0.0
 11
3.765837565448008
 21
4.813898872917584
 31
0.0
  0
LINE
  5
6B5
330
18
100
AcDbEntity
  8
TEXT
100
AcDbLine
 10
3.765837565448008
 20
4.813898872917584
 30
0.0
 11
3.670345342084398
 21
4.970478662965121
 31
0.0
  0
LINE
  5
6B6
330
18
100
AcDbEntity
  8
TEXT
100
AcDbLine
 10
3.613355659860338
 20
4.813898872917584
 30
0.0
 11
3.613355659860338
 21
4.945478441393764
 31
0.0
  0
LINE
  5
6B7
330
18
100
AcDbEntity
  8
TEXT
100
AcDbLine
 10
3.613355659860338
 20
4.945478441393764
 30
0.0
 11
3.689259193071802
 21
4.813898872917584
 31
0.0
  0
LINE
  5
6B8
330
18
100
AcDbEntity
  8
TEXT
100
AcDbLine
 10
3.548977475541712
 20
5.016095211249329
 30
0.0
 11
3.548977475541717
 21
4.813898872917584
 31
0.0
  0
LINE
  5
6B9
330
18
100
AcDbEntity
  8
TEXT
100
AcDbLine
 10
3.548977475541717
 20
4.813898872917584
 30
0.0
 11
3.613355659860338
 21
4.813898872917584
 31
0.0
  0
LINE
  5
6BA
330
18
100
AcDbEntity
  8
TEXT
100
AcDbLine
 10
3.61281246676449
 20
5.145836111673696
 30
0.0
 11
3.544497588215217
 21
5.145836111673696
 31
0.0
  0
LINE
  5
6BB
330
18
100
AcDbEntity
  8
TEXT
100
AcDbLine
 10
3.544497588215217
 20
5.145836111673696
 30
0.0
 11
3.544497588215212
 21
5.080371905906095
 31
0.0
  0
LINE
  5
6BC
330
18
100
AcDbEntity
  8
TEXT
100
AcDbLine
 10
3.659910625320475
 20
5.080371905906095
 30
0.0
 11
3.61281246676449
 21
5.004506579494557
 31
0.0
  0
LINE
  5
6BD
330
18
100
AcDbEntity
  8
TEXT
100
AcDbLine
 10
3.61281246676449
 20
5.004506579494557
 30
0.0
 11
3.61281246676449
 21
5.145836111673696
 31
0.0
  0
ENDSEC
  0
SECTION
  2
OBJECTS
  0
DICTIONARY
  5
C
330
0
100
AcDbDictionary
  3
ACAD_GROUP
350
D
  3
ACAD_LAYOUT
350
6C3
  3
ACAD_MLINESTYLE
350
E
  3
ACAD_PLOTSETTINGS
350
6C4
  3
ACAD_PLOTSTYLENAME
350
6C1
  3
ACDBHEADERROUNDTRIPXREC
350
6CE
  3
ACDBVARIABLEDICTIONARY
350
6CB
  0
DICTIONARY
  5
6F0
330
18
100
AcDbDictionary
280
     1
  3
ACAD_LAYOUTSELFREF
360
6F1
  0
DICTIONARY
  5
6EE
330
15
100
AcDbDictionary
280
     1
  3
ACAD_LAYOUTSELFREF
360
6EF
  0
DICTIONARY
  5
D
102
{ACAD_REACTORS
330
C
102
}
330
C
100
AcDbDictionary
  3
*A1
350
3D8
  3
*A2
350
591
  0
DICTIONARY
  5
6C3
102
{ACAD_REACTORS
330
C
102
}
330
C
100
AcDbDictionary
  0
DICTIONARY
  5
E
102
{ACAD_REACTORS
330
C
102
}
330
C
100
AcDbDictionary
  3
STANDARD
350
1B
  0
DICTIONARY
  5
6C4
102
{ACAD_REACTORS
330
C
102
}
330
C
100
AcDbDictionary
  0
ACDBDICTIONARYWDFLT
  5
6C1
102
{ACAD_REACTORS
330
C
102
}
330
C
100
AcDbDictionary
281
     1
  3
Normal
350
6C2
100
AcDbDictionaryWithDefault
340
6C2
  0
DICTIONARY
  5
6CE
102
{ACAD_REACTORS
330
C
102
}
330
C
100
AcDbDictionary
  3
CEPSNTYPE
350
6D8
  3
FINGERPRINTGUID
350
6D9
  3
HYPERLINKBASE
350
6D1
  3
INSUNITS
350
6D7
  3
LAYOUTDICT
350
6D3
  3
LWETCUNION
350
6D6
  3
PLOTSETDICT
350
6D4
  3
PLOTSTYLNAMDICT
350
6D5
  3
PSVPSCALE
350
6DB
  3
PUCSBASE
350
6DE
  3
PUCSORGBACK
350
6E4
  3
PUCSORGBOTTOM
350
6E0
  3
PUCSORGFRONT
350
6E3
  3
PUCSORGLEFT
350
6E1
  3
PUCSORGRIGHT
350
6E2
  3
PUCSORGTOP
350
6DF
  3
PUCSORTHOREF
350
6DC
  3
PUCSORTHOVIEW
350
6DD
  3
STYLESHEET
350
6D2
  3
TSTACKALIGN
350
6CF
  3
TSTACKSIZE
350
6D0
  3
UCSBASE
350
6E7
  3
UCSORGBACK
350
6ED
  3
UCSORGBOTTOM
350
6E9
  3
UCSORGFRONT
350
6EC
  3
UCSORGLEFT
350
6EA
  3
UCSORGRIGHT
350
6EB
  3
UCSORGTOP
350
6E8
  3
UCSORTHOREF
350
6E5
  3
UCSORTHOVIEW
350
6E6
  3
VERSIONGUID
350
6DA
  0
DICTIONARY
  5
6CB
102
{ACAD_REACTORS
330
C
102
}
330
C
100
AcDbDictionary
  3
DIMASSOC
350
6CC
  0
XRECORD
  5
6F1
102
{ACAD_REACTORS
330
6F0
102
}
330
6F0
100
AcDbXrecord
340
18
  0
XRECORD
  5
6EF
102
{ACAD_REACTORS
330
6EE
102
}
330
6EE
100
AcDbXrecord
340
15
  0
GROUP
  5
3D8
102
{ACAD_REACTORS
330
D
102
}
330
D
100
AcDbGroup
300
BORDER FRAME 10-1-95
 70
     3
 71
     1
  0
GROUP
  5
591
102
{ACAD_REACTORS
330
D
102
}
330
D
100
AcDbGroup
300

 70
     1
 71
     1
  0
MLINESTYLE
  5
1B
102
{ACAD_REACTORS
330
E
102
}
330
E
100
AcDbMlineStyle
  2
STANDARD
 70
     0
  3

 62
     0
 51
90.0
 52
90.0
 71
     2
 49
0.5
 62
   256
  6
BYLAYER
 49
-0.5
 62
   256
  6
BYLAYER
  0
ACDBPLACEHOLDER
  5
6C2
102
{ACAD_REACTORS
330
6C1
102
}
330
6C1
100
AcDbPlaceHolder
280
     0
  0
XRECORD
  5
6D8
102
{ACAD_REACTORS
330
6CE
102
}
330
6CE
100
AcDbXrecord
 90
        0
  0
XRECORD
  5
6D9
102
{ACAD_REACTORS
330
6CE
102
}
330
6CE
100
AcDbXrecord
  1
{7B07F7A0-8DB5-11D6-88E6-0090279574E7}
  0
XRECORD
  5
6D1
102
{ACAD_REACTORS
330
6CE
102
}
330
6CE
100
AcDbXrecord
  1

  0
XRECORD
  5
6D7
102
{ACAD_REACTORS
330
6CE
102
}
330
6CE
100
AcDbXrecord
 90
        0
  0
XRECORD
  5
6D3
102
{ACAD_REACTORS
330
6CE
102
}
330
6CE
100
AcDbXrecord
340
6C3
  0
XRECORD
  5
6D6
102
{ACAD_REACTORS
330
6CE
102
}
330
6CE
100
AcDbXrecord
 90
    14877
  0
XRECORD
  5
6D4
102
{ACAD_REACTORS
330
6CE
102
}
330
6CE
100
AcDbXrecord
340
6C4
  0
XRECORD
  5
6D5
102
{ACAD_REACTORS
330
6CE
102
}
330
6CE
100
AcDbXrecord
340
6C1
  0
XRECORD
  5
6DB
102
{ACAD_REACTORS
330
6CE
102
}
330
6CE
100
AcDbXrecord
 40
0.0
  0
XRECORD
  5
6DE
102
{ACAD_REACTORS
330
6CE
102
}
330
6CE
100
AcDbXrecord
340
0
  0
XRECORD
  5
6E4
102
{ACAD_REACTORS
330
6CE
102
}
330
6CE
100
AcDbXrecord
 10
0.0
 20
0.0
 30
0.0
  0
XRECORD
  5
6E0
102
{ACAD_REACTORS
330
6CE
102
}
330
6CE
100
AcDbXrecord
 10
0.0
 20
0.0
 30
0.0
  0
XRECORD
  5
6E3
102
{ACAD_REACTORS
330
6CE
102
}
330
6CE
100
AcDbXrecord
 10
0.0
 20
0.0
 30
0.0
  0
XRECORD
  5
6E1
102
{ACAD_REACTORS
330
6CE
102
}
330
6CE
100
AcDbXrecord
 10
0.0
 20
0.0
 30
0.0
  0
XRECORD
  5
6E2
102
{ACAD_REACTORS
330
6CE
102
}
330
6CE
100
AcDbXrecord
 10
0.0
 20
0.0
 30
0.0
  0
XRECORD
  5
6DF
102
{ACAD_REACTORS
330
6CE
102
}
330
6CE
100
AcDbXrecord
 10
0.0
 20
0.0
 30
0.0
  0
XRECORD
  5
6DC
102
{ACAD_REACTORS
330
6CE
102
}
330
6CE
100
AcDbXrecord
340
0
  0
XRECORD
  5
6DD
102
{ACAD_REACTORS
330
6CE
102
}
330
6CE
100
AcDbXrecord
 70
     0
  0
XRECORD
  5
6D2
102
{ACAD_REACTORS
330
6CE
102
}
330
6CE
100
AcDbXrecord
  1

  0
XRECORD
  5
6CF
102
{ACAD_REACTORS
330
6CE
102
}
330
6CE
100
AcDbXrecord
 90
        1
  0
XRECORD
  5
6D0
102
{ACAD_REACTORS
330
6CE
102
}
330
6CE
100
AcDbXrecord
 90
       70
  0
XRECORD
  5
6E7
102
{ACAD_REACTORS
330
6CE
102
}
330
6CE
100
AcDbXrecord
340
0
  0
XRECORD
  5
6ED
102
{ACAD_REACTORS
330
6CE
102
}
330
6CE
100
AcDbXrecord
 10
0.0
 20
0.0
 30
0.0
  0
XRECORD
  5
6E9
102
{ACAD_REACTORS
330
6CE
102
}
330
6CE
100
AcDbXrecord
 10
0.0
 20
0.0
 30
0.0
  0
XRECORD
  5
6EC
102
{ACAD_REACTORS
330
6CE
102
}
330
6CE
100
AcDbXrecord
 10
0.0
 20
0.0
 30
0.0
  0
XRECORD
  5
6EA
102
{ACAD_REACTORS
330
6CE
102
}
330
6CE
100
AcDbXrecord
 10
0.0
 20
0.0
 30
0.0
  0
XRECORD
  5
6EB
102
{ACAD_REACTORS
330
6CE
102
}
330
6CE
100
AcDbXrecord
 10
0.0
 20
0.0
 30
0.0
  0
XRECORD
  5
6E8
102
{ACAD_REACTORS
330
6CE
102
}
330
6CE
100
AcDbXrecord
 10
0.0
 20
0.0
 30
0.0
  0
XRECORD
  5
6E5
102
{ACAD_REACTORS
330
6CE
102
}
330
6CE
100
AcDbXrecord
340
0
  0
XRECORD
  5
6E6
102
{ACAD_REACTORS
330
6CE
102
}
330
6CE
100
AcDbXrecord
 70
     0
  0
XRECORD
  5
6DA
102
{ACAD_REACTORS
330
6CE
102
}
330
6CE
100
AcDbXrecord
  1
{7B07F7A2-8DB5-11D6-88E6-0090279574E7}
  0
DICTIONARYVAR
  5
6CC
102
{ACAD_REACTORS
330
6CB
102
}
330
6CB
100
DictionaryVariables
280
     0
  1
1
  0
ENDSEC
  0
EOF
