  0
SECTION
  2
HEADER
  9
$ACADVER
  1
AC1014
  9
$ACADMAINTVER
 70
     9
  9
$DWGCODEPAGE
  3
ANSI_1252
  9
$INSBASE
 10
5.080452788785981
 20
6.203078381499699
 30
0.0
  9
$EXTMIN
 10
3.585494023144947
 20
2.671976561337621
 30
0.0
  9
$EXTMAX
 10
7.070713344892082
 20
7.984230361843674
 30
0.0
  9
$LIMMIN
 10
0.0
 20
0.0
  9
$LIMMAX
 10
18.0
 20
12.0
  9
$ORTHOMODE
 70
     1
  9
$REGENMODE
 70
     1
  9
$FILLMODE
 70
     1
  9
$QTEXTMODE
 70
     0
  9
$MIRRTEXT
 70
     0
  9
$DRAGMODE
 70
     2
  9
$LTSCALE
 40
1.0
  9
$OSMODE
 70
    39
  9
$ATTMODE
 70
     1
  9
$TEXTSIZE
 40
0.125
  9
$TRACEWID
 40
0.05
  9
$TEXTSTYLE
  7
ROMANS
  9
$CLAYER
  8
0
  9
$CELTYPE
  6
BYLAYER
  9
$CECOLOR
 62
   256
  9
$CELTSCALE
 40
1.0
  9
$DELOBJ
 70
     1
  9
$DISPSILH
 70
     1
  9
$DIMSCALE
 40
1.0
  9
$DIMASZ
 40
0.125
  9
$DIMEXO
 40
0.125
  9
$DIMDLI
 40
0.375
  9
$DIMRND
 40
0.0
  9
$DIMDLE
 40
0.0
  9
$DIMEXE
 40
0.125
  9
$DIMTP
 40
0.0
  9
$DIMTM
 40
0.0
  9
$DIMTXT
 40
0.125
  9
$DIMCEN
 40
-0.125
  9
$DIMTSZ
 40
0.0
  9
$DIMTOL
 70
     0
  9
$DIMLIM
 70
     0
  9
$DIMTIH
 70
     1
  9
$DIMTOH
 70
     1
  9
$DIMSE1
 70
     0
  9
$DIMSE2
 70
     0
  9
$DIMTAD
 70
     0
  9
$DIMZIN
 70
     4
  9
$DIMBLK
  1

  9
$DIMASO
 70
     1
  9
$DIMSHO
 70
     1
  9
$DIMPOST
  1

  9
$DIMAPOST
  1

  9
$DIMALT
 70
     0
  9
$DIMALTD
 70
     2
  9
$DIMALTF
 40
25.4
  9
$DIMLFAC
 40
1.0
  9
$DIMTOFL
 70
     0
  9
$DIMTVP
 40
0.0
  9
$DIMTIX
 70
     1
  9
$DIMSOXD
 70
     0
  9
$DIMSAH
 70
     0
  9
$DIMBLK1
  1

  9
$DIMBLK2
  1

  9
$DIMSTYLE
  2
STANDARD
  9
$DIMCLRD
 70
     0
  9
$DIMCLRE
 70
     0
  9
$DIMCLRT
 70
     0
  9
$DIMTFAC
 40
1.0
  9
$DIMGAP
 40
0.09
  9
$DIMJUST
 70
     0
  9
$DIMSD1
 70
     0
  9
$DIMSD2
 70
     0
  9
$DIMTOLJ
 70
     1
  9
$DIMTZIN
 70
     4
  9
$DIMALTZ
 70
     0
  9
$DIMALTTZ
 70
     0
  9
$DIMFIT
 70
     3
  9
$DIMUPT
 70
     0
  9
$DIMUNIT
 70
     2
  9
$DIMDEC
 70
     3
  9
$DIMTDEC
 70
     3
  9
$DIMALTU
 70
     2
  9
$DIMALTTD
 70
     2
  9
$DIMTXSTY
  7
ROMANS
  9
$DIMAUNIT
 70
     0
  9
$LUNITS
 70
     2
  9
$LUPREC
 70
     3
  9
$SKETCHINC
 40
0.1
  9
$FILLETRAD
 40
0.03125
  9
$AUNITS
 70
     0
  9
$AUPREC
 70
     0
  9
$MENU
  1
ACAD
  9
$ELEVATION
 40
0.0
  9
$PELEVATION
 40
0.0
  9
$THICKNESS
 40
0.0
  9
$LIMCHECK
 70
     0
  9
$BLIPMODE
 70
     0
  9
$CHAMFERA
 40
0.0
  9
$CHAMFERB
 40
0.0
  9
$CHAMFERC
 40
0.0
  9
$CHAMFERD
 40
0.0
  9
$SKPOLY
 70
     0
  9
$TDCREATE
 40
2448994.518490277
  9
$TDUPDATE
 40
2452458.302769826
  9
$TDINDWG
 40
0.0009015625
  9
$TDUSRTIMER
 40
0.0009015625
  9
$USRTIMER
 70
     1
  9
$ANGBASE
 50
0.0
  9
$ANGDIR
 70
     0
  9
$PDMODE
 70
     0
  9
$PDSIZE
 40
0.0
  9
$PLINEWID
 40
0.0
  9
$COORDS
 70
     2
  9
$SPLFRAME
 70
     0
  9
$SPLINETYPE
 70
     6
  9
$SPLINESEGS
 70
     8
  9
$ATTDIA
 70
     0
  9
$ATTREQ
 70
     1
  9
$HANDLING
 70
 22529
  9
$HANDSEED
  5
7DE1B343D9E07E5
  9
$SURFTAB1
 70
     6
  9
$SURFTAB2
 70
     6
  9
$SURFTYPE
 70
     6
  9
$SURFU
 70
     6
  9
$SURFV
 70
     6
  9
$UCSNAME
  2

  9
$UCSORG
 10
0.0
 20
0.0
 30
0.0
  9
$UCSXDIR
 10
1.0
 20
0.0
 30
0.0
  9
$UCSYDIR
 10
0.0
 20
1.0
 30
0.0
  9
$PUCSNAME
  2

  9
$PUCSORG
 10
0.0
 20
0.0
 30
0.0
  9
$PUCSXDIR
 10
1.0
 20
0.0
 30
0.0
  9
$PUCSYDIR
 10
0.0
 20
1.0
 30
0.0
  9
$USERI1
 70
     0
  9
$USERI2
 70
     0
  9
$USERI3
 70
     0
  9
$USERI4
 70
     0
  9
$USERI5
 70
     0
  9
$USERR1
 40
0.0
  9
$USERR2
 40
0.0
  9
$USERR3
 40
0.0
  9
$USERR4
 40
0.0
  9
$USERR5
 40
0.0
  9
$WORLDVIEW
 70
     1
  9
$SHADEDGE
 70
     3
  9
$SHADEDIF
 70
    70
  9
$TILEMODE
 70
     1
  9
$MAXACTVP
 70
    16
  9
$PINSBASE
 10
4.722125270764463
 20
50.00000000000001
 30
6.603570774534349
  9
$PLIMCHECK
 70
     0
  9
$PEXTMIN
 10
1.000000000000000E+20
 20
1.000000000000000E+20
 30
1.000000000000000E+20
  9
$PEXTMAX
 10
-1.000000000000000E+20
 20
-1.000000000000000E+20
 30
-1.000000000000000E+20
  9
$PLIMMIN
 10
0.0
 20
0.0
  9
$PLIMMAX
 10
12.0
 20
9.0
  9
$UNITMODE
 70
     0
  9
$VISRETAIN
 70
     0
  9
$PLINEGEN
 70
     1
  9
$PSLTSCALE
 70
     0
  9
$TREEDEPTH
 70
  3020
  9
$PICKSTYLE
 70
     1
  9
$CMLSTYLE
  2
STANDARD
  9
$CMLJUST
 70
     0
  9
$CMLSCALE
 40
1.0
  9
$PROXYGRAPHICS
 70
     1
  9
$MEASUREMENT
 70
     0
  0
ENDSEC
  0
SECTION
  2
CLASSES
  0
CLASS
  1
LWPOLYLINE
  2
AcDbPolyline
  3
AutoCAD 2000
 90
        0
280
     0
281
     1
  0
CLASS
  1
ACDBDICTIONARYWDFLT
  2
AcDbDictionaryWithDefault
  3
AutoCAD 2000
 90
        0
280
     0
281
     0
  0
CLASS
  1
ACDBPLACEHOLDER
  2
AcDbPlaceHolder
  3
AutoCAD 2000
 90
        0
280
     0
281
     0
  0
CLASS
  1
LAYOUT
  2
AcDbLayout
  3
AutoCAD 2000
 90
        0
280
     0
281
     0
  0
CLASS
  1
DICTIONARYVAR
  2
AcDbDictionaryVar
  3
AutoCAD 2000
 90
        0
280
     0
281
     0
  0
CLASS
  1
LONG_TRANSACTION
  2
AcDbLongTransaction
  3
AutoCAD 2000
 90
        0
280
     0
281
     0
  0
CLASS
  1
LWPOLYLINE
  2
AcDbPolyline
  3
AutoCAD 2000
 90
        0
280
     0
281
     1
  0
CLASS
  1
HATCH
  2
AcDbHatch
  3
AutoCAD 2000
 90
        0
280
     0
281
     1
  0
CLASS
  1
XRECORD
  2
AcDbXrecord
  3
AutoCAD 2000
 90
        0
280
     0
281
     0
  0
ENDSEC
  0
SECTION
  2
TABLES
  0
TABLE
  2
VPORT
  5
7DE1B343D9E0771
330
0
100
AcDbSymbolTable
 70
     2
  0
VPORT
  5
7DE1B343D9E07C0
330
7DE1B343D9E0771
100
AcDbSymbolTableRecord
100
AcDbViewportTableRecord
  2
*ACTIVE
 70
     0
 10
0.0
 20
0.0
 11
1.0
 21
1.0
 12
13.15039123253013
 22
5.328002956844869
 13
0.0
 23
0.0
 14
0.015625
 24
0.015625
 15
0.0
 25
0.0
 16
0.0
 26
0.0
 36
1.0
 17
0.0
 27
0.0
 37
0.0
 40
5.99885283490682
 41
4.320930232558139
 42
50.0
 43
0.0
 44
0.0
 50
0.0
 51
0.0
 71
     0
 72
  2000
 73
     1
 74
     0
 75
     0
 76
     0
 77
     0
 78
     0
  0
ENDTAB
  0
TABLE
  2
LTYPE
  5
7DE1B343D9E076E
330
0
100
AcDbSymbolTable
 70
     1
  0
LTYPE
  5
7DE1B343D9E077B
330
7DE1B343D9E076E
100
AcDbSymbolTableRecord
100
AcDbLinetypeTableRecord
  2
BYBLOCK
 70
     0
  3

 72
    65
 73
     0
 40
0.0
  0
LTYPE
  5
7DE1B343D9E077C
330
7DE1B343D9E076E
100
AcDbSymbolTableRecord
100
AcDbLinetypeTableRecord
  2
BYLAYER
 70
     0
  3

 72
    65
 73
     0
 40
0.0
  0
LTYPE
  5
7DE1B343D9E077D
330
7DE1B343D9E076E
100
AcDbSymbolTableRecord
100
AcDbLinetypeTableRecord
  2
CONTINUOUS
 70
     0
  3
Solid line
 72
    65
 73
     0
 40
0.0
  0
ENDTAB
  0
TABLE
  2
LAYER
  5
7DE1B343D9E076B
330
0
100
AcDbSymbolTable
 70
     3
  0
LAYER
  5
7DE1B343D9E0778
330
7DE1B343D9E076B
100
AcDbSymbolTableRecord
100
AcDbLayerTableRecord
  2
0
 70
     0
 62
     7
  6
CONTINUOUS
  0
LAYER
  5
7DE1B343D9E0788
330
7DE1B343D9E076B
100
AcDbSymbolTableRecord
100
AcDbLayerTableRecord
  2
TEXT
 70
     0
 62
     3
  6
CONTINUOUS
  0
LAYER
  5
7DE1B343D9E0798
330
7DE1B343D9E076B
100
AcDbSymbolTableRecord
100
AcDbLayerTableRecord
  2
ASHADE
 70
     4
 62
     7
  6
CONTINUOUS
  0
ENDTAB
  0
TABLE
  2
STYLE
  5
7DE1B343D9E076C
330
0
100
AcDbSymbolTable
 70
     4
  0
STYLE
  5
7DE1B343D9E0779
330
7DE1B343D9E076C
100
AcDbSymbolTableRecord
100
AcDbTextStyleTableRecord
  2
STANDARD
 70
     0
 40
0.0
 41
1.0
 50
0.0
 71
     0
 42
0.3125
  3
txt
  4

  0
STYLE
  5
7DE1B343D9E0785
330
7DE1B343D9E076C
100
AcDbSymbolTableRecord
100
AcDbTextStyleTableRecord
  2
ITALICC
 70
     0
 40
0.0
 41
1.0
 50
0.0
 71
     0
 42
0.125
  3
italicc
  4

  0
STYLE
  5
7DE1B343D9E0795
330
7DE1B343D9E076C
100
AcDbSymbolTableRecord
100
AcDbTextStyleTableRecord
  2
ASHADE
 70
     0
 40
0.2
 41
1.0
 50
0.0
 71
     0
 42
0.3125
  3
simplex
  4

  0
STYLE
  5
7DE1B343D9E07B0
330
7DE1B343D9E076C
100
AcDbSymbolTableRecord
100
AcDbTextStyleTableRecord
  2
ROMANS
 70
     0
 40
0.0
 41
1.0
 50
0.0
 71
     0
 42
0.125
  3
romans.shx
  4

  0
ENDTAB
  0
TABLE
  2
VIEW
  5
7DE1B343D9E076F
330
0
100
AcDbSymbolTable
 70
     0
  0
ENDTAB
  0
TABLE
  2
UCS
  5
7DE1B343D9E0770
330
0
100
AcDbSymbolTable
 70
     0
  0
ENDTAB
  0
TABLE
  2
APPID
  5
7DE1B343D9E0772
330
0
100
AcDbSymbolTable
 70
     6
  0
APPID
  5
7DE1B343D9E077A
330
7DE1B343D9E0772
100
AcDbSymbolTableRecord
100
AcDbRegAppTableRecord
  2
ACAD
 70
     0
  0
APPID
  5
7DE1B343D9E0796
330
7DE1B343D9E0772
100
AcDbSymbolTableRecord
100
AcDbRegAppTableRecord
  2
AVE_RENDER
 70
     0
  0
APPID
  5
7DE1B343D9E0797
330
7DE1B343D9E0772
100
AcDbSymbolTableRecord
100
AcDbRegAppTableRecord
  2
AVE_ENTITY_MATERIAL
 70
     0
  0
APPID
  5
7DE1B343D9E07A4
330
7DE1B343D9E0772
100
AcDbSymbolTableRecord
100
AcDbRegAppTableRecord
  2
AVE_FINISH
 70
     0
  0
APPID
  5
7DE1B343D9E07A5
330
7DE1B343D9E0772
100
AcDbSymbolTableRecord
100
AcDbRegAppTableRecord
  2
AVE_MATERIAL
 70
     0
  0
APPID
  5
7DE1B343D9E07A6
330
7DE1B343D9E0772
100
AcDbSymbolTableRecord
100
AcDbRegAppTableRecord
  2
AVE_GLOBAL
 70
     0
  0
ENDTAB
  0
TABLE
  2
DIMSTYLE
  5
7DE1B343D9E0773
330
0
100
AcDbSymbolTable
 70
     1
  0
DIMSTYLE
105
7DE1B343D9E078D
330
7DE1B343D9E0773
100
AcDbSymbolTableRecord
100
AcDbDimStyleTableRecord
  2
STANDARD
 70
     0
  3

  4

  5

  6

  7

 40
1.0
 41
0.125
 42
0.125
 43
0.375
 44
0.125
 45
0.0
 46
0.0
 47
0.0
 48
0.0
140
0.125
141
-0.125
142
0.0
143
25.4
144
1.0
145
0.0
146
1.0
147
0.09
 71
     0
 72
     0
 73
     1
 74
     1
 75
     0
 76
     0
 77
     0
 78
     4
170
     0
171
     2
172
     0
173
     0
174
     1
175
     0
176
     0
177
     0
178
     0
270
     2
271
     3
272
     3
273
     2
274
     2
340
7DE1B343D9E07B0
275
     0
280
     0
281
     0
282
     0
283
     1
284
     4
285
     0
286
     0
287
     3
288
     0
  0
ENDTAB
  0
TABLE
  2
BLOCK_RECORD
  5
7DE1B343D9E076A
330
0
100
AcDbSymbolTable
 70
     2
  0
BLOCK_RECORD
  5
7DE1B343D9E0781
102
{ACAD_XDICTIONARY
360
7DE1B343D9E07E3
102
}
330
7DE1B343D9E076A
100
AcDbSymbolTableRecord
100
AcDbBlockTableRecord
  2
*MODEL_SPACE
  0
BLOCK_RECORD
  5
7DE1B343D9E077E
102
{ACAD_XDICTIONARY
360
7DE1B343D9E07E1
102
}
330
7DE1B343D9E076A
100
AcDbSymbolTableRecord
100
AcDbBlockTableRecord
  2
*PAPER_SPACE
  0
BLOCK_RECORD
  5
7DE1B343D9E0799
330
7DE1B343D9E076A
100
AcDbSymbolTableRecord
100
AcDbBlockTableRecord
  2
AVE_RENDER
  0
BLOCK_RECORD
  5
7DE1B343D9E07A7
330
7DE1B343D9E076A
100
AcDbSymbolTableRecord
100
AcDbBlockTableRecord
  2
AVE_GLOBAL
  0
ENDTAB
  0
ENDSEC
  0
SECTION
  2
BLOCKS
  0
BLOCK
  5
7DE1B343D9E078B
330
7DE1B343D9E0781
100
AcDbEntity
  8
0
100
AcDbBlockBegin
  2
*MODEL_SPACE
 70
     0
 10
0.0
 20
0.0
 30
0.0
  3
*MODEL_SPACE
  1

  0
ENDBLK
  5
7DE1B343D9E078C
330
7DE1B343D9E0781
100
AcDbEntity
  8
0
100
AcDbBlockEnd
  0
BLOCK
  5
7DE1B343D9E0789
330
7DE1B343D9E077E
100
AcDbEntity
 67
     1
  8
0
100
AcDbBlockBegin
  2
*PAPER_SPACE
 70
     0
 10
0.0
 20
0.0
 30
0.0
  3
*PAPER_SPACE
  1

  0
ENDBLK
  5
7DE1B343D9E078A
330
7DE1B343D9E077E
100
AcDbEntity
 67
     1
  8
0
100
AcDbBlockEnd
  0
BLOCK
  5
7DE1B343D9E079A
330
7DE1B343D9E0799
100
AcDbEntity
  8
0
100
AcDbBlockBegin
  2
AVE_RENDER
 70
     0
 10
0.0
 20
0.0
 30
0.0
  3
AVE_RENDER
  1
AVE_RENDER
  0
ENDBLK
  5
7DE1B343D9E079B
330
7DE1B343D9E0799
100
AcDbEntity
  8
0
100
AcDbBlockEnd
  0
BLOCK
  5
7DE1B343D9E07A8
330
7DE1B343D9E07A7
100
AcDbEntity
  8
0
100
AcDbBlockBegin
  2
AVE_GLOBAL
 70
     0
 10
0.0
 20
0.0
 30
0.0
  3
AVE_GLOBAL
  1
AVE_GLOBAL
  0
ENDBLK
  5
7DE1B343D9E07A9
330
7DE1B343D9E07A7
100
AcDbEntity
  8
0
100
AcDbBlockEnd
  0
ENDSEC
  0
SECTION
  2
ENTITIES
  0
LWPOLYLINE
  5
7DE1B343D9DF337
330
7DE1B343D9E0781
100
AcDbEntity
  8
0
100
AcDbPolyline
 90
       31
 70
     1
 43
0.0
 10
6.06097560237209
 20
7.984230361843674
 10
4.595975602372091
 20
7.984230361843672
 42
1.0
 10
4.595975602372091
 20
7.914230361843674
 10
4.62347560237209
 20
7.914230361843674
 10
4.62347560237209
 20
7.7183569495802
 42
0.2679491924311233
 10
4.63910060237209
 20
7.691293655711936
 10
4.68597560237209
 20
7.664230361843674
 10
4.68597560237209
 20
7.914230361843674
 10
5.99097560237209
 20
7.914230361843674
 10
5.99097560237209
 20
6.554230361843674
 10
5.49097560237209
 20
6.554230361843674
 10
5.49097560237209
 20
5.054230361843673
 10
4.99097560237209
 20
5.054230361843674
 10
4.99097560237209
 20
4.414230361843674
 10
4.68597560237209
 20
4.414230361843674
 10
4.685975602372089
 20
4.664230361843674
 10
4.639100602372089
 20
4.637167067975411
 42
0.2679491924311233
 10
4.623475602372089
 20
4.610103774107147
 10
4.623475602372089
 20
4.414230361843674
 10
4.595975602372091
 20
4.414230361843672
 42
1.0
 10
4.595975602372091
 20
4.344230361843673
 10
4.62347560237209
 20
4.344230361843673
 10
4.99097560237209
 20
4.344230361843673
 10
4.99097560237209
 20
3.554230361843674
 10
4.595975602372091
 20
3.554230361843674
 42
1.0
 10
4.595975602372091
 20
3.484230361843674
 10
5.06097560237209
 20
3.484230361843674
 10
5.06097560237209
 20
4.984230361843674
 10
5.56097560237209
 20
4.984230361843674
 10
5.56097560237209
 20
6.484230361843674
 10
6.06097560237209
 20
6.484230361843674
  0
TEXT
  5
7DE1B343D9E062C
330
7DE1B343D9E0781
100
AcDbEntity
  8
TEXT
100
AcDbText
 10
4.575499411895901
 20
3.129995165420202
 30
0.0
 40
0.125
  1
PART #110244
  7
ITALICC
 72
     1
 11
5.32847560237209
 21
3.129995165420202
 31
0.0
100
AcDbText
  0
TEXT
  5
7DE1B343D9E062D
330
7DE1B343D9E0781
100
AcDbEntity
  8
TEXT
100
AcDbText
 10
5.741780760622411
 20
2.683072522747827
 30
0.0
 40
0.0522247191011236
  1
Phone  1-800-328-2495
 41
1.272321428571429
 72
     5
 11
7.070713344892075
 21
2.683072522747827
 31
0.0
100
AcDbText
  0
TEXT
  5
7DE1B343D9E062E
330
7DE1B343D9E0781
100
AcDbEntity
  8
TEXT
100
AcDbText
 10
5.741780760622411
 20
2.962847803646704
 30
0.0
 40
0.0522247191011236
  1
Stylmark  Incorporated
 41
1.221428571428573
 72
     5
 11
7.070713344892075
 21
2.962847803646704
 31
0.0
100
AcDbText
  0
TEXT
  5
7DE1B343D9E062F
330
7DE1B343D9E0781
100
AcDbEntity
  8
TEXT
100
AcDbText
 10
5.741780760622411
 20
2.869589376680412
 30
0.0
 40
0.0522247191011236
  1
6536 Main St. N.E. * P.O. Box 32008
 41
0.8388932496075366
 72
     5
 11
7.070713344892075
 21
2.869589376680412
 31
0.0
100
AcDbText
  0
TEXT
  5
7DE1B343D9E0630
330
7DE1B343D9E0781
100
AcDbEntity
  8
TEXT
100
AcDbText
 10
5.741780760622411
 20
2.776330949714119
 30
0.0
 40
0.0522247191011236
  1
Minneapolis, MN 55432-0008
 41
1.11444212721585
 72
     5
 11
7.070713344892075
 21
2.776330949714119
 31
0.0
100
AcDbText
  0
LWPOLYLINE
  5
7DE1B343D9E0631
330
7DE1B343D9E0781
100
AcDbEntity
  8
TEXT
100
AcDbPolyline
 90
        3
 70
     0
 43
0.0006660908203125
 10
3.585827068555103
 20
2.796717285385262
 10
3.585827068555103
 20
2.683481845932135
 10
3.699062508008226
 20
2.683481845932135
  0
LWPOLYLINE
  5
7DE1B343D9E0636
330
7DE1B343D9E0781
100
AcDbEntity
  8
TEXT
100
AcDbPolyline
 90
        3
 70
     0
 43
0.0006660908203125
 10
3.612470701367601
 20
2.796717285385262
 10
3.612470701367601
 20
2.710125478744636
 10
3.699062508008226
 20
2.710125478744636
  0
LWPOLYLINE
  5
7DE1B343D9E063B
330
7DE1B343D9E0781
100
AcDbEntity
  8
TEXT
100
AcDbPolyline
 90
        2
 70
     0
 43
0.0001332181640625
 10
3.659097058789478
 20
2.806708647689947
 10
3.585827068555103
 20
2.796717285385262
  0
LWPOLYLINE
  5
7DE1B343D9E063F
330
7DE1B343D9E0781
100
AcDbEntity
  8
TEXT
100
AcDbPolyline
 90
        2
 70
     0
 43
0.0001332181640625
 10
3.612470701367601
 20
2.796717285385262
 10
3.672418875195728
 20
2.806708647689947
  0
LWPOLYLINE
  5
7DE1B343D9E0643
330
7DE1B343D9E0781
100
AcDbEntity
  8
TEXT
100
AcDbPolyline
 90
        2
 70
     0
 43
0.0001332181640625
 10
3.612470701367601
 20
2.710125478744636
 10
3.672418875195728
 20
2.770073652572761
  0
LWPOLYLINE
  5
7DE1B343D9E0647
330
7DE1B343D9E0781
100
AcDbEntity
  8
TEXT
100
AcDbPolyline
 90
        3
 70
     0
 43
0.0006660908203125
 10
3.699062508008226
 20
2.949918174057138
 10
3.585827068555103
 20
2.949918174057138
 10
3.585827068555103
 20
2.83668273460401
  0
LWPOLYLINE
  5
7DE1B343D9E064C
330
7DE1B343D9E0781
100
AcDbEntity
  8
TEXT
100
AcDbPolyline
 90
        3
 70
     0
 43
0.0006660908203125
 10
3.699062508008226
 20
2.923274541244637
 10
3.612470701367601
 20
2.923274541244637
 10
3.612470701367601
 20
2.83668273460401
  0
LWPOLYLINE
  5
7DE1B343D9E0651
330
7DE1B343D9E0781
100
AcDbEntity
  8
TEXT
100
AcDbPolyline
 90
        2
 70
     0
 43
0.0001332181640625
 10
3.612470701367601
 20
2.923274541244637
 10
3.672418875195726
 20
2.863326367416511
  0
LWPOLYLINE
  5
7DE1B343D9E0655
330
7DE1B343D9E0781
100
AcDbEntity
  8
TEXT
100
AcDbPolyline
 90
        2
 70
     0
 43
0.0001332181640625
 10
3.612470701367601
 20
2.83668273460401
 10
3.672418875195726
 20
2.826691372299321
  0
LWPOLYLINE
  5
7DE1B343D9E0659
330
7DE1B343D9E0781
100
AcDbEntity
  8
TEXT
100
AcDbPolyline
 90
        2
 70
     0
 43
0.0001332181640625
 10
3.585827068555103
 20
2.83668273460401
 10
3.659097058789478
 20
2.826691372299321
  0
LWPOLYLINE
  5
7DE1B343D9E065D
330
7DE1B343D9E0781
100
AcDbEntity
  8
TEXT
100
AcDbPolyline
 90
        2
 70
     0
 43
0.0006660908203125
 10
3.612470701367601
 20
2.796717285385262
 10
3.585827068555103
 20
2.796717285385262
  0
LWPOLYLINE
  5
7DE1B343D9E0661
330
7DE1B343D9E0781
100
AcDbEntity
  8
TEXT
100
AcDbPolyline
 90
        2
 70
     0
 43
0.0006660908203125
 10
3.612470701367601
 20
2.83668273460401
 10
3.585827068555103
 20
2.83668273460401
  0
LINE
  5
7DE1B343D9E0665
330
7DE1B343D9E0781
100
AcDbEntity
  8
TEXT
100
AcDbLine
 10
5.101017497681601
 20
2.885641479400369
 30
0.0
 11
4.993811224294312
 21
2.885641479400369
 31
0.0
  0
LINE
  5
7DE1B343D9E0666
330
7DE1B343D9E0781
100
AcDbEntity
  8
TEXT
100
AcDbLine
 10
5.130048396026079
 20
2.949918174057134
 30
0.0
 11
4.99521648680902
 21
2.949918174057134
 31
0.0
  0
ARC
  5
7DE1B343D9E0667
330
7DE1B343D9E0781
100
AcDbEntity
  8
TEXT
100
AcDbCircle
 10
5.054530583202337
 20
2.780680924794118
 30
0.0
 40
0.0676855811441166
100
AcDbArc
 50
90.0
 51
153.7768192527749
  0
LWPOLYLINE
  5
7DE1B343D9E0668
330
7DE1B343D9E0781
100
AcDbEntity
  8
TEXT
100
AcDbPolyline
 90
        2
 70
     0
 43
0.0
 10
4.992778728839502
 20
2.726936086019061
 42
0.2901071551932823
 10
5.035854661707137
 20
2.683445141068623
 42
5.328517124445801
  0
ARC
  5
7DE1B343D9E066C
330
7DE1B343D9E0781
100
AcDbEntity
  8
TEXT
100
AcDbCircle
 10
4.349399205530851
 20
2.743237532406673
 30
0.0
 40
0.0601160179737537
100
AcDbArc
 50
180.0000000000003
 51
264.0521544866073
  0
LINE
  5
7DE1B343D9E066D
330
7DE1B343D9E0781
100
AcDbEntity
  8
TEXT
100
AcDbLine
 10
4.352914561156399
 20
2.984306091651273
 30
0.0
 11
4.292871956312392
 21
2.984306091651273
 31
0.0
  0
ARC
  5
7DE1B343D9E066E
330
7DE1B343D9E0781
100
AcDbEntity
  8
TEXT
100
AcDbCircle
 10
4.117140203413881
 20
2.867830714610633
 30
0.0
 40
0.0820874594465043
100
AcDbArc
 50
90.0
 51
270.0
  0
LWPOLYLINE
  5
7DE1B343D9E066F
330
7DE1B343D9E0781
100
AcDbEntity
  8
TEXT
100
AcDbPolyline
 90
        2
 70
     0
 43
0.0001332181640625
 10
3.709053870312916
 20
2.876648183822758
 10
3.699062508008226
 20
2.949918174057138
  0
LWPOLYLINE
  5
7DE1B343D9E0673
330
7DE1B343D9E0781
100
AcDbEntity
  8
TEXT
100
AcDbPolyline
 90
        2
 70
     0
 43
0.0001332181640625
 10
3.699062508008226
 20
2.923274541244637
 10
3.709053870312916
 20
2.863326367416511
  0
LWPOLYLINE
  5
7DE1B343D9E0677
330
7DE1B343D9E0781
100
AcDbEntity
  8
TEXT
100
AcDbPolyline
 90
        3
 70
     0
 43
0.0006660908203125
 10
3.852263396680103
 20
2.83668273460401
 10
3.852263396680103
 20
2.949918174057138
 10
3.739027957226977
 20
2.949918174057138
  0
LWPOLYLINE
  5
7DE1B343D9E067C
330
7DE1B343D9E0781
100
AcDbEntity
  8
TEXT
100
AcDbPolyline
 90
        3
 70
     0
 43
0.0006660908203125
 10
3.825619763867602
 20
2.83668273460401
 10
3.825619763867602
 20
2.923274541244637
 10
3.739027957226977
 20
2.923274541244637
  0
LWPOLYLINE
  5
7DE1B343D9E0681
330
7DE1B343D9E0781
100
AcDbEntity
  8
TEXT
100
AcDbPolyline
 90
        2
 70
     0
 43
0.0001332181640625
 10
3.825619763867602
 20
2.923274541244637
 10
3.765671590039478
 20
2.863326367416511
  0
LWPOLYLINE
  5
7DE1B343D9E0685
330
7DE1B343D9E0781
100
AcDbEntity
  8
TEXT
100
AcDbPolyline
 90
        2
 70
     0
 43
0.0001332181640625
 10
3.739027957226977
 20
2.923274541244637
 10
3.729036594922289
 20
2.863326367416511
  0
LWPOLYLINE
  5
7DE1B343D9E0689
330
7DE1B343D9E0781
100
AcDbEntity
  8
TEXT
100
AcDbPolyline
 90
        2
 70
     0
 43
0.0001332181640625
 10
3.739027957226977
 20
2.949918174057138
 10
3.729036594922289
 20
2.876648183822758
  0
LWPOLYLINE
  5
7DE1B343D9E068D
330
7DE1B343D9E0781
100
AcDbEntity
  8
TEXT
100
AcDbPolyline
 90
        2
 70
     0
 43
0.0001332181640625
 10
3.778993406445727
 20
2.826691372299321
 10
3.852263396680103
 20
2.83668273460401
  0
LWPOLYLINE
  5
7DE1B343D9E0691
330
7DE1B343D9E0781
100
AcDbEntity
  8
TEXT
100
AcDbPolyline
 90
        2
 70
     0
 43
0.0001332181640625
 10
3.825619763867602
 20
2.83668273460401
 10
3.765671590039478
 20
2.826691372299321
  0
LWPOLYLINE
  5
7DE1B343D9E0695
330
7DE1B343D9E0781
100
AcDbEntity
  8
TEXT
100
AcDbPolyline
 90
        2
 70
     0
 43
0.0001332181640625
 10
3.852263396680103
 20
2.796717285385262
 10
3.778993406445727
 20
2.806708647689947
  0
LWPOLYLINE
  5
7DE1B343D9E0699
330
7DE1B343D9E0781
100
AcDbEntity
  8
TEXT
100
AcDbPolyline
 90
        2
 70
     0
 43
0.0001332181640625
 10
3.825619763867602
 20
2.796717285385262
 10
3.765671590039478
 20
2.806708647689947
  0
LWPOLYLINE
  5
7DE1B343D9E069D
330
7DE1B343D9E0781
100
AcDbEntity
  8
TEXT
100
AcDbPolyline
 90
        2
 70
     0
 43
0.0001332181640625
 10
3.825619763867602
 20
2.710125478744636
 10
3.765671590039478
 20
2.770073652572761
  0
LWPOLYLINE
  5
7DE1B343D9E06A1
330
7DE1B343D9E0781
100
AcDbEntity
  8
TEXT
100
AcDbPolyline
 90
        3
 70
     0
 43
0.0006660908203125
 10
3.739027957226977
 20
2.710125478744636
 10
3.825619763867602
 20
2.710125478744636
 10
3.825619763867602
 20
2.796717285385262
  0
LWPOLYLINE
  5
7DE1B343D9E06A6
330
7DE1B343D9E0781
100
AcDbEntity
  8
TEXT
100
AcDbPolyline
 90
        3
 70
     0
 43
0.0006660908203125
 10
3.739027957226977
 20
2.683481845932135
 10
3.852263396680103
 20
2.683481845932135
 10
3.852263396680103
 20
2.796717285385262
  0
LWPOLYLINE
  5
7DE1B343D9E06AB
330
7DE1B343D9E0781
100
AcDbEntity
  8
TEXT
100
AcDbPolyline
 90
        5
 70
     0
 43
0.0001332181640625
 10
3.709053870312916
 20
2.756751836166511
 10
3.709053870312916
 20
2.770073652572761
 10
3.672418875195728
 20
2.770073652572761
 10
3.672418875195728
 20
2.806708647689947
 10
3.659097058789478
 20
2.806708647689947
  0
LWPOLYLINE
  5
7DE1B343D9E06B2
330
7DE1B343D9E0781
100
AcDbEntity
  8
TEXT
100
AcDbPolyline
 90
        2
 70
     0
 43
0.0006660908203125
 10
3.699062508008226
 20
2.710125478744636
 10
3.699062508008226
 20
2.683481845932135
  0
LWPOLYLINE
  5
7DE1B343D9E06B6
330
7DE1B343D9E0781
100
AcDbEntity
  8
TEXT
100
AcDbPolyline
 90
        2
 70
     0
 43
0.0001332181640625
 10
3.699062508008226
 20
2.710125478744636
 10
3.709053870312916
 20
2.770073652572761
  0
LWPOLYLINE
  5
7DE1B343D9E06BA
330
7DE1B343D9E0781
100
AcDbEntity
  8
TEXT
100
AcDbPolyline
 90
        2
 70
     0
 43
0.0001332181640625
 10
3.699062508008226
 20
2.683481845932135
 10
3.709053870312916
 20
2.756751836166511
  0
LWPOLYLINE
  5
7DE1B343D9E06BE
330
7DE1B343D9E0781
100
AcDbEntity
  8
TEXT
100
AcDbPolyline
 90
        5
 70
     0
 43
0.0001332181640625
 10
3.659097058789478
 20
2.826691372299321
 10
3.672418875195726
 20
2.826691372299321
 10
3.672418875195726
 20
2.863326367416511
 10
3.709053870312916
 20
2.863326367416511
 10
3.709053870312916
 20
2.876648183822758
  0
LWPOLYLINE
  5
7DE1B343D9E06C5
330
7DE1B343D9E0781
100
AcDbEntity
  8
TEXT
100
AcDbPolyline
 90
        5
 70
     0
 43
0.0001332181640625
 10
3.729036594922289
 20
2.876648183822758
 10
3.729036594922289
 20
2.863326367416511
 10
3.765671590039478
 20
2.863326367416511
 10
3.765671590039478
 20
2.826691372299321
 10
3.778993406445727
 20
2.826691372299321
  0
LWPOLYLINE
  5
7DE1B343D9E06CC
330
7DE1B343D9E0781
100
AcDbEntity
  8
TEXT
100
AcDbPolyline
 90
        2
 70
     0
 43
0.0001332181640625
 10
3.739027957226977
 20
2.710125478744636
 10
3.729036594922289
 20
2.770073652572761
  0
LWPOLYLINE
  5
7DE1B343D9E06D0
330
7DE1B343D9E0781
100
AcDbEntity
  8
TEXT
100
AcDbPolyline
 90
        2
 70
     0
 43
0.0001332181640625
 10
3.729036594922289
 20
2.756751836166511
 10
3.739027957226977
 20
2.683481845932135
  0
LWPOLYLINE
  5
7DE1B343D9E06D4
330
7DE1B343D9E0781
100
AcDbEntity
  8
TEXT
100
AcDbPolyline
 90
        2
 70
     0
 43
0.0006660908203125
 10
3.739027957226977
 20
2.710125478744636
 10
3.739027957226977
 20
2.683481845932135
  0
LWPOLYLINE
  5
7DE1B343D9E06D8
330
7DE1B343D9E0781
100
AcDbEntity
  8
TEXT
100
AcDbPolyline
 90
        5
 70
     0
 43
0.0001332181640625
 10
3.778993406445727
 20
2.806708647689947
 10
3.765671590039478
 20
2.806708647689947
 10
3.765671590039478
 20
2.770073652572761
 10
3.729036594922289
 20
2.770073652572761
 10
3.729036594922289
 20
2.756751836166511
  0
LWPOLYLINE
  5
7DE1B343D9E06DF
330
7DE1B343D9E0781
100
AcDbEntity
  8
TEXT
100
AcDbPolyline
 90
        2
 70
     0
 43
0.0006660908203125
 10
3.825619763867602
 20
2.83668273460401
 10
3.852263396680103
 20
2.83668273460401
  0
LWPOLYLINE
  5
7DE1B343D9E06E3
330
7DE1B343D9E0781
100
AcDbEntity
  8
TEXT
100
AcDbPolyline
 90
        2
 70
     0
 43
0.0006660908203125
 10
3.825619763867602
 20
2.796717285385262
 10
3.852263396680103
 20
2.796717285385262
  0
LINE
  5
7DE1B343D9E06E7
330
7DE1B343D9E0781
100
AcDbEntity
  8
TEXT
100
AcDbLine
 10
4.122377533528128
 20
2.885641479400369
 30
0.0
 11
4.289283187557099
 21
2.885641479400369
 31
0.0
  0
LINE
  5
7DE1B343D9E06E8
330
7DE1B343D9E0781
100
AcDbEntity
  8
TEXT
100
AcDbLine
 10
4.187977669772429
 20
2.849836757789741
 30
0.0
 11
4.122377533528128
 21
2.849836757789741
 31
0.0
  0
LINE
  5
7DE1B343D9E06E9
330
7DE1B343D9E0781
100
AcDbEntity
  8
TEXT
100
AcDbLine
 10
4.035052743967376
 20
2.683445141068623
 30
0.0
 11
4.187977669772429
 21
2.683445141068623
 31
0.0
  0
LINE
  5
7DE1B343D9E06EA
330
7DE1B343D9E0781
100
AcDbEntity
  8
TEXT
100
AcDbLine
 10
4.192918043678709
 20
2.751802147402063
 30
0.0
 11
4.035052743967375
 21
2.751802147402063
 31
0.0
  0
LINE
  5
7DE1B343D9E06EB
330
7DE1B343D9E0781
100
AcDbEntity
  8
TEXT
100
AcDbLine
 10
4.11714020341388
 20
2.785743255164127
 30
0.0
 11
4.192918043678709
 21
2.785743255164127
 31
0.0
  0
ARC
  5
7DE1B343D9E06EC
330
7DE1B343D9E0781
100
AcDbEntity
  8
TEXT
100
AcDbCircle
 10
4.122377533528129
 20
2.867739118595057
 30
0.0
 40
0.017902360805315
100
AcDbArc
 50
90.0
 51
270.0
  0
LINE
  5
7DE1B343D9E06ED
330
7DE1B343D9E0781
100
AcDbEntity
  8
TEXT
100
AcDbLine
 10
4.035052743967375
 20
2.751802147402063
 30
0.0
 11
4.035052743967376
 21
2.683445141068623
 31
0.0
  0
LINE
  5
7DE1B343D9E06EE
330
7DE1B343D9E0781
100
AcDbEntity
  8
TEXT
100
AcDbLine
 10
4.289283187557099
 20
2.885641479400369
 30
0.0
 11
4.289283187557099
 21
2.743237532406673
 31
0.0
  0
ARC
  5
7DE1B343D9E06EF
330
7DE1B343D9E0781
100
AcDbEntity
  8
TEXT
100
AcDbCircle
 10
4.18797766977243
 20
2.76664094942918
 30
0.0
 40
0.0831958083605586
100
AcDbArc
 50
270.0
 51
90.0
  0
ARC
  5
7DE1B343D9E06F0
330
7DE1B343D9E0781
100
AcDbEntity
  8
TEXT
100
AcDbCircle
 10
4.19291804367871
 20
2.768772701283097
 30
0.0
 40
0.0169705538810321
100
AcDbArc
 50
270.0
 51
90.0
  0
LWPOLYLINE
  5
7DE1B343D9E06F1
330
7DE1B343D9E0781
100
AcDbEntity
  8
TEXT
100
AcDbPolyline
 90
        2
 70
     0
 43
0.0006660908203125
 10
3.699062508008226
 20
2.923274541244637
 10
3.699062508008226
 20
2.949918174057138
  0
LWPOLYLINE
  5
7DE1B343D9E06F5
330
7DE1B343D9E0781
100
AcDbEntity
  8
TEXT
100
AcDbPolyline
 90
        2
 70
     0
 43
0.0006660908203125
 10
3.739027957226977
 20
2.923274541244637
 10
3.739027957226977
 20
2.949918174057138
  0
LINE
  5
7DE1B343D9E06F9
330
7DE1B343D9E0781
100
AcDbEntity
  8
TEXT
100
AcDbLine
 10
4.292871956312392
 20
2.949918174057134
 30
0.0
 11
4.11714020341388
 21
2.949918174057134
 31
0.0
  0
LINE
  5
7DE1B343D9E06FA
330
7DE1B343D9E0781
100
AcDbEntity
  8
TEXT
100
AcDbLine
 10
4.292871956312392
 20
2.984306091651273
 30
0.0
 11
4.292871956312392
 21
2.949918174057134
 31
0.0
  0
LINE
  5
7DE1B343D9E06FB
330
7DE1B343D9E0781
100
AcDbEntity
  8
TEXT
100
AcDbLine
 10
4.483343848332244
 20
2.849046177944014
 30
0.0
 11
4.424713527300307
 21
2.949918174057134
 31
0.0
  0
LINE
  5
7DE1B343D9E06FC
330
7DE1B343D9E0781
100
AcDbEntity
  8
TEXT
100
AcDbLine
 10
4.54209241113811
 20
2.949918174057134
 30
0.0
 11
4.483343848332244
 21
2.849046177944014
 31
0.0
  0
LINE
  5
7DE1B343D9E06FD
330
7DE1B343D9E0781
100
AcDbEntity
  8
TEXT
100
AcDbLine
 10
4.639023036497851
 20
2.765832979171622
 30
0.0
 11
4.639023036497851
 21
3.017929651795945
 31
0.0
  0
LINE
  5
7DE1B343D9E06FE
330
7DE1B343D9E0781
100
AcDbEntity
  8
TEXT
100
AcDbLine
 10
4.671334890635511
 20
2.949918174057134
 30
0.0
 11
4.671334890635511
 21
2.749053967324726
 31
0.0
  0
LINE
  5
7DE1B343D9E06FF
330
7DE1B343D9E0781
100
AcDbEntity
  8
TEXT
100
AcDbLine
 10
4.671334890635511
 20
2.749053967324726
 30
0.0
 11
4.65434125375091
 21
2.749053967324726
 31
0.0
  0
LINE
  5
7DE1B343D9E0700
330
7DE1B343D9E0781
100
AcDbEntity
  8
TEXT
100
AcDbLine
 10
4.640162609994046
 20
2.683445141068623
 30
0.0
 11
4.738165943693481
 21
2.683445141068623
 31
0.0
  0
LINE
  5
7DE1B343D9E0701
330
7DE1B343D9E0781
100
AcDbEntity
  8
TEXT
100
AcDbLine
 10
4.47374361133529
 20
2.703403647173636
 30
0.0
 11
4.571043317428735
 21
2.867753858108904
 31
0.0
  0
ARC
  5
7DE1B343D9E0702
330
7DE1B343D9E0781
100
AcDbEntity
  8
TEXT
100
AcDbCircle
 10
4.439700051423076
 20
2.722992863342319
 30
0.0
 40
0.0392772371940762
100
AcDbArc
 50
270.1604552698595
 51
330.0831797321295
  0
LINE
  5
7DE1B343D9E0703
330
7DE1B343D9E0781
100
AcDbEntity
  8
TEXT
100
AcDbLine
 10
4.343169795037205
 20
2.683445141068623
 30
0.0
 11
4.439810046112199
 21
2.683715780166906
 31
0.0
  0
LWPOLYLINE
  5
7DE1B343D9E0704
330
7DE1B343D9E0781
100
AcDbEntity
  8
TEXT
100
AcDbPolyline
 90
        6
 70
     1
 43
0.0
 10
4.385693598612355
 20
2.885641479400369
 10
4.355377004392146
 20
2.885641479400369
 10
4.355377004392146
 20
2.762530481345474
 42
0.407328721240804
 10
4.366920655553623
 20
2.750711566669088
 10
4.427542354598354
 20
2.750711566669088
 10
4.445007695005672
 20
2.783523795712568
  0
LINE
  5
7DE1B343D9E070C
330
7DE1B343D9E0781
100
AcDbEntity
  8
TEXT
100
AcDbLine
 10
4.571043317428735
 20
2.867753858108904
 30
0.0
 11
4.571043317428735
 21
2.734996483283548
 31
0.0
  0
ARC
  5
7DE1B343D9E070D
330
7DE1B343D9E0781
100
AcDbEntity
  8
TEXT
100
AcDbCircle
 10
4.654341253750908
 20
2.764435773568151
 30
0.0
 40
0.0153818062434269
100
AcDbArc
 50
174.7883570302258
 51
270.0
  0
LWPOLYLINE
  5
7DE1B343D9E070E
330
7DE1B343D9E0781
100
AcDbEntity
  8
TEXT
100
AcDbPolyline
 90
        2
 70
     0
 43
0.0
 10
4.571043317428733
 20
2.734996483283552
 42
0.3318488747599744
 10
4.640162609994046
 20
2.683445141068623
 42
-6.868794160588311
  0
LINE
  5
7DE1B343D9E0712
330
7DE1B343D9E0781
100
AcDbEntity
  8
TEXT
100
AcDbLine
 10
4.795555012682742
 20
2.683445141068623
 30
0.0
 11
4.862613059464582
 21
2.683445141068623
 31
0.0
  0
LINE
  5
7DE1B343D9E0713
330
7DE1B343D9E0781
100
AcDbEntity
  8
TEXT
100
AcDbLine
 10
4.795555012682742
 20
2.878087690234259
 30
0.0
 11
4.795555012682742
 21
2.683445141068623
 31
0.0
  0
LINE
  5
7DE1B343D9E0714
330
7DE1B343D9E0781
100
AcDbEntity
  8
TEXT
100
AcDbLine
 10
4.738165943693481
 20
2.885641479400369
 30
0.0
 11
4.788001223516628
 21
2.885641479400369
 31
0.0
  0
LINE
  5
7DE1B343D9E0715
330
7DE1B343D9E0781
100
AcDbEntity
  8
TEXT
100
AcDbLine
 10
4.738165943693481
 20
2.683445141068623
 30
0.0
 11
4.738165943693481
 21
2.885641479400369
 31
0.0
  0
LWPOLYLINE
  5
7DE1B343D9E0716
330
7DE1B343D9E0781
100
AcDbEntity
  8
TEXT
100
AcDbPolyline
 90
        2
 70
     0
 43
0.0
 10
4.788001223516626
 20
2.885641479400369
 42
-0.4142135623731017
 10
4.79555501268274
 20
2.878087690234259
 42
-0.9999999999999998
  0
LINE
  5
7DE1B343D9E071A
330
7DE1B343D9E0781
100
AcDbEntity
  8
TEXT
100
AcDbLine
 10
4.993811224294312
 20
2.885641479400369
 30
0.0
 11
4.993811224294312
 21
2.810589073326162
 31
0.0
  0
LINE
  5
7DE1B343D9E071B
330
7DE1B343D9E0781
100
AcDbEntity
  8
TEXT
100
AcDbLine
 10
4.862613059464582
 20
2.885641479400369
 30
0.0
 11
4.916746656385532
 21
2.885641479400369
 31
0.0
  0
LINE
  5
7DE1B343D9E071C
330
7DE1B343D9E0781
100
AcDbEntity
  8
TEXT
100
AcDbLine
 10
4.862613059464582
 20
2.683445141068623
 30
0.0
 11
4.862613059464582
 21
2.885641479400369
 31
0.0
  0
LWPOLYLINE
  5
7DE1B343D9E071D
330
7DE1B343D9E0781
100
AcDbEntity
  8
TEXT
100
AcDbPolyline
 90
        2
 70
     0
 43
0.0
 10
4.91674665638553
 20
2.885641479400369
 42
-0.4142135623731017
 10
4.924300445551644
 20
2.878087690234259
 42
-0.9999999999999998
  0
LWPOLYLINE
  5
7DE1B343D9E0721
330
7DE1B343D9E0781
100
AcDbEntity
  8
TEXT
100
AcDbPolyline
 90
        4
 70
     0
 43
0.0
 10
4.924300445551644
 20
2.878087690234259
 10
4.924300445551644
 20
2.683445141068623
 10
4.992778728839502
 20
2.683445141068623
 10
4.992778728839502
 20
2.726936086019061
 42
-1.714843617202739
  0
LINE
  5
7DE1B343D9E0727
330
7DE1B343D9E0781
100
AcDbEntity
  8
TEXT
100
AcDbLine
 10
4.352914561156399
 20
2.949918174057134
 30
0.0
 11
4.352914561156399
 21
2.984306091651273
 31
0.0
  0
LINE
  5
7DE1B343D9E0728
330
7DE1B343D9E0781
100
AcDbEntity
  8
TEXT
100
AcDbLine
 10
4.424713527300307
 20
2.949918174057134
 30
0.0
 11
4.352914561156399
 21
2.949918174057134
 31
0.0
  0
LINE
  5
7DE1B343D9E0729
330
7DE1B343D9E0781
100
AcDbEntity
  8
TEXT
100
AcDbLine
 10
4.572214323931486
 20
2.949918174057134
 30
0.0
 11
4.54209241113811
 21
2.949918174057134
 31
0.0
  0
LINE
  5
7DE1B343D9E072A
330
7DE1B343D9E0781
100
AcDbEntity
  8
TEXT
100
AcDbLine
 10
4.572214323931486
 20
3.017929651795945
 30
0.0
 11
4.572214323931486
 21
2.949918174057134
 31
0.0
  0
LINE
  5
7DE1B343D9E072B
330
7DE1B343D9E0781
100
AcDbEntity
  8
TEXT
100
AcDbLine
 10
4.639023036497851
 20
3.017929651795945
 30
0.0
 11
4.572214323931486
 21
3.017929651795945
 31
0.0
  0
LWPOLYLINE
  5
7DE1B343D9E072C
330
7DE1B343D9E0781
100
AcDbEntity
  8
TEXT
100
AcDbPolyline
 90
        3
 70
     0
 43
0.0
 10
4.959434796095854
 20
2.949918174057138
 10
4.841134637279809
 20
2.949918174057138
 10
4.841134637279809
 20
2.922750677296242
 42
-1.960274751411753
  0
LINE
  5
7DE1B343D9E0731
330
7DE1B343D9E0781
100
AcDbEntity
  8
TEXT
100
AcDbLine
 10
4.805352946566648
 20
2.949918174057134
 30
0.0
 11
4.671334890635511
 21
2.949918174057134
 31
0.0
  0
LWPOLYLINE
  5
7DE1B343D9E0732
330
7DE1B343D9E0781
100
AcDbEntity
  8
TEXT
100
AcDbPolyline
 90
        2
 70
     0
 43
0.0
 10
4.805352946566648
 20
2.949918174057138
 42
-0.3328679258950098
 10
4.841134637279809
 20
2.922750677296242
 42
6.772930709997214
  0
LINE
  5
7DE1B343D9E0736
330
7DE1B343D9E0781
100
AcDbEntity
  8
TEXT
100
AcDbLine
 10
4.99521648680902
 20
2.949918174057134
 30
0.0
 11
4.99521648680902
 21
2.92159562828749
 31
0.0
  0
LWPOLYLINE
  5
7DE1B343D9E0737
330
7DE1B343D9E0781
100
AcDbEntity
  8
TEXT
100
AcDbPolyline
 90
        2
 70
     0
 43
0.0
 10
4.959434796095854
 20
2.949918174057138
 42
-0.3277054968067132
 10
4.995216486809018
 20
2.921595628287494
 42
6.667889725900311
  0
LINE
  5
7DE1B343D9E073B
330
7DE1B343D9E0781
100
AcDbEntity
  8
TEXT
100
AcDbLine
 10
5.20900833490112
 20
2.844706195503707
 30
0.0
 11
5.165257563719219
 21
2.926956471499852
 31
0.0
  0
LINE
  5
7DE1B343D9E073C
330
7DE1B343D9E0781
100
AcDbEntity
  8
TEXT
100
AcDbLine
 10
5.20900833490112
 20
2.949918174057134
 30
0.0
 11
5.20900833490112
 21
2.844706195503707
 31
0.0
  0
LINE
  5
7DE1B343D9E073D
330
7DE1B343D9E0781
100
AcDbEntity
  8
TEXT
100
AcDbLine
 10
5.436692073839489
 20
2.874052847645596
 30
0.0
 11
5.436692073839489
 21
3.015382379824735
 31
0.0
  0
LINE
  5
7DE1B343D9E073E
330
7DE1B343D9E0781
100
AcDbEntity
  8
TEXT
100
AcDbLine
 10
5.483790232395474
 20
2.949918174057134
 30
0.0
 11
5.436692073839489
 21
2.874052847645596
 31
0.0
  0
LINE
  5
7DE1B343D9E073F
330
7DE1B343D9E0781
100
AcDbEntity
  8
TEXT
100
AcDbLine
 10
5.494224949159397
 20
2.840024931116161
 30
0.0
 11
5.558782065125102
 21
2.949918174057134
 31
0.0
  0
LINE
  5
7DE1B343D9E0740
330
7DE1B343D9E0781
100
AcDbEntity
  8
TEXT
100
AcDbLine
 10
5.372857082616716
 20
2.683445141068623
 30
0.0
 11
5.437235266935337
 21
2.683445141068623
 31
0.0
  0
LWPOLYLINE
  5
7DE1B343D9E0741
330
7DE1B343D9E0781
100
AcDbEntity
  8
TEXT
100
AcDbPolyline
 90
        2
 70
     0
 43
0.0
 10
5.212948012206158
 20
2.726936086019061
 42
-0.2901071551932486
 10
5.169872079338514
 20
2.683445141068623
 42
-5.328517124445184
  0
ARC
  5
7DE1B343D9E0745
330
7DE1B343D9E0781
100
AcDbEntity
  8
TEXT
100
AcDbCircle
 10
5.101017497681599
 20
2.857282104400372
 30
0.0
 40
0.028359375
100
AcDbArc
 50
25.78218179591245
 51
90.0
  0
LINE
  5
7DE1B343D9E0746
330
7DE1B343D9E0781
100
AcDbEntity
  8
TEXT
100
AcDbLine
 10
5.136818572985722
 20
2.848366505938237
 30
0.0
 11
5.126553812572158
 21
2.869617045510931
 31
0.0
  0
LINE
  5
7DE1B343D9E0747
330
7DE1B343D9E0781
100
AcDbEntity
  8
TEXT
100
AcDbLine
 10
5.054530583202339
 20
2.848366505938237
 30
0.0
 11
5.136818572985722
 21
2.848366505938237
 31
0.0
  0
LWPOLYLINE
  5
7DE1B343D9E0748
330
7DE1B343D9E0781
100
AcDbEntity
  8
TEXT
100
AcDbPolyline
 90
        4
 70
     1
 43
0.0
 10
5.149749614268621
 20
2.786409119052648
 10
5.061089295608763
 20
2.786409119052648
 42
0.9999999999999998
 10
5.061089295608763
 20
2.744010578548788
 10
5.149749614268621
 20
2.744010578548788
 42
1.0
  0
LWPOLYLINE
  5
7DE1B343D9E074E
330
7DE1B343D9E0781
100
AcDbEntity
  8
TEXT
100
AcDbPolyline
 90
        2
 70
     0
 43
0.0
 10
5.035854661707137
 20
2.683445141068623
 10
5.169872079338514
 20
2.683445141068623
 42
0.9999999999999998
  0
LINE
  5
7DE1B343D9E0752
330
7DE1B343D9E0781
100
AcDbEntity
  8
TEXT
100
AcDbLine
 10
5.296209101324153
 20
2.885641479400369
 30
0.0
 11
5.372857082616711
 21
2.885641479400369
 31
0.0
  0
LINE
  5
7DE1B343D9E0753
330
7DE1B343D9E0781
100
AcDbEntity
  8
TEXT
100
AcDbLine
 10
5.372857082616711
 20
2.885641479400369
 30
0.0
 11
5.372857082616716
 21
2.683445141068623
 31
0.0
  0
ARC
  5
7DE1B343D9E0754
330
7DE1B343D9E0781
100
AcDbEntity
  8
TEXT
100
AcDbCircle
 10
5.296209101324151
 20
2.860735604117706
 30
0.0
 40
0.0249058752826653
100
AcDbArc
 50
89.99971217465335
 51
179.9999999999985
  0
LINE
  5
7DE1B343D9E0755
330
7DE1B343D9E0781
100
AcDbEntity
  8
TEXT
100
AcDbLine
 10
5.271303226041494
 20
2.683445141068623
 30
0.0
 11
5.271303226041489
 21
2.860735646500092
 31
0.0
  0
LWPOLYLINE
  5
7DE1B343D9E0756
330
7DE1B343D9E0781
100
AcDbEntity
  8
TEXT
100
AcDbPolyline
 90
        2
 70
     0
 43
0.0
 10
5.212948012206158
 20
2.683445141068623
 10
5.271303226041492
 20
2.683445141068623
  0
LWPOLYLINE
  5
7DE1B343D9E075A
330
7DE1B343D9E0781
100
AcDbEntity
  8
TEXT
100
AcDbPolyline
 90
        2
 70
     0
 43
0.0
 10
5.212948012206158
 20
2.726936086019061
 10
5.212948012206158
 20
2.683445141068623
  0
LINE
  5
7DE1B343D9E075E
330
7DE1B343D9E0781
100
AcDbEntity
  8
TEXT
100
AcDbLine
 10
5.589717172523007
 20
2.683445141068623
 30
0.0
 11
5.494224949159397
 21
2.840024931116161
 31
0.0
  0
LINE
  5
7DE1B343D9E075F
330
7DE1B343D9E0781
100
AcDbEntity
  8
TEXT
100
AcDbLine
 10
5.513138800146801
 20
2.683445141068623
 30
0.0
 11
5.589717172523007
 21
2.683445141068623
 31
0.0
  0
LINE
  5
7DE1B343D9E0760
330
7DE1B343D9E0781
100
AcDbEntity
  8
TEXT
100
AcDbLine
 10
5.437235266935337
 20
2.815024709544804
 30
0.0
 11
5.513138800146801
 21
2.683445141068623
 31
0.0
  0
LINE
  5
7DE1B343D9E0761
330
7DE1B343D9E0781
100
AcDbEntity
  8
TEXT
100
AcDbLine
 10
5.437235266935337
 20
2.683445141068623
 30
0.0
 11
5.437235266935337
 21
2.815024709544804
 31
0.0
  0
LINE
  5
7DE1B343D9E0762
330
7DE1B343D9E0781
100
AcDbEntity
  8
TEXT
100
AcDbLine
 10
5.436692073839489
 20
3.015382379824735
 30
0.0
 11
5.368377195290216
 21
3.015382379824735
 31
0.0
  0
ARC
  5
7DE1B343D9E0763
330
7DE1B343D9E0781
100
AcDbEntity
  8
TEXT
100
AcDbCircle
 10
5.12802145624901
 20
2.908334606936232
 30
0.0
 40
0.0416329381542859
100
AcDbArc
 50
26.56974201007528
 51
87.20939649401342
  0
LINE
  5
7DE1B343D9E0764
330
7DE1B343D9E0781
100
AcDbEntity
  8
TEXT
100
AcDbLine
 10
5.272905241200621
 20
2.949918174057134
 30
0.0
 11
5.20900833490112
 21
2.949918174057134
 31
0.0
  0
LINE
  5
7DE1B343D9E0765
330
7DE1B343D9E0781
100
AcDbEntity
  8
TEXT
100
AcDbLine
 10
5.272905241200621
 20
2.92237052419626
 30
0.0
 11
5.272905241200621
 21
2.949918174057134
 31
0.0
  0
ARC
  5
7DE1B343D9E0766
330
7DE1B343D9E0781
100
AcDbEntity
  8
TEXT
100
AcDbCircle
 10
5.304098058263729
 20
2.91867244677487
 30
0.0
 40
0.0314112657011332
100
AcDbArc
 50
95.88484768694724
 51
173.2388340632136
  0
LINE
  5
7DE1B343D9E0767
330
7DE1B343D9E0781
100
AcDbEntity
  8
TEXT
100
AcDbLine
 10
5.368377195290211
 20
2.949918174057134
 30
0.0
 11
5.300877477640694
 21
2.949918174057134
 31
0.0
  0
LINE
  5
7DE1B343D9E0768
330
7DE1B343D9E0781
100
AcDbEntity
  8
TEXT
100
AcDbLine
 10
5.368377195290216
 20
3.015382379824735
 30
0.0
 11
5.368377195290211
 21
2.949918174057134
 31
0.0
  0
LINE
  5
7DE1B343D9E0769
330
7DE1B343D9E0781
100
AcDbEntity
  8
TEXT
100
AcDbLine
 10
5.558782065125102
 20
2.949918174057134
 30
0.0
 11
5.483790232395476
 21
2.949918174057134
 31
0.0
  0
INSERT
  5
7DE1B343D9E079C
330
7DE1B343D9E0781
100
AcDbEntity
  8
ASHADE
 62
     1
100
AcDbBlockReference
  2
AVE_RENDER
 10
0.0
 20
0.0
 30
0.0
1001
AVE_RENDER
1002
{
1070
     6
1000
Pref
1070
    30
1070
    20
1070
     1
1070
     0
1000

1070
    10
1070
     1
1070
    30
1040
1.0
1070
     1
1040
0.3
1040
0.7
1040
0.0
1040
10.0
1010
-1.0
1020
-1.0
1030
-1.0
1040
0.3
1070
    49
1070
     0
1070
     0
1010
1.0
1020
1.0
1030
1.0
1040
45.0
1070
     1
1070
     0
1000
WCS
1040
0.0
1002
}
  0
INSERT
  5
7DE1B343D9E079D
330
7DE1B343D9E0781
100
AcDbEntity
  8
ASHADE
 62
     3
100
AcDbBlockReference
  2
AVE_RENDER
 10
0.0
 20
0.0
 30
0.0
1001
AVE_RENDER
1002
{
1070
     0
1000
Full Opt
1070
     0
1070
     1
1070
     1
1070
     1
1070
     0
1070
     0
1070
     0
1070
     1
1070
     1
1040
0.0001
1040
0.0001
1002
}
  0
INSERT
  5
7DE1B343D9E079E
330
7DE1B343D9E0781
100
AcDbEntity
  8
ASHADE
 62
     4
100
AcDbBlockReference
  2
AVE_RENDER
 10
0.0
 20
0.0
 30
0.0
1001
AVE_RENDER
1002
{
1070
     0
1000
Quick Opt
1070
     0
1070
     1
1070
     1
1070
     1
1070
     0
1070
     0
1070
     1
1002
}
  0
INSERT
  5
7DE1B343D9E079F
330
7DE1B343D9E0781
100
AcDbEntity
  8
ASHADE
 62
     5
100
AcDbBlockReference
  2
AVE_RENDER
 10
0.0
 20
0.0
 30
0.0
1001
AVE_RENDER
1002
{
1070
     1
1000
Scanl Opt
1070
     2
1070
     0
1070
     2
1040
2.0
1040
4.0
1070
     0
1070
     1
1070
     0
1040
0.03
1002
}
  0
INSERT
  5
7DE1B343D9E07A0
330
7DE1B343D9E0781
100
AcDbEntity
  8
ASHADE
 62
     6
100
AcDbBlockReference
  2
AVE_RENDER
 10
0.0
 20
0.0
 30
0.0
1001
AVE_RENDER
1002
{
1070
     2
1000
Raytr Opt
1070
     2
1070
     0
1070
     2
1040
2.0
1040
4.0
1070
     0
1070
     1
1070
     1
1040
0.03
1070
     3
1040
0.03
1002
}
  0
INSERT
  5
7DE1B343D9E07A1
330
7DE1B343D9E0781
100
AcDbEntity
  8
ASHADE
 62
     7
100
AcDbBlockReference
  2
AVE_RENDER
 10
0.0
 20
0.0
 30
0.0
1001
AVE_RENDER
1002
{
1070
     0
1000
RFile Opt
1070
     5
1070
   640
1070
   480
1070
 10000
1070
     3
1070
    32
1070
    24
1070
     0
1070
     0
1070
     0
1070
     1
1070
     0
1070
     0
1070
     0
1002
}
  0
INSERT
  5
7DE1B343D9E07A2
330
7DE1B343D9E0781
100
AcDbEntity
  8
ASHADE
 62
     8
100
AcDbBlockReference
  2
AVE_RENDER
 10
0.0
 20
0.0
 30
0.0
1001
AVE_RENDER
1002
{
1070
     0
1000
Fog Opt
1070
     0
1070
     0
1040
0.0
1040
1.0
1040
0.0
1040
1.0
1010
0.5
1020
0.5
1030
0.5
1002
}
  0
INSERT
  5
7DE1B343D9E07A3
330
7DE1B343D9E0781
100
AcDbEntity
  8
ASHADE
 62
     9
100
AcDbBlockReference
  2
AVE_RENDER
 10
0.0
 20
0.0
 30
0.0
1001
AVE_RENDER
1002
{
1070
     0
1000
BG Opt
1070
     0
1070
     1
1010
0.0
1020
0.0
1030
0.0
1010
1.0
1020
0.0
1030
0.0
1010
0.0
1020
1.0
1030
0.0
1010
0.0
1020
0.0
1030
1.0
1040
0.5
1040
0.33
1040
0.0
1000

1070
     1
1000

1070
     1
1070
     1
1040
1.0
1040
1.0
1040
0.0
1040
0.0
1070
     0
1002
}
  0
INSERT
  5
7DE1B343D9E07AA
330
7DE1B343D9E0781
100
AcDbEntity
  8
ASHADE
 62
     1
100
AcDbBlockReference
  2
AVE_GLOBAL
 10
0.0
 20
0.0
 30
0.0
1001
AVE_MATERIAL
1002
{
1000
*GLOBAL*
1000
1
1000
Global finish.
1002
{
1002
}
1002
{
1070
    63
1002
{
1002
{
1010
-1.0
1020
-1.0
1030
-1.0
1002
}
1040
0.1000000014901161
1000

1040
0.0
1002
{
1002
}
1040
0.0
1002
{
1002
}
1040
0.0
1002
}
1002
{
1002
{
1010
-1.0
1020
-1.0
1030
-1.0
1002
}
1040
0.6999999880790711
1000

1040
0.0
1002
{
1002
}
1040
0.0
1002
{
1002
}
1040
0.0
1002
}
1002
{
1002
{
1010
-1.0
1020
-1.0
1030
-1.0
1002
}
1040
0.2000000029802322
1000

1040
0.0
1002
{
1002
}
1040
0.0
1002
{
1002
}
1040
0.0
1002
}
1002
{
1070
     0
1002
{
1070
     1
1002
{
1040
1.0
1040
1.0
1000

1040
0.0
1002
{
1002
}
1040
0.0
1002
{
1002
}
1040
0.0
1002
}
1002
}
1040
1.0
1040
0.0
1040
0.0
1002
}
1002
{
1040
1.0
1040
1.0
1000

1040
0.0
1002
{
1002
}
1040
0.0
1002
{
1002
}
1040
0.0
1002
}
1002
{
1040
0.5
1040
1.0
1000

1040
0.0
1002
{
1002
}
1040
0.0
1002
{
1002
}
1040
0.0
1002
}
1002
{
1070
     0
1040
0.0
1002
{
1002
}
1040
1.0
1002
{
1002
}
1040
0.0
1002
}
1002
{
1040
0.0
1002
{
1002
{
1010
0.0
1020
0.0
1030
0.0
1002
}
1040
1.0
1000

1040
0.0
1002
{
1002
}
1040
0.0
1002
{
1002
}
1040
0.0
1002
}
1002
}
1002
{
1002
{
1070
     1
1002
{
1040
0.0
1040
1.0
1000

1040
0.0
1002
{
1002
}
1040
0.0
1002
{
1002
}
1040
0.0
1002
}
1002
}
1040
0.0
1002
{
1002
}
1010
1.0
1020
0.0
1030
0.0
1010
0.0
1020
1.0
1030
0.0
1010
0.0
1020
0.0
1030
1.0
1070
     0
1002
}
1002
{
1002
{
1040
1.0
1040
1.0
1002
{
1070
     1
1002
{
1040
1.0
1040
1.0
1000

1040
0.0
1002
{
1002
}
1040
0.0
1002
{
1002
}
1040
0.0
1002
}
1002
}
1002
}
1070
     0
1040
0.0
1002
{
1002
}
1002
}
1002
{
1002
}
1002
}
1002
{
1071
        3
1070
     3
1070
     0
1002
{
1070
     2
1070
     0
1070
     0
1040
0.0
1002
}
1070
     0
1070
     2
1002
{
1002
}
1002
}
1002
{
1040
8030.0
1040
190.3000030517578
1040
0.3050000071525574
1040
228.0
1040
545.0
1040
14.0
1040
17.39999961853027
1040
0.4560000002384186
1002
}
1002
}
  0
ENDSEC
  0
SECTION
  2
OBJECTS
  0
DICTIONARY
  5
7DE1B343D9E0775
330
0
100
AcDbDictionary
  3
ACAD_GROUP
350
7DE1B343D9E0776
  3
ACAD_LAYOUT
350
7DE1B343D9E07B6
  3
ACAD_MLINESTYLE
350
7DE1B343D9E0777
  3
ACAD_PLOTSETTINGS
350
7DE1B343D9E07B7
  3
ACAD_PLOTSTYLENAME
350
7DE1B343D9E07B4
  3
ACDBHEADERROUNDTRIPXREC
350
7DE1B343D9E07C1
  3
ACDBVARIABLEDICTIONARY
350
7DE1B343D9E07BE
  0
DICTIONARY
  5
7DE1B343D9E07E3
330
7DE1B343D9E0781
100
AcDbDictionary
280
     1
  3
ACAD_LAYOUTSELFREF
360
7DE1B343D9E07E4
  0
DICTIONARY
  5
7DE1B343D9E07E1
330
7DE1B343D9E077E
100
AcDbDictionary
280
     1
  3
ACAD_LAYOUTSELFREF
360
7DE1B343D9E07E2
  0
DICTIONARY
  5
7DE1B343D9E0776
102
{ACAD_REACTORS
330
7DE1B343D9E0775
102
}
330
7DE1B343D9E0775
100
AcDbDictionary
  0
DICTIONARY
  5
7DE1B343D9E07B6
102
{ACAD_REACTORS
330
7DE1B343D9E0775
102
}
330
7DE1B343D9E0775
100
AcDbDictionary
  0
DICTIONARY
  5
7DE1B343D9E0777
102
{ACAD_REACTORS
330
7DE1B343D9E0775
102
}
330
7DE1B343D9E0775
100
AcDbDictionary
  3
STANDARD
350
7DE1B343D9E0784
  0
DICTIONARY
  5
7DE1B343D9E07B7
102
{ACAD_REACTORS
330
7DE1B343D9E0775
102
}
330
7DE1B343D9E0775
100
AcDbDictionary
  0
ACDBDICTIONARYWDFLT
  5
7DE1B343D9E07B4
102
{ACAD_REACTORS
330
7DE1B343D9E0775
102
}
330
7DE1B343D9E0775
100
AcDbDictionary
281
     1
  3
Normal
350
7DE1B343D9E07B5
100
AcDbDictionaryWithDefault
340
7DE1B343D9E07B5
  0
DICTIONARY
  5
7DE1B343D9E07C1
102
{ACAD_REACTORS
330
7DE1B343D9E0775
102
}
330
7DE1B343D9E0775
100
AcDbDictionary
  3
CEPSNTYPE
350
7DE1B343D9E07CB
  3
FINGERPRINTGUID
350
7DE1B343D9E07CC
  3
HYPERLINKBASE
350
7DE1B343D9E07C4
  3
INSUNITS
350
7DE1B343D9E07CA
  3
LAYOUTDICT
350
7DE1B343D9E07C6
  3
LWETCUNION
350
7DE1B343D9E07C9
  3
PLOTSETDICT
350
7DE1B343D9E07C7
  3
PLOTSTYLNAMDICT
350
7DE1B343D9E07C8
  3
PSVPSCALE
350
7DE1B343D9E07CE
  3
PUCSBASE
350
7DE1B343D9E07D1
  3
PUCSORGBACK
350
7DE1B343D9E07D7
  3
PUCSORGBOTTOM
350
7DE1B343D9E07D3
  3
PUCSORGFRONT
350
7DE1B343D9E07D6
  3
PUCSORGLEFT
350
7DE1B343D9E07D4
  3
PUCSORGRIGHT
350
7DE1B343D9E07D5
  3
PUCSORGTOP
350
7DE1B343D9E07D2
  3
PUCSORTHOREF
350
7DE1B343D9E07CF
  3
PUCSORTHOVIEW
350
7DE1B343D9E07D0
  3
STYLESHEET
350
7DE1B343D9E07C5
  3
TSTACKALIGN
350
7DE1B343D9E07C2
  3
TSTACKSIZE
350
7DE1B343D9E07C3
  3
UCSBASE
350
7DE1B343D9E07DA
  3
UCSORGBACK
350
7DE1B343D9E07E0
  3
UCSORGBOTTOM
350
7DE1B343D9E07DC
  3
UCSORGFRONT
350
7DE1B343D9E07DF
  3
UCSORGLEFT
350
7DE1B343D9E07DD
  3
UCSORGRIGHT
350
7DE1B343D9E07DE
  3
UCSORGTOP
350
7DE1B343D9E07DB
  3
UCSORTHOREF
350
7DE1B343D9E07D8
  3
UCSORTHOVIEW
350
7DE1B343D9E07D9
  3
VERSIONGUID
350
7DE1B343D9E07CD
  0
DICTIONARY
  5
7DE1B343D9E07BE
102
{ACAD_REACTORS
330
7DE1B343D9E0775
102
}
330
7DE1B343D9E0775
100
AcDbDictionary
  3
DIMASSOC
350
7DE1B343D9E07BF
  0
XRECORD
  5
7DE1B343D9E07E4
102
{ACAD_REACTORS
330
7DE1B343D9E07E3
102
}
330
7DE1B343D9E07E3
100
AcDbXrecord
340
7DE1B343D9E0781
  0
XRECORD
  5
7DE1B343D9E07E2
102
{ACAD_REACTORS
330
7DE1B343D9E07E1
102
}
330
7DE1B343D9E07E1
100
AcDbXrecord
340
7DE1B343D9E077E
  0
MLINESTYLE
  5
7DE1B343D9E0784
102
{ACAD_REACTORS
330
7DE1B343D9E0777
102
}
330
7DE1B343D9E0777
100
AcDbMlineStyle
  2
STANDARD
 70
     0
  3

 62
     0
 51
90.0
 52
90.0
 71
     2
 49
0.5
 62
   256
  6
BYLAYER
 49
-0.5
 62
   256
  6
BYLAYER
  0
ACDBPLACEHOLDER
  5
7DE1B343D9E07B5
102
{ACAD_REACTORS
330
7DE1B343D9E07B4
102
}
330
7DE1B343D9E07B4
100
AcDbPlaceHolder
280
     0
  0
XRECORD
  5
7DE1B343D9E07CB
102
{ACAD_REACTORS
330
7DE1B343D9E07C1
102
}
330
7DE1B343D9E07C1
100
AcDbXrecord
 90
        0
  0
XRECORD
  5
7DE1B343D9E07CC
102
{ACAD_REACTORS
330
7DE1B343D9E07C1
102
}
330
7DE1B343D9E07C1
100
AcDbXrecord
  1
{76492590-8DB5-11D6-88E6-0090279574E7}
  0
XRECORD
  5
7DE1B343D9E07C4
102
{ACAD_REACTORS
330
7DE1B343D9E07C1
102
}
330
7DE1B343D9E07C1
100
AcDbXrecord
  1

  0
XRECORD
  5
7DE1B343D9E07CA
102
{ACAD_REACTORS
330
7DE1B343D9E07C1
102
}
330
7DE1B343D9E07C1
100
AcDbXrecord
 90
        0
  0
XRECORD
  5
7DE1B343D9E07C6
102
{ACAD_REACTORS
330
7DE1B343D9E07C1
102
}
330
7DE1B343D9E07C1
100
AcDbXrecord
340
7DE1B343D9E07B6
  0
XRECORD
  5
7DE1B343D9E07C9
102
{ACAD_REACTORS
330
7DE1B343D9E07C1
102
}
330
7DE1B343D9E07C1
100
AcDbXrecord
 90
    14877
  0
XRECORD
  5
7DE1B343D9E07C7
102
{ACAD_REACTORS
330
7DE1B343D9E07C1
102
}
330
7DE1B343D9E07C1
100
AcDbXrecord
340
7DE1B343D9E07B7
  0
XRECORD
  5
7DE1B343D9E07C8
102
{ACAD_REACTORS
330
7DE1B343D9E07C1
102
}
330
7DE1B343D9E07C1
100
AcDbXrecord
340
7DE1B343D9E07B4
  0
XRECORD
  5
7DE1B343D9E07CE
102
{ACAD_REACTORS
330
7DE1B343D9E07C1
102
}
330
7DE1B343D9E07C1
100
AcDbXrecord
 40
0.0
  0
XRECORD
  5
7DE1B343D9E07D1
102
{ACAD_REACTORS
330
7DE1B343D9E07C1
102
}
330
7DE1B343D9E07C1
100
AcDbXrecord
340
0
  0
XRECORD
  5
7DE1B343D9E07D7
102
{ACAD_REACTORS
330
7DE1B343D9E07C1
102
}
330
7DE1B343D9E07C1
100
AcDbXrecord
 10
0.0
 20
0.0
 30
0.0
  0
XRECORD
  5
7DE1B343D9E07D3
102
{ACAD_REACTORS
330
7DE1B343D9E07C1
102
}
330
7DE1B343D9E07C1
100
AcDbXrecord
 10
0.0
 20
0.0
 30
0.0
  0
XRECORD
  5
7DE1B343D9E07D6
102
{ACAD_REACTORS
330
7DE1B343D9E07C1
102
}
330
7DE1B343D9E07C1
100
AcDbXrecord
 10
0.0
 20
0.0
 30
0.0
  0
XRECORD
  5
7DE1B343D9E07D4
102
{ACAD_REACTORS
330
7DE1B343D9E07C1
102
}
330
7DE1B343D9E07C1
100
AcDbXrecord
 10
0.0
 20
0.0
 30
0.0
  0
XRECORD
  5
7DE1B343D9E07D5
102
{ACAD_REACTORS
330
7DE1B343D9E07C1
102
}
330
7DE1B343D9E07C1
100
AcDbXrecord
 10
0.0
 20
0.0
 30
0.0
  0
XRECORD
  5
7DE1B343D9E07D2
102
{ACAD_REACTORS
330
7DE1B343D9E07C1
102
}
330
7DE1B343D9E07C1
100
AcDbXrecord
 10
0.0
 20
0.0
 30
0.0
  0
XRECORD
  5
7DE1B343D9E07CF
102
{ACAD_REACTORS
330
7DE1B343D9E07C1
102
}
330
7DE1B343D9E07C1
100
AcDbXrecord
340
0
  0
XRECORD
  5
7DE1B343D9E07D0
102
{ACAD_REACTORS
330
7DE1B343D9E07C1
102
}
330
7DE1B343D9E07C1
100
AcDbXrecord
 70
     0
  0
XRECORD
  5
7DE1B343D9E07C5
102
{ACAD_REACTORS
330
7DE1B343D9E07C1
102
}
330
7DE1B343D9E07C1
100
AcDbXrecord
  1

  0
XRECORD
  5
7DE1B343D9E07C2
102
{ACAD_REACTORS
330
7DE1B343D9E07C1
102
}
330
7DE1B343D9E07C1
100
AcDbXrecord
 90
        1
  0
XRECORD
  5
7DE1B343D9E07C3
102
{ACAD_REACTORS
330
7DE1B343D9E07C1
102
}
330
7DE1B343D9E07C1
100
AcDbXrecord
 90
       70
  0
XRECORD
  5
7DE1B343D9E07DA
102
{ACAD_REACTORS
330
7DE1B343D9E07C1
102
}
330
7DE1B343D9E07C1
100
AcDbXrecord
340
0
  0
XRECORD
  5
7DE1B343D9E07E0
102
{ACAD_REACTORS
330
7DE1B343D9E07C1
102
}
330
7DE1B343D9E07C1
100
AcDbXrecord
 10
0.0
 20
0.0
 30
0.0
  0
XRECORD
  5
7DE1B343D9E07DC
102
{ACAD_REACTORS
330
7DE1B343D9E07C1
102
}
330
7DE1B343D9E07C1
100
AcDbXrecord
 10
0.0
 20
0.0
 30
0.0
  0
XRECORD
  5
7DE1B343D9E07DF
102
{ACAD_REACTORS
330
7DE1B343D9E07C1
102
}
330
7DE1B343D9E07C1
100
AcDbXrecord
 10
0.0
 20
0.0
 30
0.0
  0
XRECORD
  5
7DE1B343D9E07DD
102
{ACAD_REACTORS
330
7DE1B343D9E07C1
102
}
330
7DE1B343D9E07C1
100
AcDbXrecord
 10
0.0
 20
0.0
 30
0.0
  0
XRECORD
  5
7DE1B343D9E07DE
102
{ACAD_REACTORS
330
7DE1B343D9E07C1
102
}
330
7DE1B343D9E07C1
100
AcDbXrecord
 10
0.0
 20
0.0
 30
0.0
  0
XRECORD
  5
7DE1B343D9E07DB
102
{ACAD_REACTORS
330
7DE1B343D9E07C1
102
}
330
7DE1B343D9E07C1
100
AcDbXrecord
 10
0.0
 20
0.0
 30
0.0
  0
XRECORD
  5
7DE1B343D9E07D8
102
{ACAD_REACTORS
330
7DE1B343D9E07C1
102
}
330
7DE1B343D9E07C1
100
AcDbXrecord
340
0
  0
XRECORD
  5
7DE1B343D9E07D9
102
{ACAD_REACTORS
330
7DE1B343D9E07C1
102
}
330
7DE1B343D9E07C1
100
AcDbXrecord
 70
     0
  0
XRECORD
  5
7DE1B343D9E07CD
102
{ACAD_REACTORS
330
7DE1B343D9E07C1
102
}
330
7DE1B343D9E07C1
100
AcDbXrecord
  1
{76492592-8DB5-11D6-88E6-0090279574E7}
  0
DICTIONARYVAR
  5
7DE1B343D9E07BF
102
{ACAD_REACTORS
330
7DE1B343D9E07BE
102
}
330
7DE1B343D9E07BE
100
DictionaryVariables
280
     0
  1
1
  0
ENDSEC
  0
EOF
