  0
SECTION
  2
HEADER
  9
$ACADVER
  1
AC1014
  9
$ACADMAINTVER
 70
     9
  9
$DWGCODEPAGE
  3
ANSI_1252
  9
$INSBASE
 10
0.0
 20
0.0
 30
0.0
  9
$EXTMIN
 10
1.483182991700429
 20
3.388646522287487
 30
0.0
  9
$EXTMAX
 10
5.233182991700429
 20
5.428753854711539
 30
0.0
  9
$LIMMIN
 10
0.0
 20
0.0
  9
$LIMMAX
 10
11.0
 20
8.5
  9
$ORTHOMODE
 70
     0
  9
$REGENMODE
 70
     1
  9
$FILLMODE
 70
     1
  9
$QTEXTMODE
 70
     0
  9
$MIRRTEXT
 70
     0
  9
$DRAGMODE
 70
     2
  9
$LTSCALE
 40
0.5
  9
$OSMODE
 70
    39
  9
$ATTMODE
 70
     1
  9
$TEXTSIZE
 40
0.125
  9
$TRACEWID
 40
0.05
  9
$TEXTSTYLE
  7
ROMANS
  9
$CLAYER
  8
0
  9
$CELTYPE
  6
BYLAYER
  9
$CECOLOR
 62
   256
  9
$CELTSCALE
 40
1.0
  9
$DELOBJ
 70
     1
  9
$DISPSILH
 70
     1
  9
$DIMSCALE
 40
2.0
  9
$DIMASZ
 40
0.125
  9
$DIMEXO
 40
0.125
  9
$DIMDLI
 40
0.375
  9
$DIMRND
 40
0.0
  9
$DIMDLE
 40
0.0
  9
$DIMEXE
 40
0.125
  9
$DIMTP
 40
0.0
  9
$DIMTM
 40
0.05
  9
$DIMTXT
 40
0.125
  9
$DIMCEN
 40
-0.125
  9
$DIMTSZ
 40
0.0
  9
$DIMTOL
 70
     0
  9
$DIMLIM
 70
     0
  9
$DIMTIH
 70
     1
  9
$DIMTOH
 70
     1
  9
$DIMSE1
 70
     0
  9
$DIMSE2
 70
     0
  9
$DIMTAD
 70
     0
  9
$DIMZIN
 70
     4
  9
$DIMBLK
  1

  9
$DIMASO
 70
     1
  9
$DIMSHO
 70
     1
  9
$DIMPOST
  1

  9
$DIMAPOST
  1

  9
$DIMALT
 70
     0
  9
$DIMALTD
 70
     2
  9
$DIMALTF
 40
25.4
  9
$DIMLFAC
 40
1.0
  9
$DIMTOFL
 70
     0
  9
$DIMTVP
 40
0.0
  9
$DIMTIX
 70
     0
  9
$DIMSOXD
 70
     0
  9
$DIMSAH
 70
     0
  9
$DIMBLK1
  1

  9
$DIMBLK2
  1

  9
$DIMSTYLE
  2
STANDARD
  9
$DIMCLRD
 70
     0
  9
$DIMCLRE
 70
     0
  9
$DIMCLRT
 70
     0
  9
$DIMTFAC
 40
1.0
  9
$DIMGAP
 40
0.09
  9
$DIMJUST
 70
     0
  9
$DIMSD1
 70
     0
  9
$DIMSD2
 70
     0
  9
$DIMTOLJ
 70
     1
  9
$DIMTZIN
 70
     4
  9
$DIMALTZ
 70
     0
  9
$DIMALTTZ
 70
     0
  9
$DIMFIT
 70
     3
  9
$DIMUPT
 70
     0
  9
$DIMUNIT
 70
     2
  9
$DIMDEC
 70
     3
  9
$DIMTDEC
 70
     3
  9
$DIMALTU
 70
     2
  9
$DIMALTTD
 70
     2
  9
$DIMTXSTY
  7
ROMANS
  9
$DIMAUNIT
 70
     0
  9
$LUNITS
 70
     2
  9
$LUPREC
 70
     3
  9
$SKETCHINC
 40
0.1
  9
$FILLETRAD
 40
0.0
  9
$AUNITS
 70
     0
  9
$AUPREC
 70
     0
  9
$MENU
  1
ACAD
  9
$ELEVATION
 40
0.0
  9
$PELEVATION
 40
0.0
  9
$THICKNESS
 40
0.0
  9
$LIMCHECK
 70
     0
  9
$BLIPMODE
 70
     0
  9
$CHAMFERA
 40
0.0
  9
$CHAMFERB
 40
0.0
  9
$CHAMFERC
 40
0.0
  9
$CHAMFERD
 40
0.0
  9
$SKPOLY
 70
     0
  9
$TDCREATE
 40
2448079.405121180
  9
$TDUPDATE
 40
2452458.302686493
  9
$TDINDWG
 40
0.0635015856
  9
$TDUSRTIMER
 40
0.0635015856
  9
$USRTIMER
 70
     1
  9
$ANGBASE
 50
0.0
  9
$ANGDIR
 70
     0
  9
$PDMODE
 70
     0
  9
$PDSIZE
 40
0.0
  9
$PLINEWID
 40
0.0
  9
$COORDS
 70
     2
  9
$SPLFRAME
 70
     0
  9
$SPLINETYPE
 70
     6
  9
$SPLINESEGS
 70
     8
  9
$ATTDIA
 70
     0
  9
$ATTREQ
 70
     1
  9
$HANDLING
 70
 22529
  9
$HANDSEED
  5
3B8
  9
$SURFTAB1
 70
     6
  9
$SURFTAB2
 70
     6
  9
$SURFTYPE
 70
     6
  9
$SURFU
 70
     6
  9
$SURFV
 70
     6
  9
$UCSNAME
  2

  9
$UCSORG
 10
0.0
 20
0.0
 30
0.0
  9
$UCSXDIR
 10
1.0
 20
0.0
 30
0.0
  9
$UCSYDIR
 10
0.0
 20
1.0
 30
0.0
  9
$PUCSNAME
  2

  9
$PUCSORG
 10
0.0
 20
0.0
 30
0.0
  9
$PUCSXDIR
 10
1.0
 20
0.0
 30
0.0
  9
$PUCSYDIR
 10
0.0
 20
1.0
 30
0.0
  9
$USERI1
 70
     0
  9
$USERI2
 70
     0
  9
$USERI3
 70
     0
  9
$USERI4
 70
     0
  9
$USERI5
 70
     0
  9
$USERR1
 40
0.0
  9
$USERR2
 40
0.0
  9
$USERR3
 40
0.0
  9
$USERR4
 40
0.0
  9
$USERR5
 40
0.0
  9
$WORLDVIEW
 70
     1
  9
$SHADEDGE
 70
     3
  9
$SHADEDIF
 70
    70
  9
$TILEMODE
 70
     1
  9
$MAXACTVP
 70
    16
  9
$PINSBASE
 10
0.0
 20
0.0
 30
0.0
  9
$PLIMCHECK
 70
     0
  9
$PEXTMIN
 10
1.000000000000000E+20
 20
1.000000000000000E+20
 30
1.000000000000000E+20
  9
$PEXTMAX
 10
-1.000000000000000E+20
 20
-1.000000000000000E+20
 30
-1.000000000000000E+20
  9
$PLIMMIN
 10
0.0
 20
0.0
  9
$PLIMMAX
 10
12.0
 20
9.0
  9
$UNITMODE
 70
     0
  9
$VISRETAIN
 70
     0
  9
$PLINEGEN
 70
     1
  9
$PSLTSCALE
 70
     0
  9
$TREEDEPTH
 70
  3020
  9
$PICKSTYLE
 70
     1
  9
$CMLSTYLE
  2
STANDARD
  9
$CMLJUST
 70
     0
  9
$CMLSCALE
 40
1.0
  9
$PROXYGRAPHICS
 70
     1
  9
$MEASUREMENT
 70
     0
  0
ENDSEC
  0
SECTION
  2
CLASSES
  0
CLASS
  1
LWPOLYLINE
  2
AcDbPolyline
  3
AutoCAD 2000
 90
        0
280
     0
281
     1
  0
CLASS
  1
DICTIONARYVAR
  2
AcDbDictionaryVar
  3
AutoCAD 2000
 90
        0
280
     0
281
     0
  0
CLASS
  1
ACDBDICTIONARYWDFLT
  2
AcDbDictionaryWithDefault
  3
AutoCAD 2000
 90
        0
280
     0
281
     0
  0
CLASS
  1
ACDBPLACEHOLDER
  2
AcDbPlaceHolder
  3
AutoCAD 2000
 90
        0
280
     0
281
     0
  0
CLASS
  1
LAYOUT
  2
AcDbLayout
  3
AutoCAD 2000
 90
        0
280
     0
281
     0
  0
CLASS
  1
LONG_TRANSACTION
  2
AcDbLongTransaction
  3
AutoCAD 2000
 90
        0
280
     0
281
     0
  0
CLASS
  1
LWPOLYLINE
  2
AcDbPolyline
  3
AutoCAD 2000
 90
        0
280
     0
281
     1
  0
CLASS
  1
HATCH
  2
AcDbHatch
  3
AutoCAD 2000
 90
        0
280
     0
281
     1
  0
CLASS
  1
XRECORD
  2
AcDbXrecord
  3
AutoCAD 2000
 90
        0
280
     0
281
     0
  0
ENDSEC
  0
SECTION
  2
TABLES
  0
TABLE
  2
VPORT
  5
8
330
0
100
AcDbSymbolTable
 70
     2
  0
VPORT
  5
393
330
8
100
AcDbSymbolTableRecord
100
AcDbViewportTableRecord
  2
*ACTIVE
 70
     0
 10
0.0
 20
0.0
 11
1.0
 21
1.0
 12
6.501747302336291
 22
4.408582192419949
 13
0.0
 23
0.0
 14
0.25
 24
0.25
 15
0.0
 25
0.0
 16
0.0
 26
0.0
 36
1.0
 17
0.0
 27
0.0
 37
0.0
 40
2.32788249663621
 41
4.320930232558139
 42
50.0
 43
0.0
 44
0.0
 50
0.0
 51
0.0
 71
     0
 72
  2000
 73
     1
 74
     1
 75
     0
 76
     0
 77
     0
 78
     0
  0
ENDTAB
  0
TABLE
  2
LTYPE
  5
5
330
0
100
AcDbSymbolTable
 70
     1
  0
LTYPE
  5
12
330
5
100
AcDbSymbolTableRecord
100
AcDbLinetypeTableRecord
  2
BYBLOCK
 70
     0
  3

 72
    65
 73
     0
 40
0.0
  0
LTYPE
  5
13
330
5
100
AcDbSymbolTableRecord
100
AcDbLinetypeTableRecord
  2
BYLAYER
 70
     0
  3

 72
    65
 73
     0
 40
0.0
  0
LTYPE
  5
14
330
5
100
AcDbSymbolTableRecord
100
AcDbLinetypeTableRecord
  2
CONTINUOUS
 70
     0
  3
Solid line
 72
    65
 73
     0
 40
0.0
  0
ENDTAB
  0
TABLE
  2
LAYER
  5
2
330
0
100
AcDbSymbolTable
 70
     2
  0
LAYER
  5
F
330
2
100
AcDbSymbolTableRecord
100
AcDbLayerTableRecord
  2
0
 70
     0
 62
     7
  6
CONTINUOUS
  0
LAYER
  5
2D
330
2
100
AcDbSymbolTableRecord
100
AcDbLayerTableRecord
  2
TEXT
 70
     0
 62
     3
  6
CONTINUOUS
  0
ENDTAB
  0
TABLE
  2
STYLE
  5
3
330
0
100
AcDbSymbolTable
 70
     3
  0
STYLE
  5
10
330
3
100
AcDbSymbolTableRecord
100
AcDbTextStyleTableRecord
  2
STANDARD
 70
     0
 40
0.0
 41
1.0
 50
0.0
 71
     0
 42
0.25
  3
txt
  4

  0
STYLE
  5
267
330
3
100
AcDbSymbolTableRecord
100
AcDbTextStyleTableRecord
  2
ROMANS
 70
     0
 40
0.0
 41
1.0
 50
0.0
 71
     0
 42
0.125
  3
romans.shx
  4

  0
STYLE
  5
282
330
3
100
AcDbSymbolTableRecord
100
AcDbTextStyleTableRecord
  2
ITALICC
 70
     0
 40
0.0
 41
1.0
 50
0.0
 71
     0
 42
0.125
  3
italicc
  4

  0
ENDTAB
  0
TABLE
  2
VIEW
  5
6
330
0
100
AcDbSymbolTable
 70
     0
  0
ENDTAB
  0
TABLE
  2
UCS
  5
7
330
0
100
AcDbSymbolTable
 70
     0
  0
ENDTAB
  0
TABLE
  2
APPID
  5
9
330
0
100
AcDbSymbolTable
 70
     1
  0
APPID
  5
11
330
9
100
AcDbSymbolTableRecord
100
AcDbRegAppTableRecord
  2
ACAD
 70
     0
  0
ENDTAB
  0
TABLE
  2
DIMSTYLE
  5
A
330
0
100
AcDbSymbolTable
 70
     1
  0
DIMSTYLE
105
25B
330
A
100
AcDbSymbolTableRecord
100
AcDbDimStyleTableRecord
  2
STANDARD
 70
     0
  3

  4

  5

  6

  7

 40
2.0
 41
0.125
 42
0.125
 43
0.375
 44
0.125
 45
0.0
 46
0.0
 47
0.0
 48
0.05
140
0.125
141
-0.125
142
0.0
143
25.4
144
1.0
145
0.0
146
1.0
147
0.09
 71
     0
 72
     0
 73
     1
 74
     1
 75
     0
 76
     0
 77
     0
 78
     4
170
     0
171
     2
172
     0
173
     0
174
     0
175
     0
176
     0
177
     0
178
     0
270
     2
271
     3
272
     3
273
     2
274
     2
340
267
275
     0
280
     0
281
     0
282
     0
283
     1
284
     4
285
     0
286
     0
287
     3
288
     0
  0
ENDTAB
  0
TABLE
  2
BLOCK_RECORD
  5
1
330
0
100
AcDbSymbolTable
 70
     0
  0
BLOCK_RECORD
  5
18
102
{ACAD_XDICTIONARY
360
3B6
102
}
330
1
100
AcDbSymbolTableRecord
100
AcDbBlockTableRecord
  2
*MODEL_SPACE
  0
BLOCK_RECORD
  5
15
102
{ACAD_XDICTIONARY
360
3B4
102
}
330
1
100
AcDbSymbolTableRecord
100
AcDbBlockTableRecord
  2
*PAPER_SPACE
  0
ENDTAB
  0
ENDSEC
  0
SECTION
  2
BLOCKS
  0
BLOCK
  5
35
330
18
100
AcDbEntity
  8
0
100
AcDbBlockBegin
  2
*MODEL_SPACE
 70
     0
 10
0.0
 20
0.0
 30
0.0
  3
*MODEL_SPACE
  1

  0
ENDBLK
  5
36
330
18
100
AcDbEntity
  8
0
100
AcDbBlockEnd
  0
BLOCK
  5
33
330
15
100
AcDbEntity
 67
     1
  8
0
100
AcDbBlockBegin
  2
*PAPER_SPACE
 70
     0
 10
0.0
 20
0.0
 30
0.0
  3
*PAPER_SPACE
  1

  0
ENDBLK
  5
34
330
15
100
AcDbEntity
 67
     1
  8
0
100
AcDbBlockEnd
  0
ENDSEC
  0
SECTION
  2
ENTITIES
  0
LWPOLYLINE
  5
237
330
18
100
AcDbEntity
  8
0
100
AcDbPolyline
 90
       34
 70
     1
 43
0.0
 10
4.038182991700429
 20
5.358753854711538
 10
2.678182991700429
 20
5.358753854711538
 10
2.678182991700429
 20
4.858753854711538
 10
2.115682991700429
 20
4.858753854711538
 10
2.115682991700429
 20
4.358753854711538
 10
1.553182991700429
 20
4.358753854711538
 10
1.553182991700429
 20
4.053753854711537
 10
1.858182991700429
 20
4.053753854711537
 10
1.831119697832166
 20
4.006878854711537
 42
-0.267949192431125
 10
1.804056403963901
 20
3.991253854711537
 10
1.553182991700429
 20
3.991253854711537
 10
1.553182991700429
 20
3.963753854711537
 42
-1.0
 10
1.483182991700429
 20
3.963753854711537
 10
1.483182991700429
 20
4.428753854711538
 10
2.045682991700429
 20
4.428753854711537
 10
2.045682991700429
 20
4.928753854711538
 10
2.608182991700429
 20
4.928753854711537
 10
2.608182991700429
 20
5.428753854711533
 10
4.108182991700429
 20
5.428753854711539
 10
4.108182991700429
 20
4.928753854711537
 10
4.67068299170043
 20
4.928753854711538
 10
4.670682991700429
 20
4.428753854711537
 10
5.233182991700429
 20
4.428753854711537
 10
5.233182991700429
 20
3.963753854711537
 42
-1.0
 10
5.163182991700429
 20
3.963753854711537
 10
5.163182991700429
 20
3.991253854711537
 10
4.912309579436957
 20
3.991253854711537
 42
-0.267949192431125
 10
4.885246285568692
 20
4.006878854711537
 10
4.858182991700429
 20
4.053753854711537
 10
5.163182991700429
 20
4.053753854711537
 10
5.163182991700429
 20
4.358753854711538
 10
4.600682991700429
 20
4.358753854711538
 10
4.600682991700429
 20
4.858753854711538
 10
4.038182991700429
 20
4.858753854711538
  0
TEXT
  5
307
330
18
100
AcDbEntity
  8
TEXT
100
AcDbText
 10
2.735875099041988
 20
3.846665126370069
 30
0.0
 40
0.125
  1
PART #110240
  7
ITALICC
 72
     1
 11
3.488851289518177
 21
3.846665126370069
 31
0.0
100
AcDbText
  0
LINE
  5
308
330
18
100
AcDbEntity
  8
TEXT
100
AcDbLine
 10
3.45658478847024
 20
3.602311440350235
 30
0.0
 11
3.533232769762798
 21
3.602311440350235
 31
0.0
  0
LINE
  5
309
330
18
100
AcDbEntity
  8
TEXT
100
AcDbLine
 10
3.528752882436298
 20
3.666588135007001
 30
0.0
 11
3.461253164786781
 21
3.666588135007001
 31
0.0
  0
LWPOLYLINE
  5
30A
330
18
100
AcDbEntity
  8
TEXT
100
AcDbPolyline
 90
        5
 70
     0
 43
0.0001332181640625
 10
1.819472745935565
 20
3.543361333249188
 10
1.832794562341814
 20
3.543361333249188
 10
1.832794562341814
 20
3.579996328366378
 10
1.869429557459003
 20
3.579996328366378
 10
1.869429557459003
 20
3.593318144772625
  0
LWPOLYLINE
  5
30B
330
18
100
AcDbEntity
  8
TEXT
100
AcDbPolyline
 90
        3
 70
     0
 43
0.0006660908203125
 10
1.859438195154313
 20
3.639944502194503
 10
1.772846388513688
 20
3.639944502194503
 10
1.772846388513688
 20
3.553352695553877
  0
LWPOLYLINE
  5
30C
330
18
100
AcDbEntity
  8
TEXT
100
AcDbPolyline
 90
        3
 70
     0
 43
0.0006660908203125
 10
1.859438195154313
 20
3.666588135007004
 10
1.746202755701191
 20
3.666588135007004
 10
1.746202755701191
 20
3.553352695553877
  0
LWPOLYLINE
  5
30D
330
18
100
AcDbEntity
  8
TEXT
100
AcDbPolyline
 90
        5
 70
     0
 43
0.0001332181640625
 10
1.869429557459003
 20
3.473421797116377
 10
1.869429557459003
 20
3.486743613522627
 10
1.832794562341815
 20
3.486743613522627
 10
1.832794562341815
 20
3.523378608639814
 10
1.819472745935565
 20
3.523378608639814
  0
LWPOLYLINE
  5
30E
330
18
100
AcDbEntity
  8
TEXT
100
AcDbPolyline
 90
        3
 70
     0
 43
0.0006660908203125
 10
1.772846388513688
 20
3.513387246335128
 10
1.772846388513688
 20
3.426795439694502
 10
1.859438195154313
 20
3.426795439694502
  0
LWPOLYLINE
  5
30F
330
18
100
AcDbEntity
  8
TEXT
100
AcDbPolyline
 90
        3
 70
     0
 43
0.0006660908203125
 10
1.746202755701191
 20
3.513387246335128
 10
1.746202755701191
 20
3.400151806882001
 10
1.859438195154313
 20
3.400151806882001
  0
LWPOLYLINE
  5
310
330
18
100
AcDbEntity
  8
TEXT
100
AcDbPolyline
 90
        2
 70
     0
 43
0.0001332181640625
 10
1.772846388513688
 20
3.513387246335128
 10
1.832794562341815
 20
3.523378608639814
  0
LWPOLYLINE
  5
311
330
18
100
AcDbEntity
  8
TEXT
100
AcDbPolyline
 90
        2
 70
     0
 43
0.0001332181640625
 10
1.819472745935565
 20
3.523378608639814
 10
1.746202755701191
 20
3.513387246335128
  0
LWPOLYLINE
  5
312
330
18
100
AcDbEntity
  8
TEXT
100
AcDbPolyline
 90
        2
 70
     0
 43
0.0006660908203125
 10
1.772846388513688
 20
3.513387246335128
 10
1.746202755701191
 20
3.513387246335128
  0
LWPOLYLINE
  5
313
330
18
100
AcDbEntity
  8
TEXT
100
AcDbPolyline
 90
        2
 70
     0
 43
0.0001332181640625
 10
1.772846388513688
 20
3.426795439694502
 10
1.832794562341815
 20
3.486743613522627
  0
LWPOLYLINE
  5
314
330
18
100
AcDbEntity
  8
TEXT
100
AcDbPolyline
 90
        2
 70
     0
 43
0.0006660908203125
 10
1.772846388513688
 20
3.553352695553877
 10
1.746202755701191
 20
3.553352695553877
  0
LWPOLYLINE
  5
315
330
18
100
AcDbEntity
  8
TEXT
100
AcDbPolyline
 90
        2
 70
     0
 43
0.0001332181640625
 10
1.746202755701191
 20
3.553352695553877
 10
1.819472745935565
 20
3.543361333249188
  0
LWPOLYLINE
  5
316
330
18
100
AcDbEntity
  8
TEXT
100
AcDbPolyline
 90
        2
 70
     0
 43
0.0001332181640625
 10
1.772846388513688
 20
3.553352695553877
 10
1.832794562341814
 20
3.543361333249188
  0
LWPOLYLINE
  5
317
330
18
100
AcDbEntity
  8
TEXT
100
AcDbPolyline
 90
        2
 70
     0
 43
0.0001332181640625
 10
1.772846388513688
 20
3.639944502194503
 10
1.832794562341814
 20
3.579996328366378
  0
LWPOLYLINE
  5
318
330
18
100
AcDbEntity
  8
TEXT
100
AcDbPolyline
 90
        5
 70
     0
 43
0.0001332181640625
 10
1.939369093591814
 20
3.523378608639814
 10
1.926047277185566
 20
3.523378608639814
 10
1.926047277185566
 20
3.486743613522627
 10
1.889412282068376
 20
3.486743613522627
 10
1.889412282068376
 20
3.473421797116377
  0
LWPOLYLINE
  5
319
330
18
100
AcDbEntity
  8
TEXT
100
AcDbPolyline
 90
        2
 70
     0
 43
0.0001332181640625
 10
1.985995451013689
 20
3.513387246335128
 10
1.926047277185566
 20
3.523378608639814
  0
LWPOLYLINE
  5
31A
330
18
100
AcDbEntity
  8
TEXT
100
AcDbPolyline
 90
        2
 70
     0
 43
0.0001332181640625
 10
2.01263908382619
 20
3.513387246335128
 10
1.939369093591814
 20
3.523378608639814
  0
LWPOLYLINE
  5
31B
330
18
100
AcDbEntity
  8
TEXT
100
AcDbPolyline
 90
        3
 70
     0
 43
0.0006660908203125
 10
1.899403644373064
 20
3.400151806882001
 10
2.01263908382619
 20
3.400151806882001
 10
2.01263908382619
 20
3.513387246335128
  0
LWPOLYLINE
  5
31C
330
18
100
AcDbEntity
  8
TEXT
100
AcDbPolyline
 90
        3
 70
     0
 43
0.0006660908203125
 10
1.899403644373064
 20
3.426795439694502
 10
1.985995451013689
 20
3.426795439694502
 10
1.985995451013689
 20
3.513387246335128
  0
LWPOLYLINE
  5
31D
330
18
100
AcDbEntity
  8
TEXT
100
AcDbPolyline
 90
        2
 70
     0
 43
0.0001332181640625
 10
1.985995451013689
 20
3.426795439694502
 10
1.926047277185566
 20
3.486743613522627
  0
LWPOLYLINE
  5
31E
330
18
100
AcDbEntity
  8
TEXT
100
AcDbPolyline
 90
        2
 70
     0
 43
0.0006660908203125
 10
1.899403644373064
 20
3.426795439694502
 10
1.899403644373064
 20
3.400151806882001
  0
LWPOLYLINE
  5
31F
330
18
100
AcDbEntity
  8
TEXT
100
AcDbPolyline
 90
        2
 70
     0
 43
0.0001332181640625
 10
1.889412282068376
 20
3.473421797116377
 10
1.899403644373064
 20
3.400151806882001
  0
LWPOLYLINE
  5
320
330
18
100
AcDbEntity
  8
TEXT
100
AcDbPolyline
 90
        2
 70
     0
 43
0.0001332181640625
 10
1.899403644373064
 20
3.426795439694502
 10
1.889412282068376
 20
3.486743613522627
  0
LWPOLYLINE
  5
321
330
18
100
AcDbEntity
  8
TEXT
100
AcDbPolyline
 90
        2
 70
     0
 43
0.0001332181640625
 10
1.859438195154313
 20
3.400151806882001
 10
1.869429557459003
 20
3.473421797116377
  0
LWPOLYLINE
  5
322
330
18
100
AcDbEntity
  8
TEXT
100
AcDbPolyline
 90
        2
 70
     0
 43
0.0001332181640625
 10
1.859438195154313
 20
3.426795439694502
 10
1.869429557459003
 20
3.486743613522627
  0
LWPOLYLINE
  5
323
330
18
100
AcDbEntity
  8
TEXT
100
AcDbPolyline
 90
        2
 70
     0
 43
0.0006660908203125
 10
1.859438195154313
 20
3.426795439694502
 10
1.859438195154313
 20
3.400151806882001
  0
LWPOLYLINE
  5
324
330
18
100
AcDbEntity
  8
TEXT
100
AcDbPolyline
 90
        2
 70
     0
 43
0.0006660908203125
 10
1.985995451013689
 20
3.513387246335128
 10
2.01263908382619
 20
3.513387246335128
  0
LWPOLYLINE
  5
325
330
18
100
AcDbEntity
  8
TEXT
100
AcDbPolyline
 90
        2
 70
     0
 43
0.0001332181640625
 10
1.985995451013689
 20
3.639944502194503
 10
1.926047277185566
 20
3.579996328366378
  0
LWPOLYLINE
  5
326
330
18
100
AcDbEntity
  8
TEXT
100
AcDbPolyline
 90
        2
 70
     0
 43
0.0001332181640625
 10
1.985995451013689
 20
3.553352695553877
 10
1.926047277185566
 20
3.543361333249188
  0
LWPOLYLINE
  5
327
330
18
100
AcDbEntity
  8
TEXT
100
AcDbPolyline
 90
        2
 70
     0
 43
0.0001332181640625
 10
1.939369093591814
 20
3.543361333249188
 10
2.01263908382619
 20
3.553352695553877
  0
LWPOLYLINE
  5
328
330
18
100
AcDbEntity
  8
TEXT
100
AcDbPolyline
 90
        3
 70
     0
 43
0.0006660908203125
 10
1.985995451013689
 20
3.553352695553877
 10
1.985995451013689
 20
3.639944502194503
 10
1.899403644373064
 20
3.639944502194503
  0
LWPOLYLINE
  5
329
330
18
100
AcDbEntity
  8
TEXT
100
AcDbPolyline
 90
        3
 70
     0
 43
0.0006660908203125
 10
2.01263908382619
 20
3.553352695553877
 10
2.01263908382619
 20
3.666588135007004
 10
1.899403644373064
 20
3.666588135007004
  0
LWPOLYLINE
  5
32A
330
18
100
AcDbEntity
  8
TEXT
100
AcDbPolyline
 90
        2
 70
     0
 43
0.0001332181640625
 10
1.899403644373064
 20
3.666588135007004
 10
1.889412282068376
 20
3.593318144772625
  0
LWPOLYLINE
  5
32B
330
18
100
AcDbEntity
  8
TEXT
100
AcDbPolyline
 90
        2
 70
     0
 43
0.0001332181640625
 10
1.899403644373064
 20
3.639944502194503
 10
1.889412282068376
 20
3.579996328366378
  0
LWPOLYLINE
  5
32C
330
18
100
AcDbEntity
  8
TEXT
100
AcDbPolyline
 90
        2
 70
     0
 43
0.0006660908203125
 10
1.899403644373064
 20
3.639944502194503
 10
1.899403644373064
 20
3.666588135007004
  0
LWPOLYLINE
  5
32D
330
18
100
AcDbEntity
  8
TEXT
100
AcDbPolyline
 90
        5
 70
     0
 43
0.0001332181640625
 10
1.889412282068376
 20
3.593318144772625
 10
1.889412282068376
 20
3.579996328366378
 10
1.926047277185566
 20
3.579996328366378
 10
1.926047277185566
 20
3.543361333249188
 10
1.939369093591814
 20
3.543361333249188
  0
LWPOLYLINE
  5
32E
330
18
100
AcDbEntity
  8
TEXT
100
AcDbPolyline
 90
        2
 70
     0
 43
0.0001332181640625
 10
1.859438195154313
 20
3.639944502194503
 10
1.869429557459003
 20
3.579996328366378
  0
LWPOLYLINE
  5
32F
330
18
100
AcDbEntity
  8
TEXT
100
AcDbPolyline
 90
        2
 70
     0
 43
0.0001332181640625
 10
1.869429557459003
 20
3.593318144772625
 10
1.859438195154313
 20
3.666588135007004
  0
LWPOLYLINE
  5
330
330
18
100
AcDbEntity
  8
TEXT
100
AcDbPolyline
 90
        2
 70
     0
 43
0.0006660908203125
 10
1.859438195154313
 20
3.639944502194503
 10
1.859438195154313
 20
3.666588135007004
  0
LWPOLYLINE
  5
331
330
18
100
AcDbEntity
  8
TEXT
100
AcDbPolyline
 90
        2
 70
     0
 43
0.0006660908203125
 10
1.985995451013689
 20
3.553352695553877
 10
2.01263908382619
 20
3.553352695553877
  0
LWPOLYLINE
  5
332
330
18
100
AcDbEntity
  8
TEXT
100
AcDbPolyline
 90
        2
 70
     0
 43
0.0
 10
2.731419004574821
 20
3.451666444233418
 42
0.3318488747599744
 10
2.800538297140134
 20
3.40011510201849
 42
-6.868794160588311
  0
LINE
  5
333
330
18
100
AcDbEntity
  8
TEXT
100
AcDbLine
 10
2.799398723643938
 20
3.734599612745811
 30
0.0
 11
2.732590011077573
 21
3.734599612745811
 31
0.0
  0
LINE
  5
334
330
18
100
AcDbEntity
  8
TEXT
100
AcDbLine
 10
2.453247643458479
 20
3.666588135007001
 30
0.0
 11
2.277515890559968
 21
3.666588135007001
 31
0.0
  0
ARC
  5
335
330
18
100
AcDbEntity
  8
TEXT
100
AcDbCircle
 10
2.348353356918517
 20
3.483310910379047
 30
0.0
 40
0.0831958083605586
100
AcDbArc
 50
270.0
 51
90.0
  0
LINE
  5
336
330
18
100
AcDbEntity
  8
TEXT
100
AcDbLine
 10
2.282753220674216
 20
3.602311440350235
 30
0.0
 11
2.449658874703186
 21
3.602311440350235
 31
0.0
  0
LINE
  5
337
330
18
100
AcDbEntity
  8
TEXT
100
AcDbLine
 10
2.353293730824796
 20
3.468472108351929
 30
0.0
 11
2.195428431113462
 21
3.468472108351929
 31
0.0
  0
LINE
  5
338
330
18
100
AcDbEntity
  8
TEXT
100
AcDbLine
 10
2.195428431113464
 20
3.40011510201849
 30
0.0
 11
2.348353356918517
 21
3.40011510201849
 31
0.0
  0
ARC
  5
339
330
18
100
AcDbEntity
  8
TEXT
100
AcDbCircle
 10
2.277515890559968
 20
3.584500675560499
 30
0.0
 40
0.0820874594465043
100
AcDbArc
 50
90.0
 51
270.0
  0
LINE
  5
33A
330
18
100
AcDbEntity
  8
TEXT
100
AcDbLine
 10
2.195428431113462
 20
3.468472108351929
 30
0.0
 11
2.195428431113464
 21
3.40011510201849
 31
0.0
  0
LINE
  5
33B
330
18
100
AcDbEntity
  8
TEXT
100
AcDbLine
 10
2.277515890559968
 20
3.502413216113994
 30
0.0
 11
2.353293730824796
 21
3.502413216113994
 31
0.0
  0
ARC
  5
33C
330
18
100
AcDbEntity
  8
TEXT
100
AcDbCircle
 10
2.353293730824797
 20
3.485442662232963
 30
0.0
 40
0.0169705538810321
100
AcDbArc
 50
270.0
 51
90.0
  0
LINE
  5
33D
330
18
100
AcDbEntity
  8
TEXT
100
AcDbLine
 10
2.348353356918517
 20
3.566506718739607
 30
0.0
 11
2.282753220674216
 21
3.566506718739607
 31
0.0
  0
ARC
  5
33E
330
18
100
AcDbEntity
  8
TEXT
100
AcDbCircle
 10
2.282753220674216
 20
3.584409079544923
 30
0.0
 40
0.017902360805315
100
AcDbArc
 50
90.0
 51
270.0
  0
LINE
  5
33F
330
18
100
AcDbEntity
  8
TEXT
100
AcDbLine
 10
2.643719535478331
 20
3.56571613889388
 30
0.0
 11
2.585089214446393
 21
3.666588135007001
 31
0.0
  0
LINE
  5
340
330
18
100
AcDbEntity
  8
TEXT
100
AcDbLine
 10
2.503545482183292
 20
3.40011510201849
 30
0.0
 11
2.600185733258286
 21
3.400385741116772
 31
0.0
  0
LWPOLYLINE
  5
341
330
18
100
AcDbEntity
  8
TEXT
100
AcDbPolyline
 90
        6
 70
     1
 43
0.0
 10
2.546069285758442
 20
3.602311440350235
 10
2.515752691538234
 20
3.602311440350235
 10
2.515752691538234
 20
3.479200442295341
 42
0.407328721240804
 10
2.52729634269971
 20
3.467381527618955
 10
2.587918041744441
 20
3.467381527618955
 10
2.605383382151759
 20
3.500193756662434
  0
LINE
  5
342
330
18
100
AcDbEntity
  8
TEXT
100
AcDbLine
 10
2.449658874703186
 20
3.602311440350235
 30
0.0
 11
2.449658874703186
 21
3.459907493356539
 31
0.0
  0
ARC
  5
343
330
18
100
AcDbEntity
  8
TEXT
100
AcDbCircle
 10
2.509774892676939
 20
3.459907493356539
 30
0.0
 40
0.0601160179737537
100
AcDbArc
 50
180.0000000000003
 51
264.0521544866073
  0
LINE
  5
344
330
18
100
AcDbEntity
  8
TEXT
100
AcDbLine
 10
2.513290248302486
 20
3.700976052601139
 30
0.0
 11
2.453247643458479
 21
3.700976052601139
 31
0.0
  0
LINE
  5
345
330
18
100
AcDbEntity
  8
TEXT
100
AcDbLine
 10
2.453247643458479
 20
3.700976052601139
 30
0.0
 11
2.453247643458479
 21
3.666588135007001
 31
0.0
  0
LINE
  5
346
330
18
100
AcDbEntity
  8
TEXT
100
AcDbLine
 10
2.513290248302486
 20
3.666588135007001
 30
0.0
 11
2.513290248302486
 21
3.700976052601139
 31
0.0
  0
LINE
  5
347
330
18
100
AcDbEntity
  8
TEXT
100
AcDbLine
 10
2.585089214446393
 20
3.666588135007001
 30
0.0
 11
2.513290248302486
 21
3.666588135007001
 31
0.0
  0
LINE
  5
348
330
18
100
AcDbEntity
  8
TEXT
100
AcDbLine
 10
2.634119298481377
 20
3.420073608123503
 30
0.0
 11
2.731419004574822
 21
3.584423819058771
 31
0.0
  0
LINE
  5
349
330
18
100
AcDbEntity
  8
TEXT
100
AcDbLine
 10
2.731419004574822
 20
3.584423819058771
 30
0.0
 11
2.731419004574822
 21
3.451666444233414
 31
0.0
  0
ARC
  5
34A
330
18
100
AcDbEntity
  8
TEXT
100
AcDbCircle
 10
2.600075738569163
 20
3.439662824292185
 30
0.0
 40
0.0392772371940762
100
AcDbArc
 50
270.1604552698595
 51
330.0831797321295
  0
LINE
  5
34B
330
18
100
AcDbEntity
  8
TEXT
100
AcDbLine
 10
2.702468098284197
 20
3.666588135007001
 30
0.0
 11
2.643719535478331
 21
3.56571613889388
 31
0.0
  0
LINE
  5
34C
330
18
100
AcDbEntity
  8
TEXT
100
AcDbLine
 10
2.732590011077573
 20
3.734599612745811
 30
0.0
 11
2.732590011077573
 21
3.666588135007001
 31
0.0
  0
LINE
  5
34D
330
18
100
AcDbEntity
  8
TEXT
100
AcDbLine
 10
2.732590011077573
 20
3.666588135007001
 30
0.0
 11
2.702468098284197
 21
3.666588135007001
 31
0.0
  0
LWPOLYLINE
  5
34E
330
18
100
AcDbEntity
  8
TEXT
100
AcDbPolyline
 90
        4
 70
     0
 43
0.0
 10
3.084676132697731
 20
3.594757651184125
 10
3.084676132697731
 20
3.40011510201849
 10
3.153154415985589
 20
3.40011510201849
 10
3.153154415985589
 20
3.443606046968928
 42
-1.714843617202739
  0
LWPOLYLINE
  5
34F
330
18
100
AcDbEntity
  8
TEXT
100
AcDbPolyline
 90
        2
 70
     0
 43
0.0
 10
3.119810483241941
 20
3.666588135007004
 42
-0.3277054968067132
 10
3.155592173955106
 20
3.63826558923736
 42
6.667889725900311
  0
LWPOLYLINE
  5
350
330
18
100
AcDbEntity
  8
TEXT
100
AcDbPolyline
 90
        2
 70
     0
 43
0.0
 10
2.948376910662714
 20
3.602311440350235
 42
-0.4142135623731017
 10
2.955930699828828
 20
3.594757651184125
 42
-0.9999999999999998
  0
LINE
  5
351
330
18
100
AcDbEntity
  8
TEXT
100
AcDbLine
 10
2.965728633712735
 20
3.666588135007001
 30
0.0
 11
2.831710577781598
 21
3.666588135007001
 31
0.0
  0
LINE
  5
352
330
18
100
AcDbEntity
  8
TEXT
100
AcDbLine
 10
2.898541630839567
 20
3.40011510201849
 30
0.0
 11
2.898541630839567
 21
3.602311440350235
 31
0.0
  0
LINE
  5
353
330
18
100
AcDbEntity
  8
TEXT
100
AcDbLine
 10
2.831710577781598
 20
3.666588135007001
 30
0.0
 11
2.831710577781598
 21
3.465723928274592
 31
0.0
  0
LINE
  5
354
330
18
100
AcDbEntity
  8
TEXT
100
AcDbLine
 10
2.799398723643938
 20
3.482502940121489
 30
0.0
 11
2.799398723643938
 21
3.734599612745811
 31
0.0
  0
LINE
  5
355
330
18
100
AcDbEntity
  8
TEXT
100
AcDbLine
 10
2.800538297140133
 20
3.40011510201849
 30
0.0
 11
2.898541630839567
 21
3.40011510201849
 31
0.0
  0
LINE
  5
356
330
18
100
AcDbEntity
  8
TEXT
100
AcDbLine
 10
2.831710577781598
 20
3.465723928274592
 30
0.0
 11
2.814716940896997
 21
3.465723928274592
 31
0.0
  0
ARC
  5
357
330
18
100
AcDbEntity
  8
TEXT
100
AcDbCircle
 10
2.814716940896996
 20
3.481105734518018
 30
0.0
 40
0.0153818062434269
100
AcDbArc
 50
174.7883570302258
 51
270.0
  0
LINE
  5
358
330
18
100
AcDbEntity
  8
TEXT
100
AcDbLine
 10
2.898541630839567
 20
3.602311440350235
 30
0.0
 11
2.948376910662715
 21
3.602311440350235
 31
0.0
  0
LINE
  5
359
330
18
100
AcDbEntity
  8
TEXT
100
AcDbLine
 10
2.955930699828829
 20
3.594757651184125
 30
0.0
 11
2.955930699828829
 21
3.40011510201849
 31
0.0
  0
LINE
  5
35A
330
18
100
AcDbEntity
  8
TEXT
100
AcDbLine
 10
3.022988746610669
 20
3.40011510201849
 30
0.0
 11
3.022988746610669
 21
3.602311440350235
 31
0.0
  0
LINE
  5
35B
330
18
100
AcDbEntity
  8
TEXT
100
AcDbLine
 10
2.955930699828829
 20
3.40011510201849
 30
0.0
 11
3.022988746610669
 21
3.40011510201849
 31
0.0
  0
LWPOLYLINE
  5
35C
330
18
100
AcDbEntity
  8
TEXT
100
AcDbPolyline
 90
        3
 70
     0
 43
0.0
 10
3.119810483241941
 20
3.666588135007004
 10
3.001510324425897
 20
3.666588135007004
 10
3.001510324425897
 20
3.639420638246108
 42
-1.960274751411753
  0
LINE
  5
35D
330
18
100
AcDbEntity
  8
TEXT
100
AcDbLine
 10
3.022988746610669
 20
3.602311440350235
 30
0.0
 11
3.077122343531619
 21
3.602311440350235
 31
0.0
  0
LWPOLYLINE
  5
35E
330
18
100
AcDbEntity
  8
TEXT
100
AcDbPolyline
 90
        2
 70
     0
 43
0.0
 10
2.965728633712735
 20
3.666588135007004
 42
-0.3328679258950098
 10
3.001510324425897
 20
3.639420638246108
 42
6.772930709997214
  0
LWPOLYLINE
  5
35F
330
18
100
AcDbEntity
  8
TEXT
100
AcDbPolyline
 90
        2
 70
     0
 43
0.0
 10
3.077122343531618
 20
3.602311440350235
 42
-0.4142135623731017
 10
3.084676132697731
 20
3.594757651184125
 42
-0.9999999999999998
  0
ARC
  5
360
330
18
100
AcDbEntity
  8
TEXT
100
AcDbCircle
 10
3.288397143395098
 20
3.625004567886098
 30
0.0
 40
0.0416329381542859
100
AcDbArc
 50
26.56974201007528
 51
87.20939649401342
  0
LWPOLYLINE
  5
361
330
18
100
AcDbEntity
  8
TEXT
100
AcDbPolyline
 90
        2
 70
     0
 43
0.0
 10
3.196230348853225
 20
3.40011510201849
 10
3.330247766484601
 20
3.40011510201849
 42
0.9999999999999998
  0
LWPOLYLINE
  5
362
330
18
100
AcDbEntity
  8
TEXT
100
AcDbPolyline
 90
        4
 70
     1
 43
0.0
 10
3.310125301414709
 20
3.503079080002515
 10
3.22146498275485
 20
3.503079080002515
 42
0.9999999999999998
 10
3.22146498275485
 20
3.460680539498654
 10
3.310125301414709
 20
3.460680539498654
 42
1.0
  0
LWPOLYLINE
  5
363
330
18
100
AcDbEntity
  8
TEXT
100
AcDbPolyline
 90
        2
 70
     0
 43
0.0
 10
3.153154415985589
 20
3.443606046968928
 42
0.2901071551932823
 10
3.196230348853225
 20
3.40011510201849
 42
5.328517124445801
  0
LINE
  5
364
330
18
100
AcDbEntity
  8
TEXT
100
AcDbLine
 10
3.290424083172166
 20
3.666588135007001
 30
0.0
 11
3.155592173955107
 21
3.666588135007001
 31
0.0
  0
LINE
  5
365
330
18
100
AcDbEntity
  8
TEXT
100
AcDbLine
 10
3.214906270348426
 20
3.565036466888103
 30
0.0
 11
3.297194260131809
 21
3.565036466888103
 31
0.0
  0
LINE
  5
366
330
18
100
AcDbEntity
  8
TEXT
100
AcDbLine
 10
3.261393184827688
 20
3.602311440350235
 30
0.0
 11
3.154186911440398
 21
3.602311440350235
 31
0.0
  0
LINE
  5
367
330
18
100
AcDbEntity
  8
TEXT
100
AcDbLine
 10
3.155592173955107
 20
3.666588135007001
 30
0.0
 11
3.155592173955107
 21
3.638265589237357
 31
0.0
  0
ARC
  5
368
330
18
100
AcDbEntity
  8
TEXT
100
AcDbCircle
 10
3.214906270348425
 20
3.497350885743984
 30
0.0
 40
0.0676855811441166
100
AcDbArc
 50
90.0
 51
153.7768192527749
  0
LINE
  5
369
330
18
100
AcDbEntity
  8
TEXT
100
AcDbLine
 10
3.154186911440398
 20
3.602311440350235
 30
0.0
 11
3.154186911440398
 21
3.527259034276029
 31
0.0
  0
LINE
  5
36A
330
18
100
AcDbEntity
  8
TEXT
100
AcDbLine
 10
3.297194260131809
 20
3.565036466888103
 30
0.0
 11
3.286929499718245
 21
3.586287006460797
 31
0.0
  0
ARC
  5
36B
330
18
100
AcDbEntity
  8
TEXT
100
AcDbCircle
 10
3.261393184827687
 20
3.573952065350238
 30
0.0
 40
0.028359375
100
AcDbArc
 50
25.78218179591245
 51
90.0
  0
LINE
  5
36C
330
18
100
AcDbEntity
  8
TEXT
100
AcDbLine
 10
3.431678913187581
 20
3.40011510201849
 30
0.0
 11
3.431678913187576
 21
3.577405607449958
 31
0.0
  0
LWPOLYLINE
  5
36D
330
18
100
AcDbEntity
  8
TEXT
100
AcDbPolyline
 90
        2
 70
     0
 43
0.0
 10
3.373323699352246
 20
3.40011510201849
 10
3.43167891318758
 20
3.40011510201849
  0
LWPOLYLINE
  5
36E
330
18
100
AcDbEntity
  8
TEXT
100
AcDbPolyline
 90
        2
 70
     0
 43
0.0
 10
3.373323699352246
 20
3.443606046968928
 42
-0.2901071551932486
 10
3.330247766484601
 20
3.40011510201849
 42
-5.328517124445184
  0
LWPOLYLINE
  5
36F
330
18
100
AcDbEntity
  8
TEXT
100
AcDbPolyline
 90
        2
 70
     0
 43
0.0
 10
3.373323699352246
 20
3.443606046968928
 10
3.373323699352246
 20
3.40011510201849
  0
LINE
  5
370
330
18
100
AcDbEntity
  8
TEXT
100
AcDbLine
 10
3.433280928346708
 20
3.666588135007001
 30
0.0
 11
3.369384022047207
 21
3.666588135007001
 31
0.0
  0
LINE
  5
371
330
18
100
AcDbEntity
  8
TEXT
100
AcDbLine
 10
3.369384022047207
 20
3.666588135007001
 30
0.0
 11
3.369384022047207
 21
3.561376156453573
 31
0.0
  0
LINE
  5
372
330
18
100
AcDbEntity
  8
TEXT
100
AcDbLine
 10
3.369384022047207
 20
3.561376156453573
 30
0.0
 11
3.325633250865306
 21
3.643626432449718
 31
0.0
  0
ARC
  5
373
330
18
100
AcDbEntity
  8
TEXT
100
AcDbCircle
 10
3.456584788470239
 20
3.577405565067572
 30
0.0
 40
0.0249058752826653
100
AcDbArc
 50
89.99971217465335
 51
179.9999999999985
  0
ARC
  5
374
330
18
100
AcDbEntity
  8
TEXT
100
AcDbCircle
 10
3.464473745409817
 20
3.635342407724736
 30
0.0
 40
0.0314112657011332
100
AcDbArc
 50
95.88484768694724
 51
173.2388340632136
  0
LINE
  5
375
330
18
100
AcDbEntity
  8
TEXT
100
AcDbLine
 10
3.433280928346708
 20
3.639040485146126
 30
0.0
 11
3.433280928346708
 21
3.666588135007001
 31
0.0
  0
TEXT
  5
376
330
18
100
AcDbEntity
  8
TEXT
100
AcDbText
 10
3.902156447768499
 20
3.493000910663986
 30
0.0
 40
0.0522247191011236
  1
Minneapolis, MN 55432-0008
 41
1.11444212721585
 72
     5
 11
5.231089032038163
 21
3.493000910663986
 31
0.0
100
AcDbText
  0
TEXT
  5
377
330
18
100
AcDbEntity
  8
TEXT
100
AcDbText
 10
3.902156447768499
 20
3.586259337630278
 30
0.0
 40
0.0522247191011236
  1
6536 Main St. N.E. * P.O. Box 32008
 41
0.8388932496075355
 72
     5
 11
5.231089032038163
 21
3.586259337630278
 31
0.0
100
AcDbText
  0
TEXT
  5
378
330
18
100
AcDbEntity
  8
TEXT
100
AcDbText
 10
3.902156447768499
 20
3.67951776459657
 30
0.0
 40
0.0522247191011236
  1
Stylmark  Incorporated
 41
1.221428571428571
 72
     5
 11
5.231089032038163
 21
3.67951776459657
 31
0.0
100
AcDbText
  0
TEXT
  5
379
330
18
100
AcDbEntity
  8
TEXT
100
AcDbText
 10
3.902156447768499
 20
3.399742483697694
 30
0.0
 40
0.0522247191011236
  1
Phone  1-800-328-2495
 41
1.272321428571429
 72
     5
 11
5.231089032038163
 21
3.399742483697694
 31
0.0
100
AcDbText
  0
LINE
  5
37A
330
18
100
AcDbEntity
  8
TEXT
100
AcDbLine
 10
3.654600636305484
 20
3.556694892066027
 30
0.0
 11
3.719157752271189
 21
3.666588135007001
 31
0.0
  0
LINE
  5
37B
330
18
100
AcDbEntity
  8
TEXT
100
AcDbLine
 10
3.719157752271189
 20
3.666588135007001
 30
0.0
 11
3.644165919541562
 21
3.666588135007001
 31
0.0
  0
LINE
  5
37C
330
18
100
AcDbEntity
  8
TEXT
100
AcDbLine
 10
3.673514487292888
 20
3.40011510201849
 30
0.0
 11
3.750092859669094
 21
3.40011510201849
 31
0.0
  0
LINE
  5
37D
330
18
100
AcDbEntity
  8
TEXT
100
AcDbLine
 10
3.750092859669094
 20
3.40011510201849
 30
0.0
 11
3.654600636305484
 21
3.556694892066027
 31
0.0
  0
LINE
  5
37E
330
18
100
AcDbEntity
  8
TEXT
100
AcDbLine
 10
3.597610954081424
 20
3.40011510201849
 30
0.0
 11
3.597610954081424
 21
3.53169467049467
 31
0.0
  0
LINE
  5
37F
330
18
100
AcDbEntity
  8
TEXT
100
AcDbLine
 10
3.597610954081424
 20
3.53169467049467
 30
0.0
 11
3.673514487292888
 21
3.40011510201849
 31
0.0
  0
LINE
  5
380
330
18
100
AcDbEntity
  8
TEXT
100
AcDbLine
 10
3.533232769762798
 20
3.602311440350235
 30
0.0
 11
3.533232769762803
 21
3.40011510201849
 31
0.0
  0
LINE
  5
381
330
18
100
AcDbEntity
  8
TEXT
100
AcDbLine
 10
3.533232769762803
 20
3.40011510201849
 30
0.0
 11
3.597610954081424
 21
3.40011510201849
 31
0.0
  0
LINE
  5
382
330
18
100
AcDbEntity
  8
TEXT
100
AcDbLine
 10
3.597067760985576
 20
3.732052340774601
 30
0.0
 11
3.528752882436303
 21
3.732052340774601
 31
0.0
  0
LINE
  5
383
330
18
100
AcDbEntity
  8
TEXT
100
AcDbLine
 10
3.528752882436303
 20
3.732052340774601
 30
0.0
 11
3.528752882436298
 21
3.666588135007001
 31
0.0
  0
LINE
  5
384
330
18
100
AcDbEntity
  8
TEXT
100
AcDbLine
 10
3.644165919541561
 20
3.666588135007001
 30
0.0
 11
3.597067760985576
 21
3.590722808595463
 31
0.0
  0
LINE
  5
385
330
18
100
AcDbEntity
  8
TEXT
100
AcDbLine
 10
3.597067760985576
 20
3.590722808595463
 30
0.0
 11
3.597067760985576
 21
3.732052340774601
 31
0.0
  0
ENDSEC
  0
SECTION
  2
OBJECTS
  0
DICTIONARY
  5
C
330
0
100
AcDbDictionary
  3
ACAD_GROUP
350
D
  3
ACAD_LAYOUT
350
38A
  3
ACAD_MLINESTYLE
350
E
  3
ACAD_PLOTSETTINGS
350
38B
  3
ACAD_PLOTSTYLENAME
350
388
  3
ACDBHEADERROUNDTRIPXREC
350
394
  3
ACDBVARIABLEDICTIONARY
350
275
  0
DICTIONARY
  5
3B6
330
18
100
AcDbDictionary
280
     1
  3
ACAD_LAYOUTSELFREF
360
3B7
  0
DICTIONARY
  5
3B4
330
15
100
AcDbDictionary
280
     1
  3
ACAD_LAYOUTSELFREF
360
3B5
  0
DICTIONARY
  5
D
102
{ACAD_REACTORS
330
C
102
}
330
C
100
AcDbDictionary
  0
DICTIONARY
  5
38A
102
{ACAD_REACTORS
330
C
102
}
330
C
100
AcDbDictionary
  0
DICTIONARY
  5
E
102
{ACAD_REACTORS
330
C
102
}
330
C
100
AcDbDictionary
  3
STANDARD
350
1B
  0
DICTIONARY
  5
38B
102
{ACAD_REACTORS
330
C
102
}
330
C
100
AcDbDictionary
  0
ACDBDICTIONARYWDFLT
  5
388
102
{ACAD_REACTORS
330
C
102
}
330
C
100
AcDbDictionary
281
     1
  3
Normal
350
389
100
AcDbDictionaryWithDefault
340
389
  0
DICTIONARY
  5
394
102
{ACAD_REACTORS
330
C
102
}
330
C
100
AcDbDictionary
  3
CEPSNTYPE
350
39E
  3
FINGERPRINTGUID
350
39F
  3
HYPERLINKBASE
350
397
  3
INSUNITS
350
39D
  3
LAYOUTDICT
350
399
  3
LWETCUNION
350
39C
  3
PLOTSETDICT
350
39A
  3
PLOTSTYLNAMDICT
350
39B
  3
PSVPSCALE
350
3A1
  3
PUCSBASE
350
3A4
  3
PUCSORGBACK
350
3AA
  3
PUCSORGBOTTOM
350
3A6
  3
PUCSORGFRONT
350
3A9
  3
PUCSORGLEFT
350
3A7
  3
PUCSORGRIGHT
350
3A8
  3
PUCSORGTOP
350
3A5
  3
PUCSORTHOREF
350
3A2
  3
PUCSORTHOVIEW
350
3A3
  3
STYLESHEET
350
398
  3
TSTACKALIGN
350
395
  3
TSTACKSIZE
350
396
  3
UCSBASE
350
3AD
  3
UCSORGBACK
350
3B3
  3
UCSORGBOTTOM
350
3AF
  3
UCSORGFRONT
350
3B2
  3
UCSORGLEFT
350
3B0
  3
UCSORGRIGHT
350
3B1
  3
UCSORGTOP
350
3AE
  3
UCSORTHOREF
350
3AB
  3
UCSORTHOVIEW
350
3AC
  3
VERSIONGUID
350
3A0
  0
DICTIONARY
  5
275
102
{ACAD_REACTORS
330
C
102
}
330
C
100
AcDbDictionary
  3
DIMASSOC
350
392
  3
SORTENTS
350
276
  0
XRECORD
  5
3B7
102
{ACAD_REACTORS
330
3B6
102
}
330
3B6
100
AcDbXrecord
340
18
  0
XRECORD
  5
3B5
102
{ACAD_REACTORS
330
3B4
102
}
330
3B4
100
AcDbXrecord
340
15
  0
MLINESTYLE
  5
1B
102
{ACAD_REACTORS
330
E
102
}
330
E
100
AcDbMlineStyle
  2
STANDARD
 70
     0
  3

 62
     0
 51
90.0
 52
90.0
 71
     2
 49
0.5
 62
   256
  6
BYLAYER
 49
-0.5
 62
   256
  6
BYLAYER
  0
ACDBPLACEHOLDER
  5
389
102
{ACAD_REACTORS
330
388
102
}
330
388
100
AcDbPlaceHolder
280
     0
  0
XRECORD
  5
39E
102
{ACAD_REACTORS
330
394
102
}
330
394
100
AcDbXrecord
 90
        0
  0
XRECORD
  5
39F
102
{ACAD_REACTORS
330
394
102
}
330
394
100
AcDbXrecord
  1
{72018420-8DB5-11D6-88E6-0090279574E7}
  0
XRECORD
  5
397
102
{ACAD_REACTORS
330
394
102
}
330
394
100
AcDbXrecord
  1

  0
XRECORD
  5
39D
102
{ACAD_REACTORS
330
394
102
}
330
394
100
AcDbXrecord
 90
        0
  0
XRECORD
  5
399
102
{ACAD_REACTORS
330
394
102
}
330
394
100
AcDbXrecord
340
38A
  0
XRECORD
  5
39C
102
{ACAD_REACTORS
330
394
102
}
330
394
100
AcDbXrecord
 90
    14877
  0
XRECORD
  5
39A
102
{ACAD_REACTORS
330
394
102
}
330
394
100
AcDbXrecord
340
38B
  0
XRECORD
  5
39B
102
{ACAD_REACTORS
330
394
102
}
330
394
100
AcDbXrecord
340
388
  0
XRECORD
  5
3A1
102
{ACAD_REACTORS
330
394
102
}
330
394
100
AcDbXrecord
 40
0.0
  0
XRECORD
  5
3A4
102
{ACAD_REACTORS
330
394
102
}
330
394
100
AcDbXrecord
340
0
  0
XRECORD
  5
3AA
102
{ACAD_REACTORS
330
394
102
}
330
394
100
AcDbXrecord
 10
0.0
 20
0.0
 30
0.0
  0
XRECORD
  5
3A6
102
{ACAD_REACTORS
330
394
102
}
330
394
100
AcDbXrecord
 10
0.0
 20
0.0
 30
0.0
  0
XRECORD
  5
3A9
102
{ACAD_REACTORS
330
394
102
}
330
394
100
AcDbXrecord
 10
0.0
 20
0.0
 30
0.0
  0
XRECORD
  5
3A7
102
{ACAD_REACTORS
330
394
102
}
330
394
100
AcDbXrecord
 10
0.0
 20
0.0
 30
0.0
  0
XRECORD
  5
3A8
102
{ACAD_REACTORS
330
394
102
}
330
394
100
AcDbXrecord
 10
0.0
 20
0.0
 30
0.0
  0
XRECORD
  5
3A5
102
{ACAD_REACTORS
330
394
102
}
330
394
100
AcDbXrecord
 10
0.0
 20
0.0
 30
0.0
  0
XRECORD
  5
3A2
102
{ACAD_REACTORS
330
394
102
}
330
394
100
AcDbXrecord
340
0
  0
XRECORD
  5
3A3
102
{ACAD_REACTORS
330
394
102
}
330
394
100
AcDbXrecord
 70
     0
  0
XRECORD
  5
398
102
{ACAD_REACTORS
330
394
102
}
330
394
100
AcDbXrecord
  1

  0
XRECORD
  5
395
102
{ACAD_REACTORS
330
394
102
}
330
394
100
AcDbXrecord
 90
        1
  0
XRECORD
  5
396
102
{ACAD_REACTORS
330
394
102
}
330
394
100
AcDbXrecord
 90
       70
  0
XRECORD
  5
3AD
102
{ACAD_REACTORS
330
394
102
}
330
394
100
AcDbXrecord
340
0
  0
XRECORD
  5
3B3
102
{ACAD_REACTORS
330
394
102
}
330
394
100
AcDbXrecord
 10
0.0
 20
0.0
 30
0.0
  0
XRECORD
  5
3AF
102
{ACAD_REACTORS
330
394
102
}
330
394
100
AcDbXrecord
 10
0.0
 20
0.0
 30
0.0
  0
XRECORD
  5
3B2
102
{ACAD_REACTORS
330
394
102
}
330
394
100
AcDbXrecord
 10
0.0
 20
0.0
 30
0.0
  0
XRECORD
  5
3B0
102
{ACAD_REACTORS
330
394
102
}
330
394
100
AcDbXrecord
 10
0.0
 20
0.0
 30
0.0
  0
XRECORD
  5
3B1
102
{ACAD_REACTORS
330
394
102
}
330
394
100
AcDbXrecord
 10
0.0
 20
0.0
 30
0.0
  0
XRECORD
  5
3AE
102
{ACAD_REACTORS
330
394
102
}
330
394
100
AcDbXrecord
 10
0.0
 20
0.0
 30
0.0
  0
XRECORD
  5
3AB
102
{ACAD_REACTORS
330
394
102
}
330
394
100
AcDbXrecord
340
0
  0
XRECORD
  5
3AC
102
{ACAD_REACTORS
330
394
102
}
330
394
100
AcDbXrecord
 70
     0
  0
XRECORD
  5
3A0
102
{ACAD_REACTORS
330
394
102
}
330
394
100
AcDbXrecord
  1
{72018422-8DB5-11D6-88E6-0090279574E7}
  0
DICTIONARYVAR
  5
392
102
{ACAD_REACTORS
330
275
102
}
330
275
100
DictionaryVariables
280
     0
  1
1
  0
DICTIONARYVAR
  5
276
102
{ACAD_REACTORS
330
275
102
}
330
275
100
DictionaryVariables
280
     0
  1
97
  0
ENDSEC
  0
EOF
