  0
SECTION
  2
HEADER
  9
$ACADVER
  1
AC1014
  9
$ACADMAINTVER
 70
     9
  9
$DWGCODEPAGE
  3
ANSI_1252
  9
$INSBASE
 10
3.827801029379644
 20
3.369528848785172
 30
0.0
  9
$EXTMIN
 10
2.187228432855231
 20
0.3140896216021949
 30
0.0
  9
$EXTMAX
 10
5.672447754602366
 20
5.06818798573104
 30
0.0
  9
$LIMMIN
 10
0.0
 20
0.0
  9
$LIMMAX
 10
18.0
 20
12.0
  9
$ORTHOMODE
 70
     1
  9
$REGENMODE
 70
     1
  9
$FILLMODE
 70
     1
  9
$QTEXTMODE
 70
     0
  9
$MIRRTEXT
 70
     0
  9
$DRAGMODE
 70
     2
  9
$LTSCALE
 40
1.0
  9
$OSMODE
 70
    39
  9
$ATTMODE
 70
     1
  9
$TEXTSIZE
 40
0.125
  9
$TRACEWID
 40
0.05
  9
$TEXTSTYLE
  7
ROMANS
  9
$CLAYER
  8
0
  9
$CELTYPE
  6
BYLAYER
  9
$CECOLOR
 62
   256
  9
$CELTSCALE
 40
1.0
  9
$DELOBJ
 70
     1
  9
$DISPSILH
 70
     1
  9
$DIMSCALE
 40
1.0
  9
$DIMASZ
 40
0.125
  9
$DIMEXO
 40
0.125
  9
$DIMDLI
 40
0.375
  9
$DIMRND
 40
0.0
  9
$DIMDLE
 40
0.0
  9
$DIMEXE
 40
0.125
  9
$DIMTP
 40
0.0
  9
$DIMTM
 40
0.0
  9
$DIMTXT
 40
0.125
  9
$DIMCEN
 40
-0.125
  9
$DIMTSZ
 40
0.0
  9
$DIMTOL
 70
     0
  9
$DIMLIM
 70
     0
  9
$DIMTIH
 70
     1
  9
$DIMTOH
 70
     1
  9
$DIMSE1
 70
     0
  9
$DIMSE2
 70
     0
  9
$DIMTAD
 70
     0
  9
$DIMZIN
 70
     4
  9
$DIMBLK
  1

  9
$DIMASO
 70
     1
  9
$DIMSHO
 70
     1
  9
$DIMPOST
  1

  9
$DIMAPOST
  1

  9
$DIMALT
 70
     0
  9
$DIMALTD
 70
     2
  9
$DIMALTF
 40
25.4
  9
$DIMLFAC
 40
1.0
  9
$DIMTOFL
 70
     0
  9
$DIMTVP
 40
0.0
  9
$DIMTIX
 70
     1
  9
$DIMSOXD
 70
     0
  9
$DIMSAH
 70
     0
  9
$DIMBLK1
  1

  9
$DIMBLK2
  1

  9
$DIMSTYLE
  2
STANDARD
  9
$DIMCLRD
 70
     0
  9
$DIMCLRE
 70
     0
  9
$DIMCLRT
 70
     0
  9
$DIMTFAC
 40
1.0
  9
$DIMGAP
 40
0.09
  9
$DIMJUST
 70
     0
  9
$DIMSD1
 70
     0
  9
$DIMSD2
 70
     0
  9
$DIMTOLJ
 70
     1
  9
$DIMTZIN
 70
     4
  9
$DIMALTZ
 70
     0
  9
$DIMALTTZ
 70
     0
  9
$DIMFIT
 70
     3
  9
$DIMUPT
 70
     0
  9
$DIMUNIT
 70
     2
  9
$DIMDEC
 70
     3
  9
$DIMTDEC
 70
     3
  9
$DIMALTU
 70
     2
  9
$DIMALTTD
 70
     2
  9
$DIMTXSTY
  7
ROMANS
  9
$DIMAUNIT
 70
     0
  9
$LUNITS
 70
     2
  9
$LUPREC
 70
     3
  9
$SKETCHINC
 40
0.1
  9
$FILLETRAD
 40
0.03125
  9
$AUNITS
 70
     0
  9
$AUPREC
 70
     0
  9
$MENU
  1
ACAD
  9
$ELEVATION
 40
0.0
  9
$PELEVATION
 40
0.0
  9
$THICKNESS
 40
0.0
  9
$LIMCHECK
 70
     0
  9
$BLIPMODE
 70
     0
  9
$CHAMFERA
 40
0.0
  9
$CHAMFERB
 40
0.0
  9
$CHAMFERC
 40
0.0
  9
$CHAMFERD
 40
0.0
  9
$SKPOLY
 70
     0
  9
$TDCREATE
 40
2448994.489633333
  9
$TDUPDATE
 40
2452458.302520278
  9
$TDINDWG
 40
0.0010634954
  9
$TDUSRTIMER
 40
0.0010634954
  9
$USRTIMER
 70
     1
  9
$ANGBASE
 50
0.0
  9
$ANGDIR
 70
     0
  9
$PDMODE
 70
     0
  9
$PDSIZE
 40
0.0
  9
$PLINEWID
 40
0.0
  9
$COORDS
 70
     2
  9
$SPLFRAME
 70
     0
  9
$SPLINETYPE
 70
     6
  9
$SPLINESEGS
 70
     8
  9
$ATTDIA
 70
     0
  9
$ATTREQ
 70
     1
  9
$HANDLING
 70
 22529
  9
$HANDSEED
  5
7DE1B343D9E0BC9
  9
$SURFTAB1
 70
     6
  9
$SURFTAB2
 70
     6
  9
$SURFTYPE
 70
     6
  9
$SURFU
 70
     6
  9
$SURFV
 70
     6
  9
$UCSNAME
  2

  9
$UCSORG
 10
0.0
 20
0.0
 30
0.0
  9
$UCSXDIR
 10
1.0
 20
0.0
 30
0.0
  9
$UCSYDIR
 10
0.0
 20
1.0
 30
0.0
  9
$PUCSNAME
  2

  9
$PUCSORG
 10
0.0
 20
0.0
 30
0.0
  9
$PUCSXDIR
 10
1.0
 20
0.0
 30
0.0
  9
$PUCSYDIR
 10
0.0
 20
1.0
 30
0.0
  9
$USERI1
 70
     0
  9
$USERI2
 70
     0
  9
$USERI3
 70
     0
  9
$USERI4
 70
     0
  9
$USERI5
 70
     0
  9
$USERR1
 40
0.0
  9
$USERR2
 40
0.0
  9
$USERR3
 40
0.0
  9
$USERR4
 40
0.0
  9
$USERR5
 40
0.0
  9
$WORLDVIEW
 70
     1
  9
$SHADEDGE
 70
     3
  9
$SHADEDIF
 70
    70
  9
$TILEMODE
 70
     1
  9
$MAXACTVP
 70
    16
  9
$PINSBASE
 10
1.33832795291684
 20
50.00000000000001
 30
5.734461327681853
  9
$PLIMCHECK
 70
     0
  9
$PEXTMIN
 10
1.000000000000000E+20
 20
1.000000000000000E+20
 30
1.000000000000000E+20
  9
$PEXTMAX
 10
-1.000000000000000E+20
 20
-1.000000000000000E+20
 30
-1.000000000000000E+20
  9
$PLIMMIN
 10
0.0
 20
0.0
  9
$PLIMMAX
 10
12.0
 20
9.0
  9
$UNITMODE
 70
     0
  9
$VISRETAIN
 70
     0
  9
$PLINEGEN
 70
     1
  9
$PSLTSCALE
 70
     0
  9
$TREEDEPTH
 70
  3020
  9
$PICKSTYLE
 70
     1
  9
$CMLSTYLE
  2
STANDARD
  9
$CMLJUST
 70
     0
  9
$CMLSCALE
 40
1.0
  9
$PROXYGRAPHICS
 70
     1
  9
$MEASUREMENT
 70
     0
  0
ENDSEC
  0
SECTION
  2
CLASSES
  0
CLASS
  1
LWPOLYLINE
  2
AcDbPolyline
  3
AutoCAD 2000
 90
        0
280
     0
281
     1
  0
CLASS
  1
ACDBDICTIONARYWDFLT
  2
AcDbDictionaryWithDefault
  3
AutoCAD 2000
 90
        0
280
     0
281
     0
  0
CLASS
  1
ACDBPLACEHOLDER
  2
AcDbPlaceHolder
  3
AutoCAD 2000
 90
        0
280
     0
281
     0
  0
CLASS
  1
LAYOUT
  2
AcDbLayout
  3
AutoCAD 2000
 90
        0
280
     0
281
     0
  0
CLASS
  1
DICTIONARYVAR
  2
AcDbDictionaryVar
  3
AutoCAD 2000
 90
        0
280
     0
281
     0
  0
CLASS
  1
LONG_TRANSACTION
  2
AcDbLongTransaction
  3
AutoCAD 2000
 90
        0
280
     0
281
     0
  0
CLASS
  1
LWPOLYLINE
  2
AcDbPolyline
  3
AutoCAD 2000
 90
        0
280
     0
281
     1
  0
CLASS
  1
HATCH
  2
AcDbHatch
  3
AutoCAD 2000
 90
        0
280
     0
281
     1
  0
CLASS
  1
XRECORD
  2
AcDbXrecord
  3
AutoCAD 2000
 90
        0
280
     0
281
     0
  0
ENDSEC
  0
SECTION
  2
TABLES
  0
TABLE
  2
VPORT
  5
7DE1B343D9E0B55
330
0
100
AcDbSymbolTable
 70
     2
  0
VPORT
  5
7DE1B343D9E0BA4
330
7DE1B343D9E0B55
100
AcDbSymbolTableRecord
100
AcDbViewportTableRecord
  2
*ACTIVE
 70
     0
 10
0.0
 20
0.0
 11
1.0
 21
1.0
 12
10.92961478377988
 22
2.691284203775325
 13
0.0
 23
0.0
 14
0.015625
 24
0.015625
 15
0.0
 25
0.0
 16
0.0
 26
0.0
 36
1.0
 17
0.0
 27
0.0
 37
0.0
 40
5.368373813729441
 41
4.320930232558139
 42
50.0
 43
0.0
 44
0.0
 50
0.0
 51
0.0
 71
     0
 72
  2000
 73
     1
 74
     0
 75
     0
 76
     0
 77
     0
 78
     0
  0
ENDTAB
  0
TABLE
  2
LTYPE
  5
7DE1B343D9E0B52
330
0
100
AcDbSymbolTable
 70
     1
  0
LTYPE
  5
7DE1B343D9E0B5F
330
7DE1B343D9E0B52
100
AcDbSymbolTableRecord
100
AcDbLinetypeTableRecord
  2
BYBLOCK
 70
     0
  3

 72
    65
 73
     0
 40
0.0
  0
LTYPE
  5
7DE1B343D9E0B60
330
7DE1B343D9E0B52
100
AcDbSymbolTableRecord
100
AcDbLinetypeTableRecord
  2
BYLAYER
 70
     0
  3

 72
    65
 73
     0
 40
0.0
  0
LTYPE
  5
7DE1B343D9E0B61
330
7DE1B343D9E0B52
100
AcDbSymbolTableRecord
100
AcDbLinetypeTableRecord
  2
CONTINUOUS
 70
     0
  3
Solid line
 72
    65
 73
     0
 40
0.0
  0
ENDTAB
  0
TABLE
  2
LAYER
  5
7DE1B343D9E0B4F
330
0
100
AcDbSymbolTable
 70
     3
  0
LAYER
  5
7DE1B343D9E0B5C
330
7DE1B343D9E0B4F
100
AcDbSymbolTableRecord
100
AcDbLayerTableRecord
  2
0
 70
     0
 62
     7
  6
CONTINUOUS
  0
LAYER
  5
7DE1B343D9E0B6C
330
7DE1B343D9E0B4F
100
AcDbSymbolTableRecord
100
AcDbLayerTableRecord
  2
TEXT
 70
     0
 62
     3
  6
CONTINUOUS
  0
LAYER
  5
7DE1B343D9E0B7C
330
7DE1B343D9E0B4F
100
AcDbSymbolTableRecord
100
AcDbLayerTableRecord
  2
ASHADE
 70
     4
 62
     7
  6
CONTINUOUS
  0
ENDTAB
  0
TABLE
  2
STYLE
  5
7DE1B343D9E0B50
330
0
100
AcDbSymbolTable
 70
     4
  0
STYLE
  5
7DE1B343D9E0B5D
330
7DE1B343D9E0B50
100
AcDbSymbolTableRecord
100
AcDbTextStyleTableRecord
  2
STANDARD
 70
     0
 40
0.0
 41
1.0
 50
0.0
 71
     0
 42
0.3125
  3
txt
  4

  0
STYLE
  5
7DE1B343D9E0B69
330
7DE1B343D9E0B50
100
AcDbSymbolTableRecord
100
AcDbTextStyleTableRecord
  2
ITALICC
 70
     0
 40
0.0
 41
1.0
 50
0.0
 71
     0
 42
0.125
  3
italicc
  4

  0
STYLE
  5
7DE1B343D9E0B79
330
7DE1B343D9E0B50
100
AcDbSymbolTableRecord
100
AcDbTextStyleTableRecord
  2
ASHADE
 70
     0
 40
0.2
 41
1.0
 50
0.0
 71
     0
 42
0.3125
  3
simplex
  4

  0
STYLE
  5
7DE1B343D9E0B94
330
7DE1B343D9E0B50
100
AcDbSymbolTableRecord
100
AcDbTextStyleTableRecord
  2
ROMANS
 70
     0
 40
0.0
 41
1.0
 50
0.0
 71
     0
 42
0.125
  3
romans.shx
  4

  0
ENDTAB
  0
TABLE
  2
VIEW
  5
7DE1B343D9E0B53
330
0
100
AcDbSymbolTable
 70
     0
  0
ENDTAB
  0
TABLE
  2
UCS
  5
7DE1B343D9E0B54
330
0
100
AcDbSymbolTable
 70
     0
  0
ENDTAB
  0
TABLE
  2
APPID
  5
7DE1B343D9E0B56
330
0
100
AcDbSymbolTable
 70
     6
  0
APPID
  5
7DE1B343D9E0B5E
330
7DE1B343D9E0B56
100
AcDbSymbolTableRecord
100
AcDbRegAppTableRecord
  2
ACAD
 70
     0
  0
APPID
  5
7DE1B343D9E0B7A
330
7DE1B343D9E0B56
100
AcDbSymbolTableRecord
100
AcDbRegAppTableRecord
  2
AVE_RENDER
 70
     0
  0
APPID
  5
7DE1B343D9E0B7B
330
7DE1B343D9E0B56
100
AcDbSymbolTableRecord
100
AcDbRegAppTableRecord
  2
AVE_ENTITY_MATERIAL
 70
     0
  0
APPID
  5
7DE1B343D9E0B88
330
7DE1B343D9E0B56
100
AcDbSymbolTableRecord
100
AcDbRegAppTableRecord
  2
AVE_FINISH
 70
     0
  0
APPID
  5
7DE1B343D9E0B89
330
7DE1B343D9E0B56
100
AcDbSymbolTableRecord
100
AcDbRegAppTableRecord
  2
AVE_MATERIAL
 70
     0
  0
APPID
  5
7DE1B343D9E0B8A
330
7DE1B343D9E0B56
100
AcDbSymbolTableRecord
100
AcDbRegAppTableRecord
  2
AVE_GLOBAL
 70
     0
  0
ENDTAB
  0
TABLE
  2
DIMSTYLE
  5
7DE1B343D9E0B57
330
0
100
AcDbSymbolTable
 70
     1
  0
DIMSTYLE
105
7DE1B343D9E0B71
330
7DE1B343D9E0B57
100
AcDbSymbolTableRecord
100
AcDbDimStyleTableRecord
  2
STANDARD
 70
     0
  3

  4

  5

  6

  7

 40
1.0
 41
0.125
 42
0.125
 43
0.375
 44
0.125
 45
0.0
 46
0.0
 47
0.0
 48
0.0
140
0.125
141
-0.125
142
0.0
143
25.4
144
1.0
145
0.0
146
1.0
147
0.09
 71
     0
 72
     0
 73
     1
 74
     1
 75
     0
 76
     0
 77
     0
 78
     4
170
     0
171
     2
172
     0
173
     0
174
     1
175
     0
176
     0
177
     0
178
     0
270
     2
271
     3
272
     3
273
     2
274
     2
340
7DE1B343D9E0B94
275
     0
280
     0
281
     0
282
     0
283
     1
284
     4
285
     0
286
     0
287
     3
288
     0
  0
ENDTAB
  0
TABLE
  2
BLOCK_RECORD
  5
7DE1B343D9E0B4E
330
0
100
AcDbSymbolTable
 70
     2
  0
BLOCK_RECORD
  5
7DE1B343D9E0B65
102
{ACAD_XDICTIONARY
360
7DE1B343D9E0BC7
102
}
330
7DE1B343D9E0B4E
100
AcDbSymbolTableRecord
100
AcDbBlockTableRecord
  2
*MODEL_SPACE
  0
BLOCK_RECORD
  5
7DE1B343D9E0B62
102
{ACAD_XDICTIONARY
360
7DE1B343D9E0BC5
102
}
330
7DE1B343D9E0B4E
100
AcDbSymbolTableRecord
100
AcDbBlockTableRecord
  2
*PAPER_SPACE
  0
BLOCK_RECORD
  5
7DE1B343D9E0B7D
330
7DE1B343D9E0B4E
100
AcDbSymbolTableRecord
100
AcDbBlockTableRecord
  2
AVE_RENDER
  0
BLOCK_RECORD
  5
7DE1B343D9E0B8B
330
7DE1B343D9E0B4E
100
AcDbSymbolTableRecord
100
AcDbBlockTableRecord
  2
AVE_GLOBAL
  0
ENDTAB
  0
ENDSEC
  0
SECTION
  2
BLOCKS
  0
BLOCK
  5
7DE1B343D9E0B6F
330
7DE1B343D9E0B65
100
AcDbEntity
  8
0
100
AcDbBlockBegin
  2
*MODEL_SPACE
 70
     0
 10
0.0
 20
0.0
 30
0.0
  3
*MODEL_SPACE
  1

  0
ENDBLK
  5
7DE1B343D9E0B70
330
7DE1B343D9E0B65
100
AcDbEntity
  8
0
100
AcDbBlockEnd
  0
BLOCK
  5
7DE1B343D9E0B6D
330
7DE1B343D9E0B62
100
AcDbEntity
 67
     1
  8
0
100
AcDbBlockBegin
  2
*PAPER_SPACE
 70
     0
 10
0.0
 20
0.0
 30
0.0
  3
*PAPER_SPACE
  1

  0
ENDBLK
  5
7DE1B343D9E0B6E
330
7DE1B343D9E0B62
100
AcDbEntity
 67
     1
  8
0
100
AcDbBlockEnd
  0
BLOCK
  5
7DE1B343D9E0B7E
330
7DE1B343D9E0B7D
100
AcDbEntity
  8
0
100
AcDbBlockBegin
  2
AVE_RENDER
 70
     0
 10
0.0
 20
0.0
 30
0.0
  3
AVE_RENDER
  1
AVE_RENDER
  0
ENDBLK
  5
7DE1B343D9E0B7F
330
7DE1B343D9E0B7D
100
AcDbEntity
  8
0
100
AcDbBlockEnd
  0
BLOCK
  5
7DE1B343D9E0B8C
330
7DE1B343D9E0B8B
100
AcDbEntity
  8
0
100
AcDbBlockBegin
  2
AVE_GLOBAL
 70
     0
 10
0.0
 20
0.0
 30
0.0
  3
AVE_GLOBAL
  1
AVE_GLOBAL
  0
ENDBLK
  5
7DE1B343D9E0B8D
330
7DE1B343D9E0B8B
100
AcDbEntity
  8
0
100
AcDbBlockEnd
  0
ENDSEC
  0
SECTION
  2
ENTITIES
  0
LWPOLYLINE
  5
7DE1B343D9DF71A
330
7DE1B343D9E0B65
100
AcDbEntity
  8
0
100
AcDbPolyline
 90
       25
 70
     1
 43
0.0
 10
3.320835012082374
 20
5.06818798573104
 10
4.539585012082374
 20
5.06818798573104
 10
4.539585012082374
 20
2.716270290534351
 42
0.3253046293250414
 10
3.977085012082374
 20
1.94318798573104
 42
-0.3089604114330368
 10
3.539585012082374
 20
1.302753562858566
 10
3.539585012082374
 20
1.068187985731041
 10
3.320835012082374
 20
1.068187985731041
 42
-1.0
 10
3.320835012082374
 20
1.130687985731041
 10
3.477085012082374
 20
1.130687985731041
 10
3.477085012082374
 20
1.286937985731041
 10
3.352085012082374
 20
1.286937985731041
 10
3.352085012082374
 20
1.514061397994512
 42
-0.2679491924311231
 10
3.367710012082374
 20
1.541124691862776
 10
3.414585012082374
 20
1.56818798573104
 10
3.414585012082374
 20
1.349437985731041
 10
3.484741199532324
 20
1.349437985731041
 42
0.3239798970599506
 10
3.914585012082374
 20
1.94318798573104
 42
-0.3108678928628358
 10
4.477085012082374
 20
2.760481537644916
 10
4.477085012082374
 20
5.00568798573104
 10
3.414585012082374
 20
5.00568798573104
 10
3.414585012082374
 20
4.56818798573104
 10
3.367710012082374
 20
4.595251279599304
 42
-0.2679491924311231
 10
3.352085012082374
 20
4.622314573467568
 10
3.352085012082374
 20
5.00568798573104
 10
3.320835012082374
 20
5.00568798573104
 42
-1.0
  0
TEXT
  5
7DE1B343D9E0A10
330
7DE1B343D9E0B65
100
AcDbEntity
  8
TEXT
100
AcDbText
 10
3.177233821606184
 20
0.7721082256847762
 30
0.0
 40
0.125
  1
PART #110234
  7
ITALICC
 72
     1
 11
3.930210012082374
 21
0.7721082256847762
 31
0.0
100
AcDbText
  0
TEXT
  5
7DE1B343D9E0A11
330
7DE1B343D9E0B65
100
AcDbEntity
  8
TEXT
100
AcDbText
 10
4.343515170332695
 20
0.3251855830124011
 30
0.0
 40
0.0522247191011236
  1
Phone  1-800-328-2495
 41
1.272321428571429
 72
     5
 11
5.672447754602359
 21
0.3251855830124011
 31
0.0
100
AcDbText
  0
TEXT
  5
7DE1B343D9E0A12
330
7DE1B343D9E0B65
100
AcDbEntity
  8
TEXT
100
AcDbText
 10
4.343515170332695
 20
0.6049608639112777
 30
0.0
 40
0.0522247191011236
  1
Stylmark  Incorporated
 41
1.221428571428573
 72
     5
 11
5.672447754602359
 21
0.6049608639112777
 31
0.0
100
AcDbText
  0
TEXT
  5
7DE1B343D9E0A13
330
7DE1B343D9E0B65
100
AcDbEntity
  8
TEXT
100
AcDbText
 10
4.343515170332695
 20
0.5117024369449855
 30
0.0
 40
0.0522247191011236
  1
6536 Main St. N.E. * P.O. Box 32008
 41
0.8388932496075366
 72
     5
 11
5.672447754602359
 21
0.5117024369449855
 31
0.0
100
AcDbText
  0
TEXT
  5
7DE1B343D9E0A14
330
7DE1B343D9E0B65
100
AcDbEntity
  8
TEXT
100
AcDbText
 10
4.343515170332695
 20
0.4184440099786933
 30
0.0
 40
0.0522247191011236
  1
Minneapolis, MN 55432-0008
 41
1.11444212721585
 72
     5
 11
5.672447754602359
 21
0.4184440099786933
 31
0.0
100
AcDbText
  0
LWPOLYLINE
  5
7DE1B343D9E0A15
330
7DE1B343D9E0B65
100
AcDbEntity
  8
TEXT
100
AcDbPolyline
 90
        3
 70
     0
 43
0.0006660908203125
 10
2.187561478265387
 20
0.438830345649836
 10
2.187561478265387
 20
0.3255949061967083
 10
2.30079691771851
 20
0.3255949061967083
  0
LWPOLYLINE
  5
7DE1B343D9E0A1A
330
7DE1B343D9E0B65
100
AcDbEntity
  8
TEXT
100
AcDbPolyline
 90
        3
 70
     0
 43
0.0006660908203125
 10
2.214205111077885
 20
0.438830345649836
 10
2.214205111077885
 20
0.3522385390092093
 10
2.30079691771851
 20
0.3522385390092093
  0
LWPOLYLINE
  5
7DE1B343D9E0A1F
330
7DE1B343D9E0B65
100
AcDbEntity
  8
TEXT
100
AcDbPolyline
 90
        2
 70
     0
 43
0.0001332181640625
 10
2.260831468499762
 20
0.4488217079545212
 10
2.187561478265387
 20
0.438830345649836
  0
LWPOLYLINE
  5
7DE1B343D9E0A23
330
7DE1B343D9E0B65
100
AcDbEntity
  8
TEXT
100
AcDbPolyline
 90
        2
 70
     0
 43
0.0001332181640625
 10
2.214205111077885
 20
0.438830345649836
 10
2.274153284906012
 20
0.4488217079545212
  0
LWPOLYLINE
  5
7DE1B343D9E0A27
330
7DE1B343D9E0B65
100
AcDbEntity
  8
TEXT
100
AcDbPolyline
 90
        2
 70
     0
 43
0.0001332181640625
 10
2.214205111077885
 20
0.3522385390092093
 10
2.274153284906012
 20
0.412186712837335
  0
LWPOLYLINE
  5
7DE1B343D9E0A2B
330
7DE1B343D9E0B65
100
AcDbEntity
  8
TEXT
100
AcDbPolyline
 90
        3
 70
     0
 43
0.0006660908203125
 10
2.30079691771851
 20
0.5920312343217116
 10
2.187561478265387
 20
0.5920312343217116
 10
2.187561478265387
 20
0.478795794868584
  0
LWPOLYLINE
  5
7DE1B343D9E0A30
330
7DE1B343D9E0B65
100
AcDbEntity
  8
TEXT
100
AcDbPolyline
 90
        3
 70
     0
 43
0.0006660908203125
 10
2.30079691771851
 20
0.5653876015092106
 10
2.214205111077885
 20
0.5653876015092106
 10
2.214205111077885
 20
0.478795794868584
  0
LWPOLYLINE
  5
7DE1B343D9E0A35
330
7DE1B343D9E0B65
100
AcDbEntity
  8
TEXT
100
AcDbPolyline
 90
        2
 70
     0
 43
0.0001332181640625
 10
2.214205111077885
 20
0.5653876015092106
 10
2.27415328490601
 20
0.505439427681085
  0
LWPOLYLINE
  5
7DE1B343D9E0A39
330
7DE1B343D9E0B65
100
AcDbEntity
  8
TEXT
100
AcDbPolyline
 90
        2
 70
     0
 43
0.0001332181640625
 10
2.214205111077885
 20
0.478795794868584
 10
2.27415328490601
 20
0.4688044325638952
  0
LWPOLYLINE
  5
7DE1B343D9E0A3D
330
7DE1B343D9E0B65
100
AcDbEntity
  8
TEXT
100
AcDbPolyline
 90
        2
 70
     0
 43
0.0001332181640625
 10
2.187561478265387
 20
0.478795794868584
 10
2.260831468499762
 20
0.4688044325638952
  0
LWPOLYLINE
  5
7DE1B343D9E0A41
330
7DE1B343D9E0B65
100
AcDbEntity
  8
TEXT
100
AcDbPolyline
 90
        2
 70
     0
 43
0.0006660908203125
 10
2.214205111077885
 20
0.438830345649836
 10
2.187561478265387
 20
0.438830345649836
  0
LWPOLYLINE
  5
7DE1B343D9E0A45
330
7DE1B343D9E0B65
100
AcDbEntity
  8
TEXT
100
AcDbPolyline
 90
        2
 70
     0
 43
0.0006660908203125
 10
2.214205111077885
 20
0.478795794868584
 10
2.187561478265387
 20
0.478795794868584
  0
LINE
  5
7DE1B343D9E0A49
330
7DE1B343D9E0B65
100
AcDbEntity
  8
TEXT
100
AcDbLine
 10
3.702751907391885
 20
0.5277545396649427
 30
0.0
 11
3.595545634004595
 21
0.5277545396649427
 31
0.0
  0
LINE
  5
7DE1B343D9E0A4A
330
7DE1B343D9E0B65
100
AcDbEntity
  8
TEXT
100
AcDbLine
 10
3.731782805736363
 20
0.5920312343217081
 30
0.0
 11
3.596950896519304
 21
0.5920312343217081
 31
0.0
  0
ARC
  5
7DE1B343D9E0A4B
330
7DE1B343D9E0B65
100
AcDbEntity
  8
TEXT
100
AcDbCircle
 10
3.656264992912621
 20
0.4227939850586918
 30
0.0
 40
0.0676855811441166
100
AcDbArc
 50
90.0
 51
153.7768192527749
  0
LWPOLYLINE
  5
7DE1B343D9E0A4C
330
7DE1B343D9E0B65
100
AcDbEntity
  8
TEXT
100
AcDbPolyline
 90
        2
 70
     0
 43
0.0
 10
3.594513138549785
 20
0.3690491462836352
 42
0.2901071551932823
 10
3.637589071417421
 20
0.325558201333197
 42
5.328517124445801
  0
ARC
  5
7DE1B343D9E0A50
330
7DE1B343D9E0B65
100
AcDbEntity
  8
TEXT
100
AcDbCircle
 10
2.951133615241135
 20
0.3853505926712468
 30
0.0
 40
0.0601160179737537
100
AcDbArc
 50
180.0000000000003
 51
264.0521544866073
  0
LINE
  5
7DE1B343D9E0A51
330
7DE1B343D9E0B65
100
AcDbEntity
  8
TEXT
100
AcDbLine
 10
2.954648970866683
 20
0.6264191519158463
 30
0.0
 11
2.894606366022676
 21
0.6264191519158463
 31
0.0
  0
ARC
  5
7DE1B343D9E0A52
330
7DE1B343D9E0B65
100
AcDbEntity
  8
TEXT
100
AcDbCircle
 10
2.718874613124165
 20
0.5099437748752063
 30
0.0
 40
0.0820874594465043
100
AcDbArc
 50
90.0
 51
270.0
  0
LWPOLYLINE
  5
7DE1B343D9E0A53
330
7DE1B343D9E0B65
100
AcDbEntity
  8
TEXT
100
AcDbPolyline
 90
        2
 70
     0
 43
0.0001332181640625
 10
2.3107882800232
 20
0.518761244087332
 10
2.30079691771851
 20
0.5920312343217116
  0
LWPOLYLINE
  5
7DE1B343D9E0A57
330
7DE1B343D9E0B65
100
AcDbEntity
  8
TEXT
100
AcDbPolyline
 90
        2
 70
     0
 43
0.0001332181640625
 10
2.30079691771851
 20
0.5653876015092106
 10
2.3107882800232
 20
0.505439427681085
  0
LWPOLYLINE
  5
7DE1B343D9E0A5B
330
7DE1B343D9E0B65
100
AcDbEntity
  8
TEXT
100
AcDbPolyline
 90
        3
 70
     0
 43
0.0006660908203125
 10
2.453997806390387
 20
0.478795794868584
 10
2.453997806390387
 20
0.5920312343217116
 10
2.340762366937261
 20
0.5920312343217116
  0
LWPOLYLINE
  5
7DE1B343D9E0A60
330
7DE1B343D9E0B65
100
AcDbEntity
  8
TEXT
100
AcDbPolyline
 90
        3
 70
     0
 43
0.0006660908203125
 10
2.427354173577886
 20
0.478795794868584
 10
2.427354173577886
 20
0.5653876015092106
 10
2.340762366937261
 20
0.5653876015092106
  0
LWPOLYLINE
  5
7DE1B343D9E0A65
330
7DE1B343D9E0B65
100
AcDbEntity
  8
TEXT
100
AcDbPolyline
 90
        2
 70
     0
 43
0.0001332181640625
 10
2.427354173577886
 20
0.5653876015092106
 10
2.367405999749762
 20
0.505439427681085
  0
LWPOLYLINE
  5
7DE1B343D9E0A69
330
7DE1B343D9E0B65
100
AcDbEntity
  8
TEXT
100
AcDbPolyline
 90
        2
 70
     0
 43
0.0001332181640625
 10
2.340762366937261
 20
0.5653876015092106
 10
2.330771004632572
 20
0.505439427681085
  0
LWPOLYLINE
  5
7DE1B343D9E0A6D
330
7DE1B343D9E0B65
100
AcDbEntity
  8
TEXT
100
AcDbPolyline
 90
        2
 70
     0
 43
0.0001332181640625
 10
2.340762366937261
 20
0.5920312343217116
 10
2.330771004632572
 20
0.518761244087332
  0
LWPOLYLINE
  5
7DE1B343D9E0A71
330
7DE1B343D9E0B65
100
AcDbEntity
  8
TEXT
100
AcDbPolyline
 90
        2
 70
     0
 43
0.0001332181640625
 10
2.380727816156011
 20
0.4688044325638952
 10
2.453997806390387
 20
0.478795794868584
  0
LWPOLYLINE
  5
7DE1B343D9E0A75
330
7DE1B343D9E0B65
100
AcDbEntity
  8
TEXT
100
AcDbPolyline
 90
        2
 70
     0
 43
0.0001332181640625
 10
2.427354173577886
 20
0.478795794868584
 10
2.367405999749762
 20
0.4688044325638952
  0
LWPOLYLINE
  5
7DE1B343D9E0A79
330
7DE1B343D9E0B65
100
AcDbEntity
  8
TEXT
100
AcDbPolyline
 90
        2
 70
     0
 43
0.0001332181640625
 10
2.453997806390387
 20
0.438830345649836
 10
2.380727816156011
 20
0.4488217079545212
  0
LWPOLYLINE
  5
7DE1B343D9E0A7D
330
7DE1B343D9E0B65
100
AcDbEntity
  8
TEXT
100
AcDbPolyline
 90
        2
 70
     0
 43
0.0001332181640625
 10
2.427354173577886
 20
0.438830345649836
 10
2.367405999749762
 20
0.4488217079545212
  0
LWPOLYLINE
  5
7DE1B343D9E0A81
330
7DE1B343D9E0B65
100
AcDbEntity
  8
TEXT
100
AcDbPolyline
 90
        2
 70
     0
 43
0.0001332181640625
 10
2.427354173577886
 20
0.3522385390092093
 10
2.367405999749762
 20
0.412186712837335
  0
LWPOLYLINE
  5
7DE1B343D9E0A85
330
7DE1B343D9E0B65
100
AcDbEntity
  8
TEXT
100
AcDbPolyline
 90
        3
 70
     0
 43
0.0006660908203125
 10
2.340762366937261
 20
0.3522385390092093
 10
2.427354173577886
 20
0.3522385390092093
 10
2.427354173577886
 20
0.438830345649836
  0
LWPOLYLINE
  5
7DE1B343D9E0A8A
330
7DE1B343D9E0B65
100
AcDbEntity
  8
TEXT
100
AcDbPolyline
 90
        3
 70
     0
 43
0.0006660908203125
 10
2.340762366937261
 20
0.3255949061967083
 10
2.453997806390387
 20
0.3255949061967083
 10
2.453997806390387
 20
0.438830345649836
  0
LWPOLYLINE
  5
7DE1B343D9E0A8F
330
7DE1B343D9E0B65
100
AcDbEntity
  8
TEXT
100
AcDbPolyline
 90
        5
 70
     0
 43
0.0001332181640625
 10
2.3107882800232
 20
0.3988648964310844
 10
2.3107882800232
 20
0.412186712837335
 10
2.274153284906012
 20
0.412186712837335
 10
2.274153284906012
 20
0.4488217079545212
 10
2.260831468499762
 20
0.4488217079545212
  0
LWPOLYLINE
  5
7DE1B343D9E0A96
330
7DE1B343D9E0B65
100
AcDbEntity
  8
TEXT
100
AcDbPolyline
 90
        2
 70
     0
 43
0.0006660908203125
 10
2.30079691771851
 20
0.3522385390092093
 10
2.30079691771851
 20
0.3255949061967083
  0
LWPOLYLINE
  5
7DE1B343D9E0A9A
330
7DE1B343D9E0B65
100
AcDbEntity
  8
TEXT
100
AcDbPolyline
 90
        2
 70
     0
 43
0.0001332181640625
 10
2.30079691771851
 20
0.3522385390092093
 10
2.3107882800232
 20
0.412186712837335
  0
LWPOLYLINE
  5
7DE1B343D9E0A9E
330
7DE1B343D9E0B65
100
AcDbEntity
  8
TEXT
100
AcDbPolyline
 90
        2
 70
     0
 43
0.0001332181640625
 10
2.30079691771851
 20
0.3255949061967083
 10
2.3107882800232
 20
0.3988648964310844
  0
LWPOLYLINE
  5
7DE1B343D9E0AA2
330
7DE1B343D9E0B65
100
AcDbEntity
  8
TEXT
100
AcDbPolyline
 90
        5
 70
     0
 43
0.0001332181640625
 10
2.260831468499762
 20
0.4688044325638952
 10
2.27415328490601
 20
0.4688044325638952
 10
2.27415328490601
 20
0.505439427681085
 10
2.3107882800232
 20
0.505439427681085
 10
2.3107882800232
 20
0.518761244087332
  0
LWPOLYLINE
  5
7DE1B343D9E0AA9
330
7DE1B343D9E0B65
100
AcDbEntity
  8
TEXT
100
AcDbPolyline
 90
        5
 70
     0
 43
0.0001332181640625
 10
2.330771004632572
 20
0.518761244087332
 10
2.330771004632572
 20
0.505439427681085
 10
2.367405999749762
 20
0.505439427681085
 10
2.367405999749762
 20
0.4688044325638952
 10
2.380727816156011
 20
0.4688044325638952
  0
LWPOLYLINE
  5
7DE1B343D9E0AB0
330
7DE1B343D9E0B65
100
AcDbEntity
  8
TEXT
100
AcDbPolyline
 90
        2
 70
     0
 43
0.0001332181640625
 10
2.340762366937261
 20
0.3522385390092093
 10
2.330771004632572
 20
0.412186712837335
  0
LWPOLYLINE
  5
7DE1B343D9E0AB4
330
7DE1B343D9E0B65
100
AcDbEntity
  8
TEXT
100
AcDbPolyline
 90
        2
 70
     0
 43
0.0001332181640625
 10
2.330771004632572
 20
0.3988648964310844
 10
2.340762366937261
 20
0.3255949061967083
  0
LWPOLYLINE
  5
7DE1B343D9E0AB8
330
7DE1B343D9E0B65
100
AcDbEntity
  8
TEXT
100
AcDbPolyline
 90
        2
 70
     0
 43
0.0006660908203125
 10
2.340762366937261
 20
0.3522385390092093
 10
2.340762366937261
 20
0.3255949061967083
  0
LWPOLYLINE
  5
7DE1B343D9E0ABC
330
7DE1B343D9E0B65
100
AcDbEntity
  8
TEXT
100
AcDbPolyline
 90
        5
 70
     0
 43
0.0001332181640625
 10
2.380727816156011
 20
0.4488217079545212
 10
2.367405999749762
 20
0.4488217079545212
 10
2.367405999749762
 20
0.412186712837335
 10
2.330771004632572
 20
0.412186712837335
 10
2.330771004632572
 20
0.3988648964310844
  0
LWPOLYLINE
  5
7DE1B343D9E0AC3
330
7DE1B343D9E0B65
100
AcDbEntity
  8
TEXT
100
AcDbPolyline
 90
        2
 70
     0
 43
0.0006660908203125
 10
2.427354173577886
 20
0.478795794868584
 10
2.453997806390387
 20
0.478795794868584
  0
LWPOLYLINE
  5
7DE1B343D9E0AC7
330
7DE1B343D9E0B65
100
AcDbEntity
  8
TEXT
100
AcDbPolyline
 90
        2
 70
     0
 43
0.0006660908203125
 10
2.427354173577886
 20
0.438830345649836
 10
2.453997806390387
 20
0.438830345649836
  0
LINE
  5
7DE1B343D9E0ACB
330
7DE1B343D9E0B65
100
AcDbEntity
  8
TEXT
100
AcDbLine
 10
2.724111943238412
 20
0.5277545396649427
 30
0.0
 11
2.891017597267383
 21
0.5277545396649427
 31
0.0
  0
LINE
  5
7DE1B343D9E0ACC
330
7DE1B343D9E0B65
100
AcDbEntity
  8
TEXT
100
AcDbLine
 10
2.789712079482713
 20
0.4919498180543148
 30
0.0
 11
2.724111943238412
 21
0.4919498180543148
 31
0.0
  0
LINE
  5
7DE1B343D9E0ACD
330
7DE1B343D9E0B65
100
AcDbEntity
  8
TEXT
100
AcDbLine
 10
2.63678715367766
 20
0.325558201333197
 30
0.0
 11
2.789712079482713
 21
0.325558201333197
 31
0.0
  0
LINE
  5
7DE1B343D9E0ACE
330
7DE1B343D9E0B65
100
AcDbEntity
  8
TEXT
100
AcDbLine
 10
2.794652453388993
 20
0.3939152076666363
 30
0.0
 11
2.636787153677659
 21
0.3939152076666363
 31
0.0
  0
LINE
  5
7DE1B343D9E0ACF
330
7DE1B343D9E0B65
100
AcDbEntity
  8
TEXT
100
AcDbLine
 10
2.718874613124164
 20
0.427856315428701
 30
0.0
 11
2.794652453388993
 21
0.427856315428701
 31
0.0
  0
ARC
  5
7DE1B343D9E0AD0
330
7DE1B343D9E0B65
100
AcDbEntity
  8
TEXT
100
AcDbCircle
 10
2.724111943238413
 20
0.5098521788596305
 30
0.0
 40
0.017902360805315
100
AcDbArc
 50
90.0
 51
270.0
  0
LINE
  5
7DE1B343D9E0AD1
330
7DE1B343D9E0B65
100
AcDbEntity
  8
TEXT
100
AcDbLine
 10
2.636787153677659
 20
0.3939152076666363
 30
0.0
 11
2.63678715367766
 21
0.325558201333197
 31
0.0
  0
LINE
  5
7DE1B343D9E0AD2
330
7DE1B343D9E0B65
100
AcDbEntity
  8
TEXT
100
AcDbLine
 10
2.891017597267383
 20
0.5277545396649427
 30
0.0
 11
2.891017597267383
 21
0.3853505926712468
 31
0.0
  0
ARC
  5
7DE1B343D9E0AD3
330
7DE1B343D9E0B65
100
AcDbEntity
  8
TEXT
100
AcDbCircle
 10
2.789712079482714
 20
0.4087540096937542
 30
0.0
 40
0.0831958083605586
100
AcDbArc
 50
270.0
 51
90.0
  0
ARC
  5
7DE1B343D9E0AD4
330
7DE1B343D9E0B65
100
AcDbEntity
  8
TEXT
100
AcDbCircle
 10
2.794652453388994
 20
0.4108857615476705
 30
0.0
 40
0.0169705538810321
100
AcDbArc
 50
270.0
 51
90.0
  0
LWPOLYLINE
  5
7DE1B343D9E0AD5
330
7DE1B343D9E0B65
100
AcDbEntity
  8
TEXT
100
AcDbPolyline
 90
        2
 70
     0
 43
0.0006660908203125
 10
2.30079691771851
 20
0.5653876015092106
 10
2.30079691771851
 20
0.5920312343217116
  0
LWPOLYLINE
  5
7DE1B343D9E0AD9
330
7DE1B343D9E0B65
100
AcDbEntity
  8
TEXT
100
AcDbPolyline
 90
        2
 70
     0
 43
0.0006660908203125
 10
2.340762366937261
 20
0.5653876015092106
 10
2.340762366937261
 20
0.5920312343217116
  0
LINE
  5
7DE1B343D9E0ADD
330
7DE1B343D9E0B65
100
AcDbEntity
  8
TEXT
100
AcDbLine
 10
2.894606366022676
 20
0.5920312343217081
 30
0.0
 11
2.718874613124164
 21
0.5920312343217081
 31
0.0
  0
LINE
  5
7DE1B343D9E0ADE
330
7DE1B343D9E0B65
100
AcDbEntity
  8
TEXT
100
AcDbLine
 10
2.894606366022676
 20
0.6264191519158463
 30
0.0
 11
2.894606366022676
 21
0.5920312343217081
 31
0.0
  0
LINE
  5
7DE1B343D9E0ADF
330
7DE1B343D9E0B65
100
AcDbEntity
  8
TEXT
100
AcDbLine
 10
3.085078258042528
 20
0.4911592382085875
 30
0.0
 11
3.026447937010591
 21
0.5920312343217081
 31
0.0
  0
LINE
  5
7DE1B343D9E0AE0
330
7DE1B343D9E0B65
100
AcDbEntity
  8
TEXT
100
AcDbLine
 10
3.143826820848394
 20
0.5920312343217081
 30
0.0
 11
3.085078258042528
 21
0.4911592382085875
 31
0.0
  0
LINE
  5
7DE1B343D9E0AE1
330
7DE1B343D9E0B65
100
AcDbEntity
  8
TEXT
100
AcDbLine
 10
3.240757446208135
 20
0.4079460394361963
 30
0.0
 11
3.240757446208135
 21
0.6600427120605186
 31
0.0
  0
LINE
  5
7DE1B343D9E0AE2
330
7DE1B343D9E0B65
100
AcDbEntity
  8
TEXT
100
AcDbLine
 10
3.273069300345795
 20
0.5920312343217081
 30
0.0
 11
3.273069300345795
 21
0.3911670275892998
 31
0.0
  0
LINE
  5
7DE1B343D9E0AE3
330
7DE1B343D9E0B65
100
AcDbEntity
  8
TEXT
100
AcDbLine
 10
3.273069300345795
 20
0.3911670275892998
 30
0.0
 11
3.256075663461194
 21
0.3911670275892998
 31
0.0
  0
LINE
  5
7DE1B343D9E0AE4
330
7DE1B343D9E0B65
100
AcDbEntity
  8
TEXT
100
AcDbLine
 10
3.24189701970433
 20
0.325558201333197
 30
0.0
 11
3.339900353403765
 21
0.325558201333197
 31
0.0
  0
LINE
  5
7DE1B343D9E0AE5
330
7DE1B343D9E0B65
100
AcDbEntity
  8
TEXT
100
AcDbLine
 10
3.075478021045574
 20
0.3455167074382099
 30
0.0
 11
3.172777727139019
 21
0.5098669183734782
 31
0.0
  0
ARC
  5
7DE1B343D9E0AE6
330
7DE1B343D9E0B65
100
AcDbEntity
  8
TEXT
100
AcDbCircle
 10
3.04143446113336
 20
0.3651059236068928
 30
0.0
 40
0.0392772371940762
100
AcDbArc
 50
270.1604552698595
 51
330.0831797321295
  0
LINE
  5
7DE1B343D9E0AE7
330
7DE1B343D9E0B65
100
AcDbEntity
  8
TEXT
100
AcDbLine
 10
2.944904204747489
 20
0.325558201333197
 30
0.0
 11
3.041544455822483
 21
0.3258288404314793
 31
0.0
  0
LWPOLYLINE
  5
7DE1B343D9E0AE8
330
7DE1B343D9E0B65
100
AcDbEntity
  8
TEXT
100
AcDbPolyline
 90
        6
 70
     1
 43
0.0
 10
2.987428008322638
 20
0.5277545396649427
 10
2.95711141410243
 20
0.5277545396649427
 10
2.95711141410243
 20
0.4046435416100483
 42
0.407328721240804
 10
2.968655065263907
 20
0.3928246269336622
 10
3.029276764308638
 20
0.3928246269336622
 10
3.046742104715955
 20
0.4256368559771414
  0
LINE
  5
7DE1B343D9E0AF0
330
7DE1B343D9E0B65
100
AcDbEntity
  8
TEXT
100
AcDbLine
 10
3.172777727139019
 20
0.5098669183734782
 30
0.0
 11
3.172777727139019
 21
0.3771095435481218
 31
0.0
  0
ARC
  5
7DE1B343D9E0AF1
330
7DE1B343D9E0B65
100
AcDbEntity
  8
TEXT
100
AcDbCircle
 10
3.256075663461192
 20
0.4065488338327253
 30
0.0
 40
0.0153818062434269
100
AcDbArc
 50
174.7883570302258
 51
270.0
  0
LWPOLYLINE
  5
7DE1B343D9E0AF2
330
7DE1B343D9E0B65
100
AcDbEntity
  8
TEXT
100
AcDbPolyline
 90
        2
 70
     0
 43
0.0
 10
3.172777727139017
 20
0.3771095435481253
 42
0.3318488747599744
 10
3.24189701970433
 20
0.325558201333197
 42
-6.868794160588311
  0
LINE
  5
7DE1B343D9E0AF6
330
7DE1B343D9E0B65
100
AcDbEntity
  8
TEXT
100
AcDbLine
 10
3.397289422393026
 20
0.325558201333197
 30
0.0
 11
3.464347469174866
 21
0.325558201333197
 31
0.0
  0
LINE
  5
7DE1B343D9E0AF7
330
7DE1B343D9E0B65
100
AcDbEntity
  8
TEXT
100
AcDbLine
 10
3.397289422393026
 20
0.5202007504988327
 30
0.0
 11
3.397289422393026
 21
0.325558201333197
 31
0.0
  0
LINE
  5
7DE1B343D9E0AF8
330
7DE1B343D9E0B65
100
AcDbEntity
  8
TEXT
100
AcDbLine
 10
3.339900353403765
 20
0.5277545396649427
 30
0.0
 11
3.389735633226912
 21
0.5277545396649427
 31
0.0
  0
LINE
  5
7DE1B343D9E0AF9
330
7DE1B343D9E0B65
100
AcDbEntity
  8
TEXT
100
AcDbLine
 10
3.339900353403765
 20
0.325558201333197
 30
0.0
 11
3.339900353403765
 21
0.5277545396649427
 31
0.0
  0
LWPOLYLINE
  5
7DE1B343D9E0AFA
330
7DE1B343D9E0B65
100
AcDbEntity
  8
TEXT
100
AcDbPolyline
 90
        2
 70
     0
 43
0.0
 10
3.38973563322691
 20
0.5277545396649427
 42
-0.4142135623731017
 10
3.397289422393024
 20
0.5202007504988327
 42
-0.9999999999999998
  0
LINE
  5
7DE1B343D9E0AFE
330
7DE1B343D9E0B65
100
AcDbEntity
  8
TEXT
100
AcDbLine
 10
3.595545634004595
 20
0.5277545396649427
 30
0.0
 11
3.595545634004595
 21
0.452702133590736
 31
0.0
  0
LINE
  5
7DE1B343D9E0AFF
330
7DE1B343D9E0B65
100
AcDbEntity
  8
TEXT
100
AcDbLine
 10
3.464347469174866
 20
0.5277545396649427
 30
0.0
 11
3.518481066095816
 21
0.5277545396649427
 31
0.0
  0
LINE
  5
7DE1B343D9E0B00
330
7DE1B343D9E0B65
100
AcDbEntity
  8
TEXT
100
AcDbLine
 10
3.464347469174866
 20
0.325558201333197
 30
0.0
 11
3.464347469174866
 21
0.5277545396649427
 31
0.0
  0
LWPOLYLINE
  5
7DE1B343D9E0B01
330
7DE1B343D9E0B65
100
AcDbEntity
  8
TEXT
100
AcDbPolyline
 90
        2
 70
     0
 43
0.0
 10
3.518481066095814
 20
0.5277545396649427
 42
-0.4142135623731017
 10
3.526034855261928
 20
0.5202007504988327
 42
-0.9999999999999998
  0
LWPOLYLINE
  5
7DE1B343D9E0B05
330
7DE1B343D9E0B65
100
AcDbEntity
  8
TEXT
100
AcDbPolyline
 90
        4
 70
     0
 43
0.0
 10
3.526034855261928
 20
0.5202007504988327
 10
3.526034855261928
 20
0.325558201333197
 10
3.594513138549785
 20
0.325558201333197
 10
3.594513138549785
 20
0.3690491462836352
 42
-1.714843617202739
  0
LINE
  5
7DE1B343D9E0B0B
330
7DE1B343D9E0B65
100
AcDbEntity
  8
TEXT
100
AcDbLine
 10
2.954648970866683
 20
0.5920312343217081
 30
0.0
 11
2.954648970866683
 21
0.6264191519158463
 31
0.0
  0
LINE
  5
7DE1B343D9E0B0C
330
7DE1B343D9E0B65
100
AcDbEntity
  8
TEXT
100
AcDbLine
 10
3.026447937010591
 20
0.5920312343217081
 30
0.0
 11
2.954648970866683
 21
0.5920312343217081
 31
0.0
  0
LINE
  5
7DE1B343D9E0B0D
330
7DE1B343D9E0B65
100
AcDbEntity
  8
TEXT
100
AcDbLine
 10
3.17394873364177
 20
0.5920312343217081
 30
0.0
 11
3.143826820848394
 21
0.5920312343217081
 31
0.0
  0
LINE
  5
7DE1B343D9E0B0E
330
7DE1B343D9E0B65
100
AcDbEntity
  8
TEXT
100
AcDbLine
 10
3.17394873364177
 20
0.6600427120605186
 30
0.0
 11
3.17394873364177
 21
0.5920312343217081
 31
0.0
  0
LINE
  5
7DE1B343D9E0B0F
330
7DE1B343D9E0B65
100
AcDbEntity
  8
TEXT
100
AcDbLine
 10
3.240757446208135
 20
0.6600427120605186
 30
0.0
 11
3.17394873364177
 21
0.6600427120605186
 31
0.0
  0
LWPOLYLINE
  5
7DE1B343D9E0B10
330
7DE1B343D9E0B65
100
AcDbEntity
  8
TEXT
100
AcDbPolyline
 90
        3
 70
     0
 43
0.0
 10
3.561169205806137
 20
0.5920312343217116
 10
3.442869046990093
 20
0.5920312343217116
 10
3.442869046990093
 20
0.5648637375608157
 42
-1.960274751411753
  0
LINE
  5
7DE1B343D9E0B15
330
7DE1B343D9E0B65
100
AcDbEntity
  8
TEXT
100
AcDbLine
 10
3.407087356276932
 20
0.5920312343217081
 30
0.0
 11
3.273069300345795
 21
0.5920312343217081
 31
0.0
  0
LWPOLYLINE
  5
7DE1B343D9E0B16
330
7DE1B343D9E0B65
100
AcDbEntity
  8
TEXT
100
AcDbPolyline
 90
        2
 70
     0
 43
0.0
 10
3.407087356276932
 20
0.5920312343217116
 42
-0.3328679258950098
 10
3.442869046990093
 20
0.5648637375608157
 42
6.772930709997214
  0
LINE
  5
7DE1B343D9E0B1A
330
7DE1B343D9E0B65
100
AcDbEntity
  8
TEXT
100
AcDbLine
 10
3.596950896519304
 20
0.5920312343217081
 30
0.0
 11
3.596950896519304
 21
0.5637086885520642
 31
0.0
  0
LWPOLYLINE
  5
7DE1B343D9E0B1B
330
7DE1B343D9E0B65
100
AcDbEntity
  8
TEXT
100
AcDbPolyline
 90
        2
 70
     0
 43
0.0
 10
3.561169205806137
 20
0.5920312343217116
 42
-0.3277054968067132
 10
3.596950896519302
 20
0.5637086885520678
 42
6.667889725900311
  0
LINE
  5
7DE1B343D9E0B1F
330
7DE1B343D9E0B65
100
AcDbEntity
  8
TEXT
100
AcDbLine
 10
3.810742744611404
 20
0.4868192557682808
 30
0.0
 11
3.766991973429503
 21
0.569069531764426
 31
0.0
  0
LINE
  5
7DE1B343D9E0B20
330
7DE1B343D9E0B65
100
AcDbEntity
  8
TEXT
100
AcDbLine
 10
3.810742744611404
 20
0.5920312343217081
 30
0.0
 11
3.810742744611404
 21
0.4868192557682808
 31
0.0
  0
LINE
  5
7DE1B343D9E0B21
330
7DE1B343D9E0B65
100
AcDbEntity
  8
TEXT
100
AcDbLine
 10
4.038426483549773
 20
0.51616590791017
 30
0.0
 11
4.038426483549773
 21
0.6574954400893088
 31
0.0
  0
LINE
  5
7DE1B343D9E0B22
330
7DE1B343D9E0B65
100
AcDbEntity
  8
TEXT
100
AcDbLine
 10
4.085524642105758
 20
0.5920312343217081
 30
0.0
 11
4.038426483549773
 21
0.51616590791017
 31
0.0
  0
LINE
  5
7DE1B343D9E0B23
330
7DE1B343D9E0B65
100
AcDbEntity
  8
TEXT
100
AcDbLine
 10
4.095959358869681
 20
0.4821379913807345
 30
0.0
 11
4.160516474835386
 21
0.5920312343217081
 31
0.0
  0
LINE
  5
7DE1B343D9E0B24
330
7DE1B343D9E0B65
100
AcDbEntity
  8
TEXT
100
AcDbLine
 10
3.974591492327
 20
0.325558201333197
 30
0.0
 11
4.038969676645621
 21
0.325558201333197
 31
0.0
  0
LWPOLYLINE
  5
7DE1B343D9E0B25
330
7DE1B343D9E0B65
100
AcDbEntity
  8
TEXT
100
AcDbPolyline
 90
        2
 70
     0
 43
0.0
 10
3.814682421916442
 20
0.3690491462836352
 42
-0.2901071551932486
 10
3.771606489048798
 20
0.325558201333197
 42
-5.328517124445184
  0
ARC
  5
7DE1B343D9E0B29
330
7DE1B343D9E0B65
100
AcDbEntity
  8
TEXT
100
AcDbCircle
 10
3.702751907391883
 20
0.4993951646649454
 30
0.0
 40
0.028359375
100
AcDbArc
 50
25.78218179591245
 51
90.0
  0
LINE
  5
7DE1B343D9E0B2A
330
7DE1B343D9E0B65
100
AcDbEntity
  8
TEXT
100
AcDbLine
 10
3.738552982696006
 20
0.4904795662028104
 30
0.0
 11
3.728288222282442
 21
0.5117301057755047
 31
0.0
  0
LINE
  5
7DE1B343D9E0B2B
330
7DE1B343D9E0B65
100
AcDbEntity
  8
TEXT
100
AcDbLine
 10
3.656264992912623
 20
0.4904795662028104
 30
0.0
 11
3.738552982696006
 21
0.4904795662028104
 31
0.0
  0
LWPOLYLINE
  5
7DE1B343D9E0B2C
330
7DE1B343D9E0B65
100
AcDbEntity
  8
TEXT
100
AcDbPolyline
 90
        4
 70
     1
 43
0.0
 10
3.751484023978905
 20
0.4285221793172223
 10
3.662823705319047
 20
0.4285221793172223
 42
0.9999999999999998
 10
3.662823705319047
 20
0.3861236388133615
 10
3.751484023978905
 20
0.3861236388133615
 42
1.0
  0
LWPOLYLINE
  5
7DE1B343D9E0B32
330
7DE1B343D9E0B65
100
AcDbEntity
  8
TEXT
100
AcDbPolyline
 90
        2
 70
     0
 43
0.0
 10
3.637589071417421
 20
0.325558201333197
 10
3.771606489048798
 20
0.325558201333197
 42
0.9999999999999998
  0
LINE
  5
7DE1B343D9E0B36
330
7DE1B343D9E0B65
100
AcDbEntity
  8
TEXT
100
AcDbLine
 10
3.897943511034437
 20
0.5277545396649427
 30
0.0
 11
3.974591492326995
 21
0.5277545396649427
 31
0.0
  0
LINE
  5
7DE1B343D9E0B37
330
7DE1B343D9E0B65
100
AcDbEntity
  8
TEXT
100
AcDbLine
 10
3.974591492326995
 20
0.5277545396649427
 30
0.0
 11
3.974591492327
 21
0.325558201333197
 31
0.0
  0
ARC
  5
7DE1B343D9E0B38
330
7DE1B343D9E0B65
100
AcDbEntity
  8
TEXT
100
AcDbCircle
 10
3.897943511034435
 20
0.5028486643822799
 30
0.0
 40
0.0249058752826653
100
AcDbArc
 50
89.99971217465335
 51
179.9999999999985
  0
LINE
  5
7DE1B343D9E0B39
330
7DE1B343D9E0B65
100
AcDbEntity
  8
TEXT
100
AcDbLine
 10
3.873037635751778
 20
0.325558201333197
 30
0.0
 11
3.873037635751773
 21
0.5028487067646655
 31
0.0
  0
LWPOLYLINE
  5
7DE1B343D9E0B3A
330
7DE1B343D9E0B65
100
AcDbEntity
  8
TEXT
100
AcDbPolyline
 90
        2
 70
     0
 43
0.0
 10
3.814682421916442
 20
0.325558201333197
 10
3.873037635751776
 20
0.325558201333197
  0
LWPOLYLINE
  5
7DE1B343D9E0B3E
330
7DE1B343D9E0B65
100
AcDbEntity
  8
TEXT
100
AcDbPolyline
 90
        2
 70
     0
 43
0.0
 10
3.814682421916442
 20
0.3690491462836352
 10
3.814682421916442
 20
0.325558201333197
  0
LINE
  5
7DE1B343D9E0B42
330
7DE1B343D9E0B65
100
AcDbEntity
  8
TEXT
100
AcDbLine
 10
4.191451582233291
 20
0.325558201333197
 30
0.0
 11
4.095959358869681
 21
0.4821379913807345
 31
0.0
  0
LINE
  5
7DE1B343D9E0B43
330
7DE1B343D9E0B65
100
AcDbEntity
  8
TEXT
100
AcDbLine
 10
4.114873209857085
 20
0.325558201333197
 30
0.0
 11
4.191451582233291
 21
0.325558201333197
 31
0.0
  0
LINE
  5
7DE1B343D9E0B44
330
7DE1B343D9E0B65
100
AcDbEntity
  8
TEXT
100
AcDbLine
 10
4.038969676645621
 20
0.4571377698093773
 30
0.0
 11
4.114873209857085
 21
0.325558201333197
 31
0.0
  0
LINE
  5
7DE1B343D9E0B45
330
7DE1B343D9E0B65
100
AcDbEntity
  8
TEXT
100
AcDbLine
 10
4.038969676645621
 20
0.325558201333197
 30
0.0
 11
4.038969676645621
 21
0.4571377698093773
 31
0.0
  0
LINE
  5
7DE1B343D9E0B46
330
7DE1B343D9E0B65
100
AcDbEntity
  8
TEXT
100
AcDbLine
 10
4.038426483549773
 20
0.6574954400893088
 30
0.0
 11
3.9701116050005
 21
0.6574954400893088
 31
0.0
  0
ARC
  5
7DE1B343D9E0B47
330
7DE1B343D9E0B65
100
AcDbEntity
  8
TEXT
100
AcDbCircle
 10
3.729755865959294
 20
0.5504476672008057
 30
0.0
 40
0.0416329381542859
100
AcDbArc
 50
26.56974201007528
 51
87.20939649401342
  0
LINE
  5
7DE1B343D9E0B48
330
7DE1B343D9E0B65
100
AcDbEntity
  8
TEXT
100
AcDbLine
 10
3.874639650910905
 20
0.5920312343217081
 30
0.0
 11
3.810742744611404
 21
0.5920312343217081
 31
0.0
  0
LINE
  5
7DE1B343D9E0B49
330
7DE1B343D9E0B65
100
AcDbEntity
  8
TEXT
100
AcDbLine
 10
3.874639650910905
 20
0.5644835844608334
 30
0.0
 11
3.874639650910905
 21
0.5920312343217081
 31
0.0
  0
ARC
  5
7DE1B343D9E0B4A
330
7DE1B343D9E0B65
100
AcDbEntity
  8
TEXT
100
AcDbCircle
 10
3.905832467974013
 20
0.5607855070394433
 30
0.0
 40
0.0314112657011332
100
AcDbArc
 50
95.88484768694724
 51
173.2388340632136
  0
LINE
  5
7DE1B343D9E0B4B
330
7DE1B343D9E0B65
100
AcDbEntity
  8
TEXT
100
AcDbLine
 10
3.970111605000495
 20
0.5920312343217081
 30
0.0
 11
3.902611887350978
 21
0.5920312343217081
 31
0.0
  0
LINE
  5
7DE1B343D9E0B4C
330
7DE1B343D9E0B65
100
AcDbEntity
  8
TEXT
100
AcDbLine
 10
3.9701116050005
 20
0.6574954400893088
 30
0.0
 11
3.970111605000495
 21
0.5920312343217081
 31
0.0
  0
LINE
  5
7DE1B343D9E0B4D
330
7DE1B343D9E0B65
100
AcDbEntity
  8
TEXT
100
AcDbLine
 10
4.160516474835386
 20
0.5920312343217081
 30
0.0
 11
4.08552464210576
 21
0.5920312343217081
 31
0.0
  0
INSERT
  5
7DE1B343D9E0B80
330
7DE1B343D9E0B65
100
AcDbEntity
  8
ASHADE
 62
     1
100
AcDbBlockReference
  2
AVE_RENDER
 10
0.0
 20
0.0
 30
0.0
1001
AVE_RENDER
1002
{
1070
     6
1000
Pref
1070
    30
1070
    20
1070
     1
1070
     0
1000

1070
    10
1070
     1
1070
    30
1040
1.0
1070
     1
1040
0.3
1040
0.7
1040
0.0
1040
10.0
1010
-1.0
1020
-1.0
1030
-1.0
1040
0.3
1070
    49
1070
     0
1070
     0
1010
1.0
1020
1.0
1030
1.0
1040
45.0
1070
     1
1070
     0
1000
WCS
1040
0.0
1002
}
  0
INSERT
  5
7DE1B343D9E0B81
330
7DE1B343D9E0B65
100
AcDbEntity
  8
ASHADE
 62
     3
100
AcDbBlockReference
  2
AVE_RENDER
 10
0.0
 20
0.0
 30
0.0
1001
AVE_RENDER
1002
{
1070
     0
1000
Full Opt
1070
     0
1070
     1
1070
     1
1070
     1
1070
     0
1070
     0
1070
     0
1070
     1
1070
     1
1040
0.0001
1040
0.0001
1002
}
  0
INSERT
  5
7DE1B343D9E0B82
330
7DE1B343D9E0B65
100
AcDbEntity
  8
ASHADE
 62
     4
100
AcDbBlockReference
  2
AVE_RENDER
 10
0.0
 20
0.0
 30
0.0
1001
AVE_RENDER
1002
{
1070
     0
1000
Quick Opt
1070
     0
1070
     1
1070
     1
1070
     1
1070
     0
1070
     0
1070
     1
1002
}
  0
INSERT
  5
7DE1B343D9E0B83
330
7DE1B343D9E0B65
100
AcDbEntity
  8
ASHADE
 62
     5
100
AcDbBlockReference
  2
AVE_RENDER
 10
0.0
 20
0.0
 30
0.0
1001
AVE_RENDER
1002
{
1070
     1
1000
Scanl Opt
1070
     2
1070
     0
1070
     2
1040
2.0
1040
4.0
1070
     0
1070
     1
1070
     0
1040
0.03
1002
}
  0
INSERT
  5
7DE1B343D9E0B84
330
7DE1B343D9E0B65
100
AcDbEntity
  8
ASHADE
 62
     6
100
AcDbBlockReference
  2
AVE_RENDER
 10
0.0
 20
0.0
 30
0.0
1001
AVE_RENDER
1002
{
1070
     2
1000
Raytr Opt
1070
     2
1070
     0
1070
     2
1040
2.0
1040
4.0
1070
     0
1070
     1
1070
     1
1040
0.03
1070
     3
1040
0.03
1002
}
  0
INSERT
  5
7DE1B343D9E0B85
330
7DE1B343D9E0B65
100
AcDbEntity
  8
ASHADE
 62
     7
100
AcDbBlockReference
  2
AVE_RENDER
 10
0.0
 20
0.0
 30
0.0
1001
AVE_RENDER
1002
{
1070
     0
1000
RFile Opt
1070
     5
1070
   640
1070
   480
1070
 10000
1070
     3
1070
    32
1070
    24
1070
     0
1070
     0
1070
     0
1070
     1
1070
     0
1070
     0
1070
     0
1002
}
  0
INSERT
  5
7DE1B343D9E0B86
330
7DE1B343D9E0B65
100
AcDbEntity
  8
ASHADE
 62
     8
100
AcDbBlockReference
  2
AVE_RENDER
 10
0.0
 20
0.0
 30
0.0
1001
AVE_RENDER
1002
{
1070
     0
1000
Fog Opt
1070
     0
1070
     0
1040
0.0
1040
1.0
1040
0.0
1040
1.0
1010
0.5
1020
0.5
1030
0.5
1002
}
  0
INSERT
  5
7DE1B343D9E0B87
330
7DE1B343D9E0B65
100
AcDbEntity
  8
ASHADE
 62
     9
100
AcDbBlockReference
  2
AVE_RENDER
 10
0.0
 20
0.0
 30
0.0
1001
AVE_RENDER
1002
{
1070
     0
1000
BG Opt
1070
     0
1070
     1
1010
0.0
1020
0.0
1030
0.0
1010
1.0
1020
0.0
1030
0.0
1010
0.0
1020
1.0
1030
0.0
1010
0.0
1020
0.0
1030
1.0
1040
0.5
1040
0.33
1040
0.0
1000

1070
     1
1000

1070
     1
1070
     1
1040
1.0
1040
1.0
1040
0.0
1040
0.0
1070
     0
1002
}
  0
INSERT
  5
7DE1B343D9E0B8E
330
7DE1B343D9E0B65
100
AcDbEntity
  8
ASHADE
 62
     1
100
AcDbBlockReference
  2
AVE_GLOBAL
 10
0.0
 20
0.0
 30
0.0
1001
AVE_MATERIAL
1002
{
1000
*GLOBAL*
1000
1
1000
Global finish.
1002
{
1002
}
1002
{
1070
    63
1002
{
1002
{
1010
-1.0
1020
-1.0
1030
-1.0
1002
}
1040
0.1000000014901161
1000

1040
0.0
1002
{
1002
}
1040
0.0
1002
{
1002
}
1040
0.0
1002
}
1002
{
1002
{
1010
-1.0
1020
-1.0
1030
-1.0
1002
}
1040
0.6999999880790711
1000

1040
0.0
1002
{
1002
}
1040
0.0
1002
{
1002
}
1040
0.0
1002
}
1002
{
1002
{
1010
-1.0
1020
-1.0
1030
-1.0
1002
}
1040
0.2000000029802322
1000

1040
0.0
1002
{
1002
}
1040
0.0
1002
{
1002
}
1040
0.0
1002
}
1002
{
1070
     0
1002
{
1070
     1
1002
{
1040
1.0
1040
1.0
1000

1040
0.0
1002
{
1002
}
1040
0.0
1002
{
1002
}
1040
0.0
1002
}
1002
}
1040
1.0
1040
0.0
1040
0.0
1002
}
1002
{
1040
1.0
1040
1.0
1000

1040
0.0
1002
{
1002
}
1040
0.0
1002
{
1002
}
1040
0.0
1002
}
1002
{
1040
0.5
1040
1.0
1000

1040
0.0
1002
{
1002
}
1040
0.0
1002
{
1002
}
1040
0.0
1002
}
1002
{
1070
     0
1040
0.0
1002
{
1002
}
1040
1.0
1002
{
1002
}
1040
0.0
1002
}
1002
{
1040
0.0
1002
{
1002
{
1010
0.0
1020
0.0
1030
0.0
1002
}
1040
1.0
1000

1040
0.0
1002
{
1002
}
1040
0.0
1002
{
1002
}
1040
0.0
1002
}
1002
}
1002
{
1002
{
1070
     1
1002
{
1040
0.0
1040
1.0
1000

1040
0.0
1002
{
1002
}
1040
0.0
1002
{
1002
}
1040
0.0
1002
}
1002
}
1040
0.0
1002
{
1002
}
1010
1.0
1020
0.0
1030
0.0
1010
0.0
1020
1.0
1030
0.0
1010
0.0
1020
0.0
1030
1.0
1070
     0
1002
}
1002
{
1002
{
1040
1.0
1040
1.0
1002
{
1070
     1
1002
{
1040
1.0
1040
1.0
1000

1040
0.0
1002
{
1002
}
1040
0.0
1002
{
1002
}
1040
0.0
1002
}
1002
}
1002
}
1070
     0
1040
0.0
1002
{
1002
}
1002
}
1002
{
1002
}
1002
}
1002
{
1071
        3
1070
     3
1070
     0
1002
{
1070
     2
1070
     0
1070
     0
1040
0.0
1002
}
1070
     0
1070
     2
1002
{
1002
}
1002
}
1002
{
1040
8030.0
1040
190.3000030517578
1040
0.3050000071525574
1040
228.0
1040
545.0
1040
14.0
1040
17.39999961853027
1040
0.4560000002384186
1002
}
1002
}
  0
ENDSEC
  0
SECTION
  2
OBJECTS
  0
DICTIONARY
  5
7DE1B343D9E0B59
330
0
100
AcDbDictionary
  3
ACAD_GROUP
350
7DE1B343D9E0B5A
  3
ACAD_LAYOUT
350
7DE1B343D9E0B9A
  3
ACAD_MLINESTYLE
350
7DE1B343D9E0B5B
  3
ACAD_PLOTSETTINGS
350
7DE1B343D9E0B9B
  3
ACAD_PLOTSTYLENAME
350
7DE1B343D9E0B98
  3
ACDBHEADERROUNDTRIPXREC
350
7DE1B343D9E0BA5
  3
ACDBVARIABLEDICTIONARY
350
7DE1B343D9E0BA2
  0
DICTIONARY
  5
7DE1B343D9E0BC7
330
7DE1B343D9E0B65
100
AcDbDictionary
280
     1
  3
ACAD_LAYOUTSELFREF
360
7DE1B343D9E0BC8
  0
DICTIONARY
  5
7DE1B343D9E0BC5
330
7DE1B343D9E0B62
100
AcDbDictionary
280
     1
  3
ACAD_LAYOUTSELFREF
360
7DE1B343D9E0BC6
  0
DICTIONARY
  5
7DE1B343D9E0B5A
102
{ACAD_REACTORS
330
7DE1B343D9E0B59
102
}
330
7DE1B343D9E0B59
100
AcDbDictionary
  0
DICTIONARY
  5
7DE1B343D9E0B9A
102
{ACAD_REACTORS
330
7DE1B343D9E0B59
102
}
330
7DE1B343D9E0B59
100
AcDbDictionary
  0
DICTIONARY
  5
7DE1B343D9E0B5B
102
{ACAD_REACTORS
330
7DE1B343D9E0B59
102
}
330
7DE1B343D9E0B59
100
AcDbDictionary
  3
STANDARD
350
7DE1B343D9E0B68
  0
DICTIONARY
  5
7DE1B343D9E0B9B
102
{ACAD_REACTORS
330
7DE1B343D9E0B59
102
}
330
7DE1B343D9E0B59
100
AcDbDictionary
  0
ACDBDICTIONARYWDFLT
  5
7DE1B343D9E0B98
102
{ACAD_REACTORS
330
7DE1B343D9E0B59
102
}
330
7DE1B343D9E0B59
100
AcDbDictionary
281
     1
  3
Normal
350
7DE1B343D9E0B99
100
AcDbDictionaryWithDefault
340
7DE1B343D9E0B99
  0
DICTIONARY
  5
7DE1B343D9E0BA5
102
{ACAD_REACTORS
330
7DE1B343D9E0B59
102
}
330
7DE1B343D9E0B59
100
AcDbDictionary
  3
CEPSNTYPE
350
7DE1B343D9E0BAF
  3
FINGERPRINTGUID
350
7DE1B343D9E0BB0
  3
HYPERLINKBASE
350
7DE1B343D9E0BA8
  3
INSUNITS
350
7DE1B343D9E0BAE
  3
LAYOUTDICT
350
7DE1B343D9E0BAA
  3
LWETCUNION
350
7DE1B343D9E0BAD
  3
PLOTSETDICT
350
7DE1B343D9E0BAB
  3
PLOTSTYLNAMDICT
350
7DE1B343D9E0BAC
  3
PSVPSCALE
350
7DE1B343D9E0BB2
  3
PUCSBASE
350
7DE1B343D9E0BB5
  3
PUCSORGBACK
350
7DE1B343D9E0BBB
  3
PUCSORGBOTTOM
350
7DE1B343D9E0BB7
  3
PUCSORGFRONT
350
7DE1B343D9E0BBA
  3
PUCSORGLEFT
350
7DE1B343D9E0BB8
  3
PUCSORGRIGHT
350
7DE1B343D9E0BB9
  3
PUCSORGTOP
350
7DE1B343D9E0BB6
  3
PUCSORTHOREF
350
7DE1B343D9E0BB3
  3
PUCSORTHOVIEW
350
7DE1B343D9E0BB4
  3
STYLESHEET
350
7DE1B343D9E0BA9
  3
TSTACKALIGN
350
7DE1B343D9E0BA6
  3
TSTACKSIZE
350
7DE1B343D9E0BA7
  3
UCSBASE
350
7DE1B343D9E0BBE
  3
UCSORGBACK
350
7DE1B343D9E0BC4
  3
UCSORGBOTTOM
350
7DE1B343D9E0BC0
  3
UCSORGFRONT
350
7DE1B343D9E0BC3
  3
UCSORGLEFT
350
7DE1B343D9E0BC1
  3
UCSORGRIGHT
350
7DE1B343D9E0BC2
  3
UCSORGTOP
350
7DE1B343D9E0BBF
  3
UCSORTHOREF
350
7DE1B343D9E0BBC
  3
UCSORTHOVIEW
350
7DE1B343D9E0BBD
  3
VERSIONGUID
350
7DE1B343D9E0BB1
  0
DICTIONARY
  5
7DE1B343D9E0BA2
102
{ACAD_REACTORS
330
7DE1B343D9E0B59
102
}
330
7DE1B343D9E0B59
100
AcDbDictionary
  3
DIMASSOC
350
7DE1B343D9E0BA3
  0
XRECORD
  5
7DE1B343D9E0BC8
102
{ACAD_REACTORS
330
7DE1B343D9E0BC7
102
}
330
7DE1B343D9E0BC7
100
AcDbXrecord
340
7DE1B343D9E0B65
  0
XRECORD
  5
7DE1B343D9E0BC6
102
{ACAD_REACTORS
330
7DE1B343D9E0BC5
102
}
330
7DE1B343D9E0BC5
100
AcDbXrecord
340
7DE1B343D9E0B62
  0
MLINESTYLE
  5
7DE1B343D9E0B68
102
{ACAD_REACTORS
330
7DE1B343D9E0B5B
102
}
330
7DE1B343D9E0B5B
100
AcDbMlineStyle
  2
STANDARD
 70
     0
  3

 62
     0
 51
90.0
 52
90.0
 71
     2
 49
0.5
 62
   256
  6
BYLAYER
 49
-0.5
 62
   256
  6
BYLAYER
  0
ACDBPLACEHOLDER
  5
7DE1B343D9E0B99
102
{ACAD_REACTORS
330
7DE1B343D9E0B98
102
}
330
7DE1B343D9E0B98
100
AcDbPlaceHolder
280
     0
  0
XRECORD
  5
7DE1B343D9E0BAF
102
{ACAD_REACTORS
330
7DE1B343D9E0BA5
102
}
330
7DE1B343D9E0BA5
100
AcDbXrecord
 90
        0
  0
XRECORD
  5
7DE1B343D9E0BB0
102
{ACAD_REACTORS
330
7DE1B343D9E0BA5
102
}
330
7DE1B343D9E0BA5
100
AcDbXrecord
  1
{696A9D50-8DB5-11D6-88E6-0090279574E7}
  0
XRECORD
  5
7DE1B343D9E0BA8
102
{ACAD_REACTORS
330
7DE1B343D9E0BA5
102
}
330
7DE1B343D9E0BA5
100
AcDbXrecord
  1

  0
XRECORD
  5
7DE1B343D9E0BAE
102
{ACAD_REACTORS
330
7DE1B343D9E0BA5
102
}
330
7DE1B343D9E0BA5
100
AcDbXrecord
 90
        0
  0
XRECORD
  5
7DE1B343D9E0BAA
102
{ACAD_REACTORS
330
7DE1B343D9E0BA5
102
}
330
7DE1B343D9E0BA5
100
AcDbXrecord
340
7DE1B343D9E0B9A
  0
XRECORD
  5
7DE1B343D9E0BAD
102
{ACAD_REACTORS
330
7DE1B343D9E0BA5
102
}
330
7DE1B343D9E0BA5
100
AcDbXrecord
 90
    14877
  0
XRECORD
  5
7DE1B343D9E0BAB
102
{ACAD_REACTORS
330
7DE1B343D9E0BA5
102
}
330
7DE1B343D9E0BA5
100
AcDbXrecord
340
7DE1B343D9E0B9B
  0
XRECORD
  5
7DE1B343D9E0BAC
102
{ACAD_REACTORS
330
7DE1B343D9E0BA5
102
}
330
7DE1B343D9E0BA5
100
AcDbXrecord
340
7DE1B343D9E0B98
  0
XRECORD
  5
7DE1B343D9E0BB2
102
{ACAD_REACTORS
330
7DE1B343D9E0BA5
102
}
330
7DE1B343D9E0BA5
100
AcDbXrecord
 40
0.0
  0
XRECORD
  5
7DE1B343D9E0BB5
102
{ACAD_REACTORS
330
7DE1B343D9E0BA5
102
}
330
7DE1B343D9E0BA5
100
AcDbXrecord
340
0
  0
XRECORD
  5
7DE1B343D9E0BBB
102
{ACAD_REACTORS
330
7DE1B343D9E0BA5
102
}
330
7DE1B343D9E0BA5
100
AcDbXrecord
 10
0.0
 20
0.0
 30
0.0
  0
XRECORD
  5
7DE1B343D9E0BB7
102
{ACAD_REACTORS
330
7DE1B343D9E0BA5
102
}
330
7DE1B343D9E0BA5
100
AcDbXrecord
 10
0.0
 20
0.0
 30
0.0
  0
XRECORD
  5
7DE1B343D9E0BBA
102
{ACAD_REACTORS
330
7DE1B343D9E0BA5
102
}
330
7DE1B343D9E0BA5
100
AcDbXrecord
 10
0.0
 20
0.0
 30
0.0
  0
XRECORD
  5
7DE1B343D9E0BB8
102
{ACAD_REACTORS
330
7DE1B343D9E0BA5
102
}
330
7DE1B343D9E0BA5
100
AcDbXrecord
 10
0.0
 20
0.0
 30
0.0
  0
XRECORD
  5
7DE1B343D9E0BB9
102
{ACAD_REACTORS
330
7DE1B343D9E0BA5
102
}
330
7DE1B343D9E0BA5
100
AcDbXrecord
 10
0.0
 20
0.0
 30
0.0
  0
XRECORD
  5
7DE1B343D9E0BB6
102
{ACAD_REACTORS
330
7DE1B343D9E0BA5
102
}
330
7DE1B343D9E0BA5
100
AcDbXrecord
 10
0.0
 20
0.0
 30
0.0
  0
XRECORD
  5
7DE1B343D9E0BB3
102
{ACAD_REACTORS
330
7DE1B343D9E0BA5
102
}
330
7DE1B343D9E0BA5
100
AcDbXrecord
340
0
  0
XRECORD
  5
7DE1B343D9E0BB4
102
{ACAD_REACTORS
330
7DE1B343D9E0BA5
102
}
330
7DE1B343D9E0BA5
100
AcDbXrecord
 70
     0
  0
XRECORD
  5
7DE1B343D9E0BA9
102
{ACAD_REACTORS
330
7DE1B343D9E0BA5
102
}
330
7DE1B343D9E0BA5
100
AcDbXrecord
  1

  0
XRECORD
  5
7DE1B343D9E0BA6
102
{ACAD_REACTORS
330
7DE1B343D9E0BA5
102
}
330
7DE1B343D9E0BA5
100
AcDbXrecord
 90
        1
  0
XRECORD
  5
7DE1B343D9E0BA7
102
{ACAD_REACTORS
330
7DE1B343D9E0BA5
102
}
330
7DE1B343D9E0BA5
100
AcDbXrecord
 90
       70
  0
XRECORD
  5
7DE1B343D9E0BBE
102
{ACAD_REACTORS
330
7DE1B343D9E0BA5
102
}
330
7DE1B343D9E0BA5
100
AcDbXrecord
340
0
  0
XRECORD
  5
7DE1B343D9E0BC4
102
{ACAD_REACTORS
330
7DE1B343D9E0BA5
102
}
330
7DE1B343D9E0BA5
100
AcDbXrecord
 10
0.0
 20
0.0
 30
0.0
  0
XRECORD
  5
7DE1B343D9E0BC0
102
{ACAD_REACTORS
330
7DE1B343D9E0BA5
102
}
330
7DE1B343D9E0BA5
100
AcDbXrecord
 10
0.0
 20
0.0
 30
0.0
  0
XRECORD
  5
7DE1B343D9E0BC3
102
{ACAD_REACTORS
330
7DE1B343D9E0BA5
102
}
330
7DE1B343D9E0BA5
100
AcDbXrecord
 10
0.0
 20
0.0
 30
0.0
  0
XRECORD
  5
7DE1B343D9E0BC1
102
{ACAD_REACTORS
330
7DE1B343D9E0BA5
102
}
330
7DE1B343D9E0BA5
100
AcDbXrecord
 10
0.0
 20
0.0
 30
0.0
  0
XRECORD
  5
7DE1B343D9E0BC2
102
{ACAD_REACTORS
330
7DE1B343D9E0BA5
102
}
330
7DE1B343D9E0BA5
100
AcDbXrecord
 10
0.0
 20
0.0
 30
0.0
  0
XRECORD
  5
7DE1B343D9E0BBF
102
{ACAD_REACTORS
330
7DE1B343D9E0BA5
102
}
330
7DE1B343D9E0BA5
100
AcDbXrecord
 10
0.0
 20
0.0
 30
0.0
  0
XRECORD
  5
7DE1B343D9E0BBC
102
{ACAD_REACTORS
330
7DE1B343D9E0BA5
102
}
330
7DE1B343D9E0BA5
100
AcDbXrecord
340
0
  0
XRECORD
  5
7DE1B343D9E0BBD
102
{ACAD_REACTORS
330
7DE1B343D9E0BA5
102
}
330
7DE1B343D9E0BA5
100
AcDbXrecord
 70
     0
  0
XRECORD
  5
7DE1B343D9E0BB1
102
{ACAD_REACTORS
330
7DE1B343D9E0BA5
102
}
330
7DE1B343D9E0BA5
100
AcDbXrecord
  1
{696A9D52-8DB5-11D6-88E6-0090279574E7}
  0
DICTIONARYVAR
  5
7DE1B343D9E0BA3
102
{ACAD_REACTORS
330
7DE1B343D9E0BA2
102
}
330
7DE1B343D9E0BA2
100
DictionaryVariables
280
     0
  1
1
  0
ENDSEC
  0
EOF
