  0
SECTION
  2
HEADER
  9
$ACADVER
  1
AC1014
  9
$ACADMAINTVER
 70
     9
  9
$DWGCODEPAGE
  3
ANSI_1252
  9
$INSBASE
 10
0.0
 20
0.0
 30
0.0
  9
$EXTMIN
 10
1.999999996925747
 20
2.504529039937601
 30
0.0
  9
$EXTMAX
 10
5.485219318672882
 20
4.656250000000001
 30
0.0
  9
$LIMMIN
 10
0.0
 20
0.0
  9
$LIMMAX
 10
8.5
 20
11.0
  9
$ORTHOMODE
 70
     1
  9
$REGENMODE
 70
     1
  9
$FILLMODE
 70
     1
  9
$QTEXTMODE
 70
     0
  9
$MIRRTEXT
 70
     0
  9
$DRAGMODE
 70
     2
  9
$LTSCALE
 40
1.0
  9
$OSMODE
 70
    39
  9
$ATTMODE
 70
     1
  9
$TEXTSIZE
 40
0.125
  9
$TRACEWID
 40
0.05
  9
$TEXTSTYLE
  7
ROMANS
  9
$CLAYER
  8
0
  9
$CELTYPE
  6
BYLAYER
  9
$CECOLOR
 62
   256
  9
$CELTSCALE
 40
1.0
  9
$DELOBJ
 70
     1
  9
$DISPSILH
 70
     1
  9
$DIMSCALE
 40
2.0
  9
$DIMASZ
 40
0.125
  9
$DIMEXO
 40
0.125
  9
$DIMDLI
 40
0.375
  9
$DIMRND
 40
0.0
  9
$DIMDLE
 40
0.0
  9
$DIMEXE
 40
0.125
  9
$DIMTP
 40
0.01
  9
$DIMTM
 40
0.005
  9
$DIMTXT
 40
0.125
  9
$DIMCEN
 40
-0.125
  9
$DIMTSZ
 40
0.0
  9
$DIMTOL
 70
     0
  9
$DIMLIM
 70
     0
  9
$DIMTIH
 70
     1
  9
$DIMTOH
 70
     1
  9
$DIMSE1
 70
     0
  9
$DIMSE2
 70
     0
  9
$DIMTAD
 70
     0
  9
$DIMZIN
 70
     4
  9
$DIMBLK
  1

  9
$DIMASO
 70
     1
  9
$DIMSHO
 70
     1
  9
$DIMPOST
  1

  9
$DIMAPOST
  1

  9
$DIMALT
 70
     0
  9
$DIMALTD
 70
     2
  9
$DIMALTF
 40
25.4
  9
$DIMLFAC
 40
1.0
  9
$DIMTOFL
 70
     0
  9
$DIMTVP
 40
0.0
  9
$DIMTIX
 70
     0
  9
$DIMSOXD
 70
     0
  9
$DIMSAH
 70
     0
  9
$DIMBLK1
  1

  9
$DIMBLK2
  1

  9
$DIMSTYLE
  2
STANDARD
  9
$DIMCLRD
 70
     0
  9
$DIMCLRE
 70
     0
  9
$DIMCLRT
 70
     0
  9
$DIMTFAC
 40
1.0
  9
$DIMGAP
 40
0.09
  9
$DIMJUST
 70
     0
  9
$DIMSD1
 70
     0
  9
$DIMSD2
 70
     0
  9
$DIMTOLJ
 70
     1
  9
$DIMTZIN
 70
     0
  9
$DIMALTZ
 70
     0
  9
$DIMALTTZ
 70
     0
  9
$DIMFIT
 70
     3
  9
$DIMUPT
 70
     0
  9
$DIMUNIT
 70
     2
  9
$DIMDEC
 70
     3
  9
$DIMTDEC
 70
     4
  9
$DIMALTU
 70
     2
  9
$DIMALTTD
 70
     2
  9
$DIMTXSTY
  7
ROMANS
  9
$DIMAUNIT
 70
     0
  9
$LUNITS
 70
     2
  9
$LUPREC
 70
     3
  9
$SKETCHINC
 40
0.1
  9
$FILLETRAD
 40
0.0
  9
$AUNITS
 70
     0
  9
$AUPREC
 70
     0
  9
$MENU
  1
AUTOMSTR
  9
$ELEVATION
 40
0.0
  9
$PELEVATION
 40
0.0
  9
$THICKNESS
 40
0.0
  9
$LIMCHECK
 70
     0
  9
$BLIPMODE
 70
     0
  9
$CHAMFERA
 40
0.0
  9
$CHAMFERB
 40
0.0
  9
$CHAMFERC
 40
0.0
  9
$CHAMFERD
 40
0.0
  9
$SKPOLY
 70
     0
  9
$TDCREATE
 40
2448344.649248495
  9
$TDUPDATE
 40
2452458.302438680
  9
$TDINDWG
 40
0.0281404282
  9
$TDUSRTIMER
 40
0.0281404282
  9
$USRTIMER
 70
     1
  9
$ANGBASE
 50
0.0
  9
$ANGDIR
 70
     0
  9
$PDMODE
 70
     0
  9
$PDSIZE
 40
0.0
  9
$PLINEWID
 40
0.0
  9
$COORDS
 70
     2
  9
$SPLFRAME
 70
     0
  9
$SPLINETYPE
 70
     6
  9
$SPLINESEGS
 70
     8
  9
$ATTDIA
 70
     0
  9
$ATTREQ
 70
     1
  9
$HANDLING
 70
 22529
  9
$HANDSEED
  5
512
  9
$SURFTAB1
 70
     6
  9
$SURFTAB2
 70
     6
  9
$SURFTYPE
 70
     6
  9
$SURFU
 70
     6
  9
$SURFV
 70
     6
  9
$UCSNAME
  2

  9
$UCSORG
 10
0.0
 20
0.0
 30
0.0
  9
$UCSXDIR
 10
1.0
 20
0.0
 30
0.0
  9
$UCSYDIR
 10
0.0
 20
1.0
 30
0.0
  9
$PUCSNAME
  2

  9
$PUCSORG
 10
0.0
 20
0.0
 30
0.0
  9
$PUCSXDIR
 10
1.0
 20
0.0
 30
0.0
  9
$PUCSYDIR
 10
0.0
 20
1.0
 30
0.0
  9
$USERI1
 70
     0
  9
$USERI2
 70
     0
  9
$USERI3
 70
     0
  9
$USERI4
 70
     0
  9
$USERI5
 70
     0
  9
$USERR1
 40
0.0
  9
$USERR2
 40
0.0
  9
$USERR3
 40
0.0
  9
$USERR4
 40
0.0
  9
$USERR5
 40
0.0
  9
$WORLDVIEW
 70
     1
  9
$SHADEDGE
 70
     3
  9
$SHADEDIF
 70
    70
  9
$TILEMODE
 70
     1
  9
$MAXACTVP
 70
    16
  9
$PINSBASE
 10
0.0
 20
0.0
 30
0.0
  9
$PLIMCHECK
 70
     0
  9
$PEXTMIN
 10
1.000000000000000E+20
 20
1.000000000000000E+20
 30
1.000000000000000E+20
  9
$PEXTMAX
 10
-1.000000000000000E+20
 20
-1.000000000000000E+20
 30
-1.000000000000000E+20
  9
$PLIMMIN
 10
0.0
 20
0.0
  9
$PLIMMAX
 10
12.0
 20
9.0
  9
$UNITMODE
 70
     0
  9
$VISRETAIN
 70
     0
  9
$PLINEGEN
 70
     1
  9
$PSLTSCALE
 70
     0
  9
$TREEDEPTH
 70
  3020
  9
$PICKSTYLE
 70
     1
  9
$CMLSTYLE
  2
STANDARD
  9
$CMLJUST
 70
     0
  9
$CMLSCALE
 40
1.0
  9
$PROXYGRAPHICS
 70
     1
  9
$MEASUREMENT
 70
     0
  0
ENDSEC
  0
SECTION
  2
CLASSES
  0
CLASS
  1
LWPOLYLINE
  2
AcDbPolyline
  3
AutoCAD 2000
 90
        0
280
     0
281
     1
  0
CLASS
  1
ACDBDICTIONARYWDFLT
  2
AcDbDictionaryWithDefault
  3
AutoCAD 2000
 90
        0
280
     0
281
     0
  0
CLASS
  1
ACDBPLACEHOLDER
  2
AcDbPlaceHolder
  3
AutoCAD 2000
 90
        0
280
     0
281
     0
  0
CLASS
  1
LAYOUT
  2
AcDbLayout
  3
AutoCAD 2000
 90
        0
280
     0
281
     0
  0
CLASS
  1
DICTIONARYVAR
  2
AcDbDictionaryVar
  3
AutoCAD 2000
 90
        0
280
     0
281
     0
  0
CLASS
  1
LONG_TRANSACTION
  2
AcDbLongTransaction
  3
AutoCAD 2000
 90
        0
280
     0
281
     0
  0
CLASS
  1
LWPOLYLINE
  2
AcDbPolyline
  3
AutoCAD 2000
 90
        0
280
     0
281
     1
  0
CLASS
  1
HATCH
  2
AcDbHatch
  3
AutoCAD 2000
 90
        0
280
     0
281
     1
  0
CLASS
  1
XRECORD
  2
AcDbXrecord
  3
AutoCAD 2000
 90
        0
280
     0
281
     0
  0
ENDSEC
  0
SECTION
  2
TABLES
  0
TABLE
  2
VPORT
  5
8
330
0
100
AcDbSymbolTable
 70
     2
  0
VPORT
  5
4ED
330
8
100
AcDbSymbolTableRecord
100
AcDbViewportTableRecord
  2
*ACTIVE
 70
     0
 10
0.0
 20
0.0
 11
1.0
 21
1.0
 12
16.63364209461369
 22
3.836101238258277
 13
0.0
 23
0.0
 14
0.015625
 24
0.015625
 15
0.0
 25
0.0
 16
0.0
 26
0.0
 36
1.0
 17
0.0
 27
0.0
 37
0.0
 40
7.707202476516561
 41
4.320930232558139
 42
50.0
 43
0.0
 44
0.0
 50
0.0
 51
0.0
 71
     0
 72
  2000
 73
     1
 74
     1
 75
     1
 76
     0
 77
     0
 78
     0
  0
ENDTAB
  0
TABLE
  2
LTYPE
  5
5
330
0
100
AcDbSymbolTable
 70
     1
  0
LTYPE
  5
12
330
5
100
AcDbSymbolTableRecord
100
AcDbLinetypeTableRecord
  2
BYBLOCK
 70
     0
  3

 72
    65
 73
     0
 40
0.0
  0
LTYPE
  5
13
330
5
100
AcDbSymbolTableRecord
100
AcDbLinetypeTableRecord
  2
BYLAYER
 70
     0
  3

 72
    65
 73
     0
 40
0.0
  0
LTYPE
  5
14
330
5
100
AcDbSymbolTableRecord
100
AcDbLinetypeTableRecord
  2
CONTINUOUS
 70
     0
  3
Solid line
 72
    65
 73
     0
 40
0.0
  0
ENDTAB
  0
TABLE
  2
LAYER
  5
2
330
0
100
AcDbSymbolTable
 70
     2
  0
LAYER
  5
F
330
2
100
AcDbSymbolTableRecord
100
AcDbLayerTableRecord
  2
0
 70
     0
 62
     7
  6
CONTINUOUS
  0
LAYER
  5
2A
330
2
100
AcDbSymbolTableRecord
100
AcDbLayerTableRecord
  2
TEXT
 70
     0
 62
     3
  6
CONTINUOUS
  0
ENDTAB
  0
TABLE
  2
STYLE
  5
3
330
0
100
AcDbSymbolTable
 70
     3
  0
STYLE
  5
10
330
3
100
AcDbSymbolTableRecord
100
AcDbTextStyleTableRecord
  2
STANDARD
 70
     0
 40
0.0
 41
1.0
 50
0.0
 71
     0
 42
0.25
  3
txt
  4

  0
STYLE
  5
3D9
330
3
100
AcDbSymbolTableRecord
100
AcDbTextStyleTableRecord
  2
ITALICC
 70
     0
 40
0.0
 41
1.0
 50
0.0
 71
     0
 42
0.125
  3
italicc
  4

  0
STYLE
  5
4E9
330
3
100
AcDbSymbolTableRecord
100
AcDbTextStyleTableRecord
  2
ROMANS
 70
     0
 40
0.0
 41
1.0
 50
0.0
 71
     0
 42
0.125
  3
romans.shx
  4

  0
ENDTAB
  0
TABLE
  2
VIEW
  5
6
330
0
100
AcDbSymbolTable
 70
     0
  0
ENDTAB
  0
TABLE
  2
UCS
  5
7
330
0
100
AcDbSymbolTable
 70
     0
  0
ENDTAB
  0
TABLE
  2
APPID
  5
9
330
0
100
AcDbSymbolTable
 70
     1
  0
APPID
  5
11
330
9
100
AcDbSymbolTableRecord
100
AcDbRegAppTableRecord
  2
ACAD
 70
     0
  0
ENDTAB
  0
TABLE
  2
DIMSTYLE
  5
A
330
0
100
AcDbSymbolTable
 70
     1
  0
DIMSTYLE
105
3C4
330
A
100
AcDbSymbolTableRecord
100
AcDbDimStyleTableRecord
  2
STANDARD
 70
     0
  3

  4

  5

  6

  7

 40
1.0
 41
0.18
 42
0.0625
 43
0.38
 44
0.18
 45
0.0
 46
0.0
 47
0.0
 48
0.0
140
0.18
141
0.09
142
0.0
143
25.4
144
1.0
145
0.0
146
1.0
147
0.09
 71
     0
 72
     0
 73
     1
 74
     1
 75
     0
 76
     0
 77
     0
 78
     0
170
     0
171
     2
172
     0
173
     0
174
     0
175
     0
176
     0
177
     0
178
     0
270
     2
271
     4
272
     4
273
     2
274
     2
340
10
275
     0
280
     0
281
     0
282
     0
283
     1
284
     0
285
     0
286
     0
287
     3
288
     0
  0
ENDTAB
  0
TABLE
  2
BLOCK_RECORD
  5
1
330
0
100
AcDbSymbolTable
 70
     0
  0
BLOCK_RECORD
  5
18
102
{ACAD_XDICTIONARY
360
510
102
}
330
1
100
AcDbSymbolTableRecord
100
AcDbBlockTableRecord
  2
*MODEL_SPACE
  0
BLOCK_RECORD
  5
15
102
{ACAD_XDICTIONARY
360
50E
102
}
330
1
100
AcDbSymbolTableRecord
100
AcDbBlockTableRecord
  2
*PAPER_SPACE
  0
ENDTAB
  0
ENDSEC
  0
SECTION
  2
BLOCKS
  0
BLOCK
  5
34
330
18
100
AcDbEntity
  8
0
100
AcDbBlockBegin
  2
*MODEL_SPACE
 70
     0
 10
0.0
 20
0.0
 30
0.0
  3
*MODEL_SPACE
  1

  0
ENDBLK
  5
35
330
18
100
AcDbEntity
  8
0
100
AcDbBlockEnd
  0
BLOCK
  5
32
330
15
100
AcDbEntity
 67
     1
  8
0
100
AcDbBlockBegin
  2
*PAPER_SPACE
 70
     0
 10
0.0
 20
0.0
 30
0.0
  3
*PAPER_SPACE
  1

  0
ENDBLK
  5
33
330
15
100
AcDbEntity
 67
     1
  8
0
100
AcDbBlockEnd
  0
ENDSEC
  0
SECTION
  2
ENTITIES
  0
LWPOLYLINE
  5
390
330
18
100
AcDbEntity
  8
0
100
AcDbPolyline
 90
       26
 70
     1
 43
0.0
 10
3.953124999999999
 20
4.656250000000001
 10
3.876201667824259
 20
4.579326667824262
 42
0.267949192431125
 10
3.868113572664805
 20
4.549141485752728
 10
3.882122564417432
 20
4.496859216769115
 10
3.979013347648318
 20
4.59375
 10
4.328125
 20
4.59375
 10
4.328125
 20
4.46875
 10
4.078125
 20
4.468750000000001
 10
4.078124999999999
 20
4.215903196881457
 42
0.3618379337733088
 10
3.455971803118541
 20
3.59375
 10
3.203124999999999
 20
3.59375
 10
3.203124999999999
 20
3.34375
 10
3.078125
 20
3.34375
 10
3.078124999999999
 20
3.692861652351682
 10
3.175015783230885
 20
3.789752435582568
 10
3.122733514247271
 20
3.803761427335193
 42
0.2679491924311233
 10
3.092548332175738
 20
3.79567333217574
 10
3.015624999999999
 20
3.71875
 10
3.015625
 20
3.28125
 10
3.265624999999999
 20
3.28125
 10
3.265625
 20
3.53125
 10
3.515624999999999
 20
3.53125
 42
-0.4142135623730951
 10
4.140624999999999
 20
4.15625
 10
4.140625
 20
4.40625
 10
4.390625
 20
4.40625
 10
4.390625
 20
4.65625
  0
TEXT
  5
45F
330
18
100
AcDbEntity
  8
TEXT
100
AcDbText
 10
2.990005385676699
 20
2.962547644020183
 30
0.0
 40
0.125
  1
PART #110233
  7
ITALICC
 72
     1
 11
3.74298157615289
 21
2.962547644020183
 31
0.0
100
AcDbText
  0
LINE
  5
460
330
18
100
AcDbEntity
  8
TEXT
100
AcDbLine
 10
3.710715075104952
 20
2.718193958000349
 30
0.0
 11
3.78736305639751
 21
2.718193958000349
 31
0.0
  0
LINE
  5
461
330
18
100
AcDbEntity
  8
TEXT
100
AcDbLine
 10
3.78288316907101
 20
2.782470652657115
 30
0.0
 11
3.715383451421494
 21
2.782470652657115
 31
0.0
  0
LWPOLYLINE
  5
462
330
18
100
AcDbEntity
  8
TEXT
100
AcDbPolyline
 90
        5
 70
     0
 43
0.0001332181640625
 10
2.073603032570277
 20
2.659243850899302
 10
2.086924848976526
 20
2.659243850899302
 10
2.086924848976526
 20
2.695878846016491
 10
2.123559844093716
 20
2.695878846016491
 10
2.123559844093716
 20
2.709200662422738
  0
LWPOLYLINE
  5
463
330
18
100
AcDbEntity
  8
TEXT
100
AcDbPolyline
 90
        3
 70
     0
 43
0.0006660908203125
 10
2.113568481789025
 20
2.755827019844617
 10
2.026976675148401
 20
2.755827019844617
 10
2.026976675148401
 20
2.66923521320399
  0
LWPOLYLINE
  5
464
330
18
100
AcDbEntity
  8
TEXT
100
AcDbPolyline
 90
        3
 70
     0
 43
0.0006660908203125
 10
2.113568481789025
 20
2.782470652657118
 10
2.000333042335903
 20
2.782470652657118
 10
2.000333042335903
 20
2.66923521320399
  0
LWPOLYLINE
  5
465
330
18
100
AcDbEntity
  8
TEXT
100
AcDbPolyline
 90
        5
 70
     0
 43
0.0001332181640625
 10
2.123559844093716
 20
2.589304314766491
 10
2.123559844093716
 20
2.602626131172741
 10
2.086924848976528
 20
2.602626131172741
 10
2.086924848976528
 20
2.639261126289928
 10
2.073603032570277
 20
2.639261126289928
  0
LWPOLYLINE
  5
466
330
18
100
AcDbEntity
  8
TEXT
100
AcDbPolyline
 90
        3
 70
     0
 43
0.0006660908203125
 10
2.026976675148401
 20
2.629269763985242
 10
2.026976675148401
 20
2.542677957344616
 10
2.113568481789025
 20
2.542677957344616
  0
LWPOLYLINE
  5
467
330
18
100
AcDbEntity
  8
TEXT
100
AcDbPolyline
 90
        3
 70
     0
 43
0.0006660908203125
 10
2.000333042335903
 20
2.629269763985242
 10
2.000333042335903
 20
2.516034324532115
 10
2.113568481789025
 20
2.516034324532115
  0
LWPOLYLINE
  5
468
330
18
100
AcDbEntity
  8
TEXT
100
AcDbPolyline
 90
        2
 70
     0
 43
0.0001332181640625
 10
2.026976675148401
 20
2.629269763985242
 10
2.086924848976528
 20
2.639261126289928
  0
LWPOLYLINE
  5
469
330
18
100
AcDbEntity
  8
TEXT
100
AcDbPolyline
 90
        2
 70
     0
 43
0.0001332181640625
 10
2.073603032570277
 20
2.639261126289928
 10
2.000333042335903
 20
2.629269763985242
  0
LWPOLYLINE
  5
46A
330
18
100
AcDbEntity
  8
TEXT
100
AcDbPolyline
 90
        2
 70
     0
 43
0.0006660908203125
 10
2.026976675148401
 20
2.629269763985242
 10
2.000333042335903
 20
2.629269763985242
  0
LWPOLYLINE
  5
46B
330
18
100
AcDbEntity
  8
TEXT
100
AcDbPolyline
 90
        2
 70
     0
 43
0.0001332181640625
 10
2.026976675148401
 20
2.542677957344616
 10
2.086924848976528
 20
2.602626131172741
  0
LWPOLYLINE
  5
46C
330
18
100
AcDbEntity
  8
TEXT
100
AcDbPolyline
 90
        2
 70
     0
 43
0.0006660908203125
 10
2.026976675148401
 20
2.66923521320399
 10
2.000333042335903
 20
2.66923521320399
  0
LWPOLYLINE
  5
46D
330
18
100
AcDbEntity
  8
TEXT
100
AcDbPolyline
 90
        2
 70
     0
 43
0.0001332181640625
 10
2.000333042335903
 20
2.66923521320399
 10
2.073603032570277
 20
2.659243850899302
  0
LWPOLYLINE
  5
46E
330
18
100
AcDbEntity
  8
TEXT
100
AcDbPolyline
 90
        2
 70
     0
 43
0.0001332181640625
 10
2.026976675148401
 20
2.66923521320399
 10
2.086924848976526
 20
2.659243850899302
  0
LWPOLYLINE
  5
46F
330
18
100
AcDbEntity
  8
TEXT
100
AcDbPolyline
 90
        2
 70
     0
 43
0.0001332181640625
 10
2.026976675148401
 20
2.755827019844617
 10
2.086924848976526
 20
2.695878846016491
  0
LWPOLYLINE
  5
470
330
18
100
AcDbEntity
  8
TEXT
100
AcDbPolyline
 90
        5
 70
     0
 43
0.0001332181640625
 10
2.193499380226527
 20
2.639261126289928
 10
2.180177563820278
 20
2.639261126289928
 10
2.180177563820278
 20
2.602626131172741
 10
2.143542568703088
 20
2.602626131172741
 10
2.143542568703088
 20
2.589304314766491
  0
LWPOLYLINE
  5
471
330
18
100
AcDbEntity
  8
TEXT
100
AcDbPolyline
 90
        2
 70
     0
 43
0.0001332181640625
 10
2.240125737648402
 20
2.629269763985242
 10
2.180177563820278
 20
2.639261126289928
  0
LWPOLYLINE
  5
472
330
18
100
AcDbEntity
  8
TEXT
100
AcDbPolyline
 90
        2
 70
     0
 43
0.0001332181640625
 10
2.266769370460903
 20
2.629269763985242
 10
2.193499380226527
 20
2.639261126289928
  0
LWPOLYLINE
  5
473
330
18
100
AcDbEntity
  8
TEXT
100
AcDbPolyline
 90
        3
 70
     0
 43
0.0006660908203125
 10
2.153533931007777
 20
2.516034324532115
 10
2.266769370460903
 20
2.516034324532115
 10
2.266769370460903
 20
2.629269763985242
  0
LWPOLYLINE
  5
474
330
18
100
AcDbEntity
  8
TEXT
100
AcDbPolyline
 90
        3
 70
     0
 43
0.0006660908203125
 10
2.153533931007777
 20
2.542677957344616
 10
2.240125737648402
 20
2.542677957344616
 10
2.240125737648402
 20
2.629269763985242
  0
LWPOLYLINE
  5
475
330
18
100
AcDbEntity
  8
TEXT
100
AcDbPolyline
 90
        2
 70
     0
 43
0.0001332181640625
 10
2.240125737648402
 20
2.542677957344616
 10
2.180177563820278
 20
2.602626131172741
  0
LWPOLYLINE
  5
476
330
18
100
AcDbEntity
  8
TEXT
100
AcDbPolyline
 90
        2
 70
     0
 43
0.0006660908203125
 10
2.153533931007777
 20
2.542677957344616
 10
2.153533931007777
 20
2.516034324532115
  0
LWPOLYLINE
  5
477
330
18
100
AcDbEntity
  8
TEXT
100
AcDbPolyline
 90
        2
 70
     0
 43
0.0001332181640625
 10
2.143542568703088
 20
2.589304314766491
 10
2.153533931007777
 20
2.516034324532115
  0
LWPOLYLINE
  5
478
330
18
100
AcDbEntity
  8
TEXT
100
AcDbPolyline
 90
        2
 70
     0
 43
0.0001332181640625
 10
2.153533931007777
 20
2.542677957344616
 10
2.143542568703088
 20
2.602626131172741
  0
LWPOLYLINE
  5
479
330
18
100
AcDbEntity
  8
TEXT
100
AcDbPolyline
 90
        2
 70
     0
 43
0.0001332181640625
 10
2.113568481789025
 20
2.516034324532115
 10
2.123559844093716
 20
2.589304314766491
  0
LWPOLYLINE
  5
47A
330
18
100
AcDbEntity
  8
TEXT
100
AcDbPolyline
 90
        2
 70
     0
 43
0.0001332181640625
 10
2.113568481789025
 20
2.542677957344616
 10
2.123559844093716
 20
2.602626131172741
  0
LWPOLYLINE
  5
47B
330
18
100
AcDbEntity
  8
TEXT
100
AcDbPolyline
 90
        2
 70
     0
 43
0.0006660908203125
 10
2.113568481789025
 20
2.542677957344616
 10
2.113568481789025
 20
2.516034324532115
  0
LWPOLYLINE
  5
47C
330
18
100
AcDbEntity
  8
TEXT
100
AcDbPolyline
 90
        2
 70
     0
 43
0.0006660908203125
 10
2.240125737648402
 20
2.629269763985242
 10
2.266769370460903
 20
2.629269763985242
  0
LWPOLYLINE
  5
47D
330
18
100
AcDbEntity
  8
TEXT
100
AcDbPolyline
 90
        2
 70
     0
 43
0.0001332181640625
 10
2.240125737648402
 20
2.755827019844617
 10
2.180177563820278
 20
2.695878846016491
  0
LWPOLYLINE
  5
47E
330
18
100
AcDbEntity
  8
TEXT
100
AcDbPolyline
 90
        2
 70
     0
 43
0.0001332181640625
 10
2.240125737648402
 20
2.66923521320399
 10
2.180177563820278
 20
2.659243850899302
  0
LWPOLYLINE
  5
47F
330
18
100
AcDbEntity
  8
TEXT
100
AcDbPolyline
 90
        2
 70
     0
 43
0.0001332181640625
 10
2.193499380226527
 20
2.659243850899302
 10
2.266769370460903
 20
2.66923521320399
  0
LWPOLYLINE
  5
480
330
18
100
AcDbEntity
  8
TEXT
100
AcDbPolyline
 90
        3
 70
     0
 43
0.0006660908203125
 10
2.240125737648402
 20
2.66923521320399
 10
2.240125737648402
 20
2.755827019844617
 10
2.153533931007777
 20
2.755827019844617
  0
LWPOLYLINE
  5
481
330
18
100
AcDbEntity
  8
TEXT
100
AcDbPolyline
 90
        3
 70
     0
 43
0.0006660908203125
 10
2.266769370460903
 20
2.66923521320399
 10
2.266769370460903
 20
2.782470652657118
 10
2.153533931007777
 20
2.782470652657118
  0
LWPOLYLINE
  5
482
330
18
100
AcDbEntity
  8
TEXT
100
AcDbPolyline
 90
        2
 70
     0
 43
0.0001332181640625
 10
2.153533931007777
 20
2.782470652657118
 10
2.143542568703088
 20
2.709200662422738
  0
LWPOLYLINE
  5
483
330
18
100
AcDbEntity
  8
TEXT
100
AcDbPolyline
 90
        2
 70
     0
 43
0.0001332181640625
 10
2.153533931007777
 20
2.755827019844617
 10
2.143542568703088
 20
2.695878846016491
  0
LWPOLYLINE
  5
484
330
18
100
AcDbEntity
  8
TEXT
100
AcDbPolyline
 90
        2
 70
     0
 43
0.0006660908203125
 10
2.153533931007777
 20
2.755827019844617
 10
2.153533931007777
 20
2.782470652657118
  0
LWPOLYLINE
  5
485
330
18
100
AcDbEntity
  8
TEXT
100
AcDbPolyline
 90
        5
 70
     0
 43
0.0001332181640625
 10
2.143542568703088
 20
2.709200662422738
 10
2.143542568703088
 20
2.695878846016491
 10
2.180177563820278
 20
2.695878846016491
 10
2.180177563820278
 20
2.659243850899302
 10
2.193499380226527
 20
2.659243850899302
  0
LWPOLYLINE
  5
486
330
18
100
AcDbEntity
  8
TEXT
100
AcDbPolyline
 90
        2
 70
     0
 43
0.0001332181640625
 10
2.113568481789025
 20
2.755827019844617
 10
2.123559844093716
 20
2.695878846016491
  0
LWPOLYLINE
  5
487
330
18
100
AcDbEntity
  8
TEXT
100
AcDbPolyline
 90
        2
 70
     0
 43
0.0001332181640625
 10
2.123559844093716
 20
2.709200662422738
 10
2.113568481789025
 20
2.782470652657118
  0
LWPOLYLINE
  5
488
330
18
100
AcDbEntity
  8
TEXT
100
AcDbPolyline
 90
        2
 70
     0
 43
0.0006660908203125
 10
2.113568481789025
 20
2.755827019844617
 10
2.113568481789025
 20
2.782470652657118
  0
LWPOLYLINE
  5
489
330
18
100
AcDbEntity
  8
TEXT
100
AcDbPolyline
 90
        2
 70
     0
 43
0.0006660908203125
 10
2.240125737648402
 20
2.66923521320399
 10
2.266769370460903
 20
2.66923521320399
  0
LWPOLYLINE
  5
48A
330
18
100
AcDbEntity
  8
TEXT
100
AcDbPolyline
 90
        2
 70
     0
 43
0.0
 10
2.985549291209533
 20
2.567548961883532
 42
0.3318488747599744
 10
3.054668583774846
 20
2.515997619668604
 42
-6.868794160588311
  0
LINE
  5
48B
330
18
100
AcDbEntity
  8
TEXT
100
AcDbLine
 10
3.05352901027865
 20
2.850482130395925
 30
0.0
 11
2.986720297712285
 21
2.850482130395925
 31
0.0
  0
LINE
  5
48C
330
18
100
AcDbEntity
  8
TEXT
100
AcDbLine
 10
2.707377930093191
 20
2.782470652657115
 30
0.0
 11
2.53164617719468
 21
2.782470652657115
 31
0.0
  0
ARC
  5
48D
330
18
100
AcDbEntity
  8
TEXT
100
AcDbCircle
 10
2.60248364355323
 20
2.599193428029161
 30
0.0
 40
0.0831958083605586
100
AcDbArc
 50
270.0
 51
90.0
  0
LINE
  5
48E
330
18
100
AcDbEntity
  8
TEXT
100
AcDbLine
 10
2.536883507308928
 20
2.718193958000349
 30
0.0
 11
2.703789161337899
 21
2.718193958000349
 31
0.0
  0
LINE
  5
48F
330
18
100
AcDbEntity
  8
TEXT
100
AcDbLine
 10
2.607424017459509
 20
2.584354626002043
 30
0.0
 11
2.449558717748175
 21
2.584354626002043
 31
0.0
  0
LINE
  5
490
330
18
100
AcDbEntity
  8
TEXT
100
AcDbLine
 10
2.449558717748177
 20
2.515997619668604
 30
0.0
 11
2.602483643553229
 21
2.515997619668604
 31
0.0
  0
ARC
  5
491
330
18
100
AcDbEntity
  8
TEXT
100
AcDbCircle
 10
2.53164617719468
 20
2.700383193210613
 30
0.0
 40
0.0820874594465043
100
AcDbArc
 50
90.0
 51
270.0
  0
LINE
  5
492
330
18
100
AcDbEntity
  8
TEXT
100
AcDbLine
 10
2.449558717748175
 20
2.584354626002043
 30
0.0
 11
2.449558717748177
 21
2.515997619668604
 31
0.0
  0
LINE
  5
493
330
18
100
AcDbEntity
  8
TEXT
100
AcDbLine
 10
2.53164617719468
 20
2.618295733764107
 30
0.0
 11
2.607424017459509
 21
2.618295733764107
 31
0.0
  0
ARC
  5
494
330
18
100
AcDbEntity
  8
TEXT
100
AcDbCircle
 10
2.607424017459509
 20
2.601325179883077
 30
0.0
 40
0.0169705538810321
100
AcDbArc
 50
270.0
 51
90.0
  0
LINE
  5
495
330
18
100
AcDbEntity
  8
TEXT
100
AcDbLine
 10
2.602483643553229
 20
2.682389236389721
 30
0.0
 11
2.536883507308928
 21
2.682389236389721
 31
0.0
  0
ARC
  5
496
330
18
100
AcDbEntity
  8
TEXT
100
AcDbCircle
 10
2.536883507308929
 20
2.700291597195037
 30
0.0
 40
0.017902360805315
100
AcDbArc
 50
90.0
 51
270.0
  0
LINE
  5
497
330
18
100
AcDbEntity
  8
TEXT
100
AcDbLine
 10
2.897849822113044
 20
2.681598656543994
 30
0.0
 11
2.839219501081106
 21
2.782470652657115
 31
0.0
  0
LINE
  5
498
330
18
100
AcDbEntity
  8
TEXT
100
AcDbLine
 10
2.757675768818004
 20
2.515997619668604
 30
0.0
 11
2.854316019892999
 21
2.516268258766886
 31
0.0
  0
LWPOLYLINE
  5
499
330
18
100
AcDbEntity
  8
TEXT
100
AcDbPolyline
 90
        6
 70
     1
 43
0.0
 10
2.800199572393154
 20
2.718193958000349
 10
2.769882978172946
 20
2.718193958000349
 10
2.769882978172946
 20
2.595082959945455
 42
0.407328721240804
 10
2.781426629334422
 20
2.583264045269069
 10
2.842048328379153
 20
2.583264045269069
 10
2.859513668786471
 20
2.616076274312548
  0
LINE
  5
49A
330
18
100
AcDbEntity
  8
TEXT
100
AcDbLine
 10
2.703789161337899
 20
2.718193958000349
 30
0.0
 11
2.703789161337899
 21
2.575790011006653
 31
0.0
  0
ARC
  5
49B
330
18
100
AcDbEntity
  8
TEXT
100
AcDbCircle
 10
2.763905179311651
 20
2.575790011006653
 30
0.0
 40
0.0601160179737537
100
AcDbArc
 50
180.0000000000003
 51
264.0521544866073
  0
LINE
  5
49C
330
18
100
AcDbEntity
  8
TEXT
100
AcDbLine
 10
2.767420534937198
 20
2.816858570251253
 30
0.0
 11
2.707377930093191
 21
2.816858570251253
 31
0.0
  0
LINE
  5
49D
330
18
100
AcDbEntity
  8
TEXT
100
AcDbLine
 10
2.707377930093191
 20
2.816858570251253
 30
0.0
 11
2.707377930093191
 21
2.782470652657115
 31
0.0
  0
LINE
  5
49E
330
18
100
AcDbEntity
  8
TEXT
100
AcDbLine
 10
2.767420534937198
 20
2.782470652657115
 30
0.0
 11
2.767420534937198
 21
2.816858570251253
 31
0.0
  0
LINE
  5
49F
330
18
100
AcDbEntity
  8
TEXT
100
AcDbLine
 10
2.839219501081106
 20
2.782470652657115
 30
0.0
 11
2.767420534937198
 21
2.782470652657115
 31
0.0
  0
LINE
  5
4A0
330
18
100
AcDbEntity
  8
TEXT
100
AcDbLine
 10
2.888249585116089
 20
2.535956125773616
 30
0.0
 11
2.985549291209534
 21
2.700306336708885
 31
0.0
  0
LINE
  5
4A1
330
18
100
AcDbEntity
  8
TEXT
100
AcDbLine
 10
2.985549291209534
 20
2.700306336708885
 30
0.0
 11
2.985549291209534
 21
2.567548961883528
 31
0.0
  0
ARC
  5
4A2
330
18
100
AcDbEntity
  8
TEXT
100
AcDbCircle
 10
2.854206025203876
 20
2.555545341942299
 30
0.0
 40
0.0392772371940762
100
AcDbArc
 50
270.1604552698595
 51
330.0831797321295
  0
LINE
  5
4A3
330
18
100
AcDbEntity
  8
TEXT
100
AcDbLine
 10
2.956598384918909
 20
2.782470652657115
 30
0.0
 11
2.897849822113044
 21
2.681598656543994
 31
0.0
  0
LINE
  5
4A4
330
18
100
AcDbEntity
  8
TEXT
100
AcDbLine
 10
2.986720297712285
 20
2.850482130395925
 30
0.0
 11
2.986720297712285
 21
2.782470652657115
 31
0.0
  0
LINE
  5
4A5
330
18
100
AcDbEntity
  8
TEXT
100
AcDbLine
 10
2.986720297712285
 20
2.782470652657115
 30
0.0
 11
2.956598384918909
 21
2.782470652657115
 31
0.0
  0
LWPOLYLINE
  5
4A6
330
18
100
AcDbEntity
  8
TEXT
100
AcDbPolyline
 90
        4
 70
     0
 43
0.0
 10
3.338806419332444
 20
2.710640168834239
 10
3.338806419332444
 20
2.515997619668604
 10
3.407284702620302
 20
2.515997619668604
 10
3.407284702620302
 20
2.559488564619042
 42
-1.714843617202739
  0
LWPOLYLINE
  5
4A7
330
18
100
AcDbEntity
  8
TEXT
100
AcDbPolyline
 90
        2
 70
     0
 43
0.0
 10
3.373940769876654
 20
2.782470652657118
 42
-0.3277054968067132
 10
3.409722460589819
 20
2.754148106887474
 42
6.667889725900311
  0
LWPOLYLINE
  5
4A8
330
18
100
AcDbEntity
  8
TEXT
100
AcDbPolyline
 90
        2
 70
     0
 43
0.0
 10
3.202507197297427
 20
2.718193958000349
 42
-0.4142135623731017
 10
3.21006098646354
 20
2.710640168834239
 42
-0.9999999999999998
  0
LINE
  5
4A9
330
18
100
AcDbEntity
  8
TEXT
100
AcDbLine
 10
3.219858920347447
 20
2.782470652657115
 30
0.0
 11
3.085840864416311
 21
2.782470652657115
 31
0.0
  0
LINE
  5
4AA
330
18
100
AcDbEntity
  8
TEXT
100
AcDbLine
 10
3.15267191747428
 20
2.515997619668604
 30
0.0
 11
3.15267191747428
 21
2.718193958000349
 31
0.0
  0
LINE
  5
4AB
330
18
100
AcDbEntity
  8
TEXT
100
AcDbLine
 10
3.085840864416311
 20
2.782470652657115
 30
0.0
 11
3.085840864416311
 21
2.581606445924706
 31
0.0
  0
LINE
  5
4AC
330
18
100
AcDbEntity
  8
TEXT
100
AcDbLine
 10
3.05352901027865
 20
2.598385457771603
 30
0.0
 11
3.05352901027865
 21
2.850482130395925
 31
0.0
  0
LINE
  5
4AD
330
18
100
AcDbEntity
  8
TEXT
100
AcDbLine
 10
3.054668583774845
 20
2.515997619668604
 30
0.0
 11
3.15267191747428
 21
2.515997619668604
 31
0.0
  0
LINE
  5
4AE
330
18
100
AcDbEntity
  8
TEXT
100
AcDbLine
 10
3.085840864416311
 20
2.581606445924706
 30
0.0
 11
3.068847227531709
 21
2.581606445924706
 31
0.0
  0
ARC
  5
4AF
330
18
100
AcDbEntity
  8
TEXT
100
AcDbCircle
 10
3.068847227531708
 20
2.596988252168132
 30
0.0
 40
0.0153818062434269
100
AcDbArc
 50
174.7883570302258
 51
270.0
  0
LINE
  5
4B0
330
18
100
AcDbEntity
  8
TEXT
100
AcDbLine
 10
3.15267191747428
 20
2.718193958000349
 30
0.0
 11
3.202507197297427
 21
2.718193958000349
 31
0.0
  0
LINE
  5
4B1
330
18
100
AcDbEntity
  8
TEXT
100
AcDbLine
 10
3.210060986463541
 20
2.710640168834239
 30
0.0
 11
3.210060986463541
 21
2.515997619668604
 31
0.0
  0
LINE
  5
4B2
330
18
100
AcDbEntity
  8
TEXT
100
AcDbLine
 10
3.277119033245381
 20
2.515997619668604
 30
0.0
 11
3.277119033245381
 21
2.718193958000349
 31
0.0
  0
LINE
  5
4B3
330
18
100
AcDbEntity
  8
TEXT
100
AcDbLine
 10
3.210060986463541
 20
2.515997619668604
 30
0.0
 11
3.277119033245381
 21
2.515997619668604
 31
0.0
  0
LWPOLYLINE
  5
4B4
330
18
100
AcDbEntity
  8
TEXT
100
AcDbPolyline
 90
        3
 70
     0
 43
0.0
 10
3.373940769876654
 20
2.782470652657118
 10
3.255640611060609
 20
2.782470652657118
 10
3.255640611060609
 20
2.755303155896222
 42
-1.960274751411753
  0
LINE
  5
4B5
330
18
100
AcDbEntity
  8
TEXT
100
AcDbLine
 10
3.277119033245381
 20
2.718193958000349
 30
0.0
 11
3.331252630166331
 21
2.718193958000349
 31
0.0
  0
LWPOLYLINE
  5
4B6
330
18
100
AcDbEntity
  8
TEXT
100
AcDbPolyline
 90
        2
 70
     0
 43
0.0
 10
3.219858920347448
 20
2.782470652657118
 42
-0.3328679258950098
 10
3.255640611060609
 20
2.755303155896222
 42
6.772930709997214
  0
LWPOLYLINE
  5
4B7
330
18
100
AcDbEntity
  8
TEXT
100
AcDbPolyline
 90
        2
 70
     0
 43
0.0
 10
3.33125263016633
 20
2.718193958000349
 42
-0.4142135623731017
 10
3.338806419332444
 20
2.710640168834239
 42
-0.9999999999999998
  0
ARC
  5
4B8
330
18
100
AcDbEntity
  8
TEXT
100
AcDbCircle
 10
3.54252743002981
 20
2.740887085536212
 30
0.0
 40
0.0416329381542859
100
AcDbArc
 50
26.56974201007528
 51
87.20939649401342
  0
LWPOLYLINE
  5
4B9
330
18
100
AcDbEntity
  8
TEXT
100
AcDbPolyline
 90
        2
 70
     0
 43
0.0
 10
3.450360635487937
 20
2.515997619668604
 10
3.584378053119314
 20
2.515997619668604
 42
0.9999999999999998
  0
LWPOLYLINE
  5
4BA
330
18
100
AcDbEntity
  8
TEXT
100
AcDbPolyline
 90
        4
 70
     1
 43
0.0
 10
3.564255588049421
 20
2.618961597652629
 10
3.475595269389563
 20
2.618961597652629
 42
0.9999999999999998
 10
3.475595269389563
 20
2.576563057148768
 10
3.564255588049421
 20
2.576563057148768
 42
1.0
  0
LWPOLYLINE
  5
4BB
330
18
100
AcDbEntity
  8
TEXT
100
AcDbPolyline
 90
        2
 70
     0
 43
0.0
 10
3.407284702620302
 20
2.559488564619042
 42
0.2901071551932823
 10
3.450360635487937
 20
2.515997619668604
 42
5.328517124445801
  0
LINE
  5
4BC
330
18
100
AcDbEntity
  8
TEXT
100
AcDbLine
 10
3.544554369806879
 20
2.782470652657115
 30
0.0
 11
3.409722460589819
 21
2.782470652657115
 31
0.0
  0
LINE
  5
4BD
330
18
100
AcDbEntity
  8
TEXT
100
AcDbLine
 10
3.469036556983138
 20
2.680918984538217
 30
0.0
 11
3.551324546766521
 21
2.680918984538217
 31
0.0
  0
LINE
  5
4BE
330
18
100
AcDbEntity
  8
TEXT
100
AcDbLine
 10
3.5155234714624
 20
2.718193958000349
 30
0.0
 11
3.408317198075111
 21
2.718193958000349
 31
0.0
  0
LINE
  5
4BF
330
18
100
AcDbEntity
  8
TEXT
100
AcDbLine
 10
3.409722460589819
 20
2.782470652657115
 30
0.0
 11
3.409722460589819
 21
2.754148106887471
 31
0.0
  0
ARC
  5
4C0
330
18
100
AcDbEntity
  8
TEXT
100
AcDbCircle
 10
3.469036556983137
 20
2.613233403394098
 30
0.0
 40
0.0676855811441166
100
AcDbArc
 50
90.0
 51
153.7768192527749
  0
LINE
  5
4C1
330
18
100
AcDbEntity
  8
TEXT
100
AcDbLine
 10
3.408317198075111
 20
2.718193958000349
 30
0.0
 11
3.408317198075111
 21
2.643141551926142
 31
0.0
  0
LINE
  5
4C2
330
18
100
AcDbEntity
  8
TEXT
100
AcDbLine
 10
3.551324546766521
 20
2.680918984538217
 30
0.0
 11
3.541059786352957
 21
2.702169524110911
 31
0.0
  0
ARC
  5
4C3
330
18
100
AcDbEntity
  8
TEXT
100
AcDbCircle
 10
3.515523471462399
 20
2.689834583000352
 30
0.0
 40
0.028359375
100
AcDbArc
 50
25.78218179591245
 51
90.0
  0
LINE
  5
4C4
330
18
100
AcDbEntity
  8
TEXT
100
AcDbLine
 10
3.685809199822293
 20
2.515997619668604
 30
0.0
 11
3.685809199822288
 21
2.693288125100072
 31
0.0
  0
LWPOLYLINE
  5
4C5
330
18
100
AcDbEntity
  8
TEXT
100
AcDbPolyline
 90
        2
 70
     0
 43
0.0
 10
3.627453985986958
 20
2.515997619668604
 10
3.685809199822292
 20
2.515997619668604
  0
LWPOLYLINE
  5
4C6
330
18
100
AcDbEntity
  8
TEXT
100
AcDbPolyline
 90
        2
 70
     0
 43
0.0
 10
3.627453985986958
 20
2.559488564619042
 42
-0.2901071551932486
 10
3.584378053119314
 20
2.515997619668604
 42
-5.328517124445184
  0
LWPOLYLINE
  5
4C7
330
18
100
AcDbEntity
  8
TEXT
100
AcDbPolyline
 90
        2
 70
     0
 43
0.0
 10
3.627453985986958
 20
2.559488564619042
 10
3.627453985986958
 20
2.515997619668604
  0
LINE
  5
4C8
330
18
100
AcDbEntity
  8
TEXT
100
AcDbLine
 10
3.687411214981421
 20
2.782470652657115
 30
0.0
 11
3.62351430868192
 21
2.782470652657115
 31
0.0
  0
LINE
  5
4C9
330
18
100
AcDbEntity
  8
TEXT
100
AcDbLine
 10
3.62351430868192
 20
2.782470652657115
 30
0.0
 11
3.62351430868192
 21
2.677258674103687
 31
0.0
  0
LINE
  5
4CA
330
18
100
AcDbEntity
  8
TEXT
100
AcDbLine
 10
3.62351430868192
 20
2.677258674103687
 30
0.0
 11
3.579763537500018
 21
2.759508950099832
 31
0.0
  0
ARC
  5
4CB
330
18
100
AcDbEntity
  8
TEXT
100
AcDbCircle
 10
3.710715075104952
 20
2.693288082717686
 30
0.0
 40
0.0249058752826653
100
AcDbArc
 50
89.99971217465335
 51
179.9999999999985
  0
ARC
  5
4CC
330
18
100
AcDbEntity
  8
TEXT
100
AcDbCircle
 10
3.718604032044529
 20
2.75122492537485
 30
0.0
 40
0.0314112657011332
100
AcDbArc
 50
95.88484768694724
 51
173.2388340632136
  0
LINE
  5
4CD
330
18
100
AcDbEntity
  8
TEXT
100
AcDbLine
 10
3.687411214981421
 20
2.75492300279624
 30
0.0
 11
3.687411214981421
 21
2.782470652657115
 31
0.0
  0
TEXT
  5
4CE
330
18
100
AcDbEntity
  8
TEXT
100
AcDbText
 10
4.156286734403211
 20
2.6088834283141
 30
0.0
 40
0.0522247191011236
  1
Minneapolis, MN 55432-0008
 41
1.11444212721585
 72
     5
 11
5.485219318672875
 21
2.6088834283141
 31
0.0
100
AcDbText
  0
TEXT
  5
4CF
330
18
100
AcDbEntity
  8
TEXT
100
AcDbText
 10
4.156286734403211
 20
2.702141855280392
 30
0.0
 40
0.0522247191011236
  1
6536 Main St. N.E. * P.O. Box 32008
 41
0.8388932496075355
 72
     5
 11
5.485219318672875
 21
2.702141855280392
 31
0.0
100
AcDbText
  0
TEXT
  5
4D0
330
18
100
AcDbEntity
  8
TEXT
100
AcDbText
 10
4.156286734403211
 20
2.795400282246684
 30
0.0
 40
0.0522247191011236
  1
Stylmark  Incorporated
 41
1.221428571428571
 72
     5
 11
5.485219318672875
 21
2.795400282246684
 31
0.0
100
AcDbText
  0
TEXT
  5
4D1
330
18
100
AcDbEntity
  8
TEXT
100
AcDbText
 10
4.156286734403211
 20
2.515625001347808
 30
0.0
 40
0.0522247191011236
  1
Phone  1-800-328-2495
 41
1.272321428571429
 72
     5
 11
5.485219318672875
 21
2.515625001347808
 31
0.0
100
AcDbText
  0
LINE
  5
4D2
330
18
100
AcDbEntity
  8
TEXT
100
AcDbLine
 10
3.908730922940196
 20
2.672577409716141
 30
0.0
 11
3.973288038905901
 21
2.782470652657115
 31
0.0
  0
LINE
  5
4D3
330
18
100
AcDbEntity
  8
TEXT
100
AcDbLine
 10
3.973288038905901
 20
2.782470652657115
 30
0.0
 11
3.898296206176275
 21
2.782470652657115
 31
0.0
  0
LINE
  5
4D4
330
18
100
AcDbEntity
  8
TEXT
100
AcDbLine
 10
3.927644773927601
 20
2.515997619668604
 30
0.0
 11
4.004223146303806
 21
2.515997619668604
 31
0.0
  0
LINE
  5
4D5
330
18
100
AcDbEntity
  8
TEXT
100
AcDbLine
 10
4.004223146303806
 20
2.515997619668604
 30
0.0
 11
3.908730922940196
 21
2.672577409716141
 31
0.0
  0
LINE
  5
4D6
330
18
100
AcDbEntity
  8
TEXT
100
AcDbLine
 10
3.851741240716136
 20
2.515997619668604
 30
0.0
 11
3.851741240716136
 21
2.647577188144784
 31
0.0
  0
LINE
  5
4D7
330
18
100
AcDbEntity
  8
TEXT
100
AcDbLine
 10
3.851741240716136
 20
2.647577188144784
 30
0.0
 11
3.927644773927601
 21
2.515997619668604
 31
0.0
  0
LINE
  5
4D8
330
18
100
AcDbEntity
  8
TEXT
100
AcDbLine
 10
3.78736305639751
 20
2.718193958000349
 30
0.0
 11
3.787363056397516
 21
2.515997619668604
 31
0.0
  0
LINE
  5
4D9
330
18
100
AcDbEntity
  8
TEXT
100
AcDbLine
 10
3.787363056397516
 20
2.515997619668604
 30
0.0
 11
3.851741240716136
 21
2.515997619668604
 31
0.0
  0
LINE
  5
4DA
330
18
100
AcDbEntity
  8
TEXT
100
AcDbLine
 10
3.851198047620289
 20
2.847934858424715
 30
0.0
 11
3.782883169071015
 21
2.847934858424715
 31
0.0
  0
LINE
  5
4DB
330
18
100
AcDbEntity
  8
TEXT
100
AcDbLine
 10
3.782883169071015
 20
2.847934858424715
 30
0.0
 11
3.78288316907101
 21
2.782470652657115
 31
0.0
  0
LINE
  5
4DC
330
18
100
AcDbEntity
  8
TEXT
100
AcDbLine
 10
3.898296206176273
 20
2.782470652657115
 30
0.0
 11
3.851198047620289
 21
2.706605326245576
 31
0.0
  0
LINE
  5
4DD
330
18
100
AcDbEntity
  8
TEXT
100
AcDbLine
 10
3.851198047620289
 20
2.706605326245576
 30
0.0
 11
3.851198047620289
 21
2.847934858424715
 31
0.0
  0
ENDSEC
  0
SECTION
  2
OBJECTS
  0
DICTIONARY
  5
C
330
0
100
AcDbDictionary
  3
ACAD_GROUP
350
D
  3
ACAD_LAYOUT
350
4E2
  3
ACAD_MLINESTYLE
350
E
  3
ACAD_PLOTSETTINGS
350
4E3
  3
ACAD_PLOTSTYLENAME
350
4E0
  3
ACDBHEADERROUNDTRIPXREC
350
4EE
  3
ACDBVARIABLEDICTIONARY
350
4EB
  0
DICTIONARY
  5
510
330
18
100
AcDbDictionary
280
     1
  3
ACAD_LAYOUTSELFREF
360
511
  0
DICTIONARY
  5
50E
330
15
100
AcDbDictionary
280
     1
  3
ACAD_LAYOUTSELFREF
360
50F
  0
DICTIONARY
  5
D
102
{ACAD_REACTORS
330
C
102
}
330
C
100
AcDbDictionary
  0
DICTIONARY
  5
4E2
102
{ACAD_REACTORS
330
C
102
}
330
C
100
AcDbDictionary
  0
DICTIONARY
  5
E
102
{ACAD_REACTORS
330
C
102
}
330
C
100
AcDbDictionary
  3
STANDARD
350
1B
  0
DICTIONARY
  5
4E3
102
{ACAD_REACTORS
330
C
102
}
330
C
100
AcDbDictionary
  0
ACDBDICTIONARYWDFLT
  5
4E0
102
{ACAD_REACTORS
330
C
102
}
330
C
100
AcDbDictionary
281
     1
  3
Normal
350
4E1
100
AcDbDictionaryWithDefault
340
4E1
  0
DICTIONARY
  5
4EE
102
{ACAD_REACTORS
330
C
102
}
330
C
100
AcDbDictionary
  3
CEPSNTYPE
350
4F8
  3
FINGERPRINTGUID
350
4F9
  3
HYPERLINKBASE
350
4F1
  3
INSUNITS
350
4F7
  3
LAYOUTDICT
350
4F3
  3
LWETCUNION
350
4F6
  3
PLOTSETDICT
350
4F4
  3
PLOTSTYLNAMDICT
350
4F5
  3
PSVPSCALE
350
4FB
  3
PUCSBASE
350
4FE
  3
PUCSORGBACK
350
504
  3
PUCSORGBOTTOM
350
500
  3
PUCSORGFRONT
350
503
  3
PUCSORGLEFT
350
501
  3
PUCSORGRIGHT
350
502
  3
PUCSORGTOP
350
4FF
  3
PUCSORTHOREF
350
4FC
  3
PUCSORTHOVIEW
350
4FD
  3
STYLESHEET
350
4F2
  3
TSTACKALIGN
350
4EF
  3
TSTACKSIZE
350
4F0
  3
UCSBASE
350
507
  3
UCSORGBACK
350
50D
  3
UCSORGBOTTOM
350
509
  3
UCSORGFRONT
350
50C
  3
UCSORGLEFT
350
50A
  3
UCSORGRIGHT
350
50B
  3
UCSORGTOP
350
508
  3
UCSORTHOREF
350
505
  3
UCSORTHOVIEW
350
506
  3
VERSIONGUID
350
4FA
  0
DICTIONARY
  5
4EB
102
{ACAD_REACTORS
330
C
102
}
330
C
100
AcDbDictionary
  3
DIMASSOC
350
4EC
  0
XRECORD
  5
511
102
{ACAD_REACTORS
330
510
102
}
330
510
100
AcDbXrecord
340
18
  0
XRECORD
  5
50F
102
{ACAD_REACTORS
330
50E
102
}
330
50E
100
AcDbXrecord
340
15
  0
MLINESTYLE
  5
1B
102
{ACAD_REACTORS
330
E
102
}
330
E
100
AcDbMlineStyle
  2
STANDARD
 70
     0
  3

 62
     0
 51
90.0
 52
90.0
 71
     2
 49
0.5
 62
   256
  6
BYLAYER
 49
-0.5
 62
   256
  6
BYLAYER
  0
ACDBPLACEHOLDER
  5
4E1
102
{ACAD_REACTORS
330
4E0
102
}
330
4E0
100
AcDbPlaceHolder
280
     0
  0
XRECORD
  5
4F8
102
{ACAD_REACTORS
330
4EE
102
}
330
4EE
100
AcDbXrecord
 90
        0
  0
XRECORD
  5
4F9
102
{ACAD_REACTORS
330
4EE
102
}
330
4EE
100
AcDbXrecord
  1
{653B6EE0-8DB5-11D6-88E6-0090279574E7}
  0
XRECORD
  5
4F1
102
{ACAD_REACTORS
330
4EE
102
}
330
4EE
100
AcDbXrecord
  1

  0
XRECORD
  5
4F7
102
{ACAD_REACTORS
330
4EE
102
}
330
4EE
100
AcDbXrecord
 90
        0
  0
XRECORD
  5
4F3
102
{ACAD_REACTORS
330
4EE
102
}
330
4EE
100
AcDbXrecord
340
4E2
  0
XRECORD
  5
4F6
102
{ACAD_REACTORS
330
4EE
102
}
330
4EE
100
AcDbXrecord
 90
    14877
  0
XRECORD
  5
4F4
102
{ACAD_REACTORS
330
4EE
102
}
330
4EE
100
AcDbXrecord
340
4E3
  0
XRECORD
  5
4F5
102
{ACAD_REACTORS
330
4EE
102
}
330
4EE
100
AcDbXrecord
340
4E0
  0
XRECORD
  5
4FB
102
{ACAD_REACTORS
330
4EE
102
}
330
4EE
100
AcDbXrecord
 40
0.0
  0
XRECORD
  5
4FE
102
{ACAD_REACTORS
330
4EE
102
}
330
4EE
100
AcDbXrecord
340
0
  0
XRECORD
  5
504
102
{ACAD_REACTORS
330
4EE
102
}
330
4EE
100
AcDbXrecord
 10
0.0
 20
0.0
 30
0.0
  0
XRECORD
  5
500
102
{ACAD_REACTORS
330
4EE
102
}
330
4EE
100
AcDbXrecord
 10
0.0
 20
0.0
 30
0.0
  0
XRECORD
  5
503
102
{ACAD_REACTORS
330
4EE
102
}
330
4EE
100
AcDbXrecord
 10
0.0
 20
0.0
 30
0.0
  0
XRECORD
  5
501
102
{ACAD_REACTORS
330
4EE
102
}
330
4EE
100
AcDbXrecord
 10
0.0
 20
0.0
 30
0.0
  0
XRECORD
  5
502
102
{ACAD_REACTORS
330
4EE
102
}
330
4EE
100
AcDbXrecord
 10
0.0
 20
0.0
 30
0.0
  0
XRECORD
  5
4FF
102
{ACAD_REACTORS
330
4EE
102
}
330
4EE
100
AcDbXrecord
 10
0.0
 20
0.0
 30
0.0
  0
XRECORD
  5
4FC
102
{ACAD_REACTORS
330
4EE
102
}
330
4EE
100
AcDbXrecord
340
0
  0
XRECORD
  5
4FD
102
{ACAD_REACTORS
330
4EE
102
}
330
4EE
100
AcDbXrecord
 70
     0
  0
XRECORD
  5
4F2
102
{ACAD_REACTORS
330
4EE
102
}
330
4EE
100
AcDbXrecord
  1

  0
XRECORD
  5
4EF
102
{ACAD_REACTORS
330
4EE
102
}
330
4EE
100
AcDbXrecord
 90
        1
  0
XRECORD
  5
4F0
102
{ACAD_REACTORS
330
4EE
102
}
330
4EE
100
AcDbXrecord
 90
       70
  0
XRECORD
  5
507
102
{ACAD_REACTORS
330
4EE
102
}
330
4EE
100
AcDbXrecord
340
0
  0
XRECORD
  5
50D
102
{ACAD_REACTORS
330
4EE
102
}
330
4EE
100
AcDbXrecord
 10
0.0
 20
0.0
 30
0.0
  0
XRECORD
  5
509
102
{ACAD_REACTORS
330
4EE
102
}
330
4EE
100
AcDbXrecord
 10
0.0
 20
0.0
 30
0.0
  0
XRECORD
  5
50C
102
{ACAD_REACTORS
330
4EE
102
}
330
4EE
100
AcDbXrecord
 10
0.0
 20
0.0
 30
0.0
  0
XRECORD
  5
50A
102
{ACAD_REACTORS
330
4EE
102
}
330
4EE
100
AcDbXrecord
 10
0.0
 20
0.0
 30
0.0
  0
XRECORD
  5
50B
102
{ACAD_REACTORS
330
4EE
102
}
330
4EE
100
AcDbXrecord
 10
0.0
 20
0.0
 30
0.0
  0
XRECORD
  5
508
102
{ACAD_REACTORS
330
4EE
102
}
330
4EE
100
AcDbXrecord
 10
0.0
 20
0.0
 30
0.0
  0
XRECORD
  5
505
102
{ACAD_REACTORS
330
4EE
102
}
330
4EE
100
AcDbXrecord
340
0
  0
XRECORD
  5
506
102
{ACAD_REACTORS
330
4EE
102
}
330
4EE
100
AcDbXrecord
 70
     0
  0
XRECORD
  5
4FA
102
{ACAD_REACTORS
330
4EE
102
}
330
4EE
100
AcDbXrecord
  1
{653B6EE2-8DB5-11D6-88E6-0090279574E7}
  0
DICTIONARYVAR
  5
4EC
102
{ACAD_REACTORS
330
4EB
102
}
330
4EB
100
DictionaryVariables
280
     0
  1
1
  0
ENDSEC
  0
EOF
