  0
SECTION
  2
HEADER
  9
$ACADVER
  1
AC1014
  9
$ACADMAINTVER
 70
     9
  9
$DWGCODEPAGE
  3
ANSI_1252
  9
$INSBASE
 10
0.0
 20
0.0
 30
0.0
  9
$EXTMIN
 10
2.071704689783217
 20
2.910779039937601
 30
0.0
  9
$EXTMAX
 10
6.084545310216783
 20
5.584545310216783
 30
0.0
  9
$LIMMIN
 10
0.0
 20
0.0
  9
$LIMMAX
 10
8.5
 20
11.0
  9
$ORTHOMODE
 70
     1
  9
$REGENMODE
 70
     1
  9
$FILLMODE
 70
     1
  9
$QTEXTMODE
 70
     0
  9
$MIRRTEXT
 70
     0
  9
$DRAGMODE
 70
     2
  9
$LTSCALE
 40
1.0
  9
$OSMODE
 70
    39
  9
$ATTMODE
 70
     1
  9
$TEXTSIZE
 40
0.125
  9
$TRACEWID
 40
0.05
  9
$TEXTSTYLE
  7
ROMANS
  9
$CLAYER
  8
0
  9
$CELTYPE
  6
BYLAYER
  9
$CECOLOR
 62
   256
  9
$CELTSCALE
 40
1.0
  9
$DELOBJ
 70
     1
  9
$DISPSILH
 70
     1
  9
$DIMSCALE
 40
1.0
  9
$DIMASZ
 40
0.125
  9
$DIMEXO
 40
0.125
  9
$DIMDLI
 40
0.375
  9
$DIMRND
 40
0.0
  9
$DIMDLE
 40
0.0
  9
$DIMEXE
 40
0.125
  9
$DIMTP
 40
0.0
  9
$DIMTM
 40
0.051
  9
$DIMTXT
 40
0.125
  9
$DIMCEN
 40
-0.125
  9
$DIMTSZ
 40
0.0
  9
$DIMTOL
 70
     0
  9
$DIMLIM
 70
     0
  9
$DIMTIH
 70
     1
  9
$DIMTOH
 70
     1
  9
$DIMSE1
 70
     0
  9
$DIMSE2
 70
     0
  9
$DIMTAD
 70
     0
  9
$DIMZIN
 70
     4
  9
$DIMBLK
  1

  9
$DIMASO
 70
     1
  9
$DIMSHO
 70
     1
  9
$DIMPOST
  1

  9
$DIMAPOST
  1

  9
$DIMALT
 70
     0
  9
$DIMALTD
 70
     2
  9
$DIMALTF
 40
25.4
  9
$DIMLFAC
 40
1.0
  9
$DIMTOFL
 70
     0
  9
$DIMTVP
 40
0.0
  9
$DIMTIX
 70
     0
  9
$DIMSOXD
 70
     0
  9
$DIMSAH
 70
     0
  9
$DIMBLK1
  1

  9
$DIMBLK2
  1

  9
$DIMSTYLE
  2
STANDARD
  9
$DIMCLRD
 70
     0
  9
$DIMCLRE
 70
     0
  9
$DIMCLRT
 70
     0
  9
$DIMTFAC
 40
1.0
  9
$DIMGAP
 40
0.09
  9
$DIMJUST
 70
     0
  9
$DIMSD1
 70
     0
  9
$DIMSD2
 70
     0
  9
$DIMTOLJ
 70
     1
  9
$DIMTZIN
 70
     0
  9
$DIMALTZ
 70
     0
  9
$DIMALTTZ
 70
     0
  9
$DIMFIT
 70
     3
  9
$DIMUPT
 70
     0
  9
$DIMUNIT
 70
     2
  9
$DIMDEC
 70
     3
  9
$DIMTDEC
 70
     4
  9
$DIMALTU
 70
     2
  9
$DIMALTTD
 70
     2
  9
$DIMTXSTY
  7
ROMANS
  9
$DIMAUNIT
 70
     0
  9
$LUNITS
 70
     2
  9
$LUPREC
 70
     3
  9
$SKETCHINC
 40
0.1
  9
$FILLETRAD
 40
0.031
  9
$AUNITS
 70
     0
  9
$AUPREC
 70
     0
  9
$MENU
  1
ACAD
  9
$ELEVATION
 40
0.0
  9
$PELEVATION
 40
0.0
  9
$THICKNESS
 40
0.0
  9
$LIMCHECK
 70
     0
  9
$BLIPMODE
 70
     0
  9
$CHAMFERA
 40
0.0
  9
$CHAMFERB
 40
0.0
  9
$CHAMFERC
 40
0.0
  9
$CHAMFERD
 40
0.0
  9
$SKPOLY
 70
     0
  9
$TDCREATE
 40
2448344.642325579
  9
$TDUPDATE
 40
2452458.302353599
  9
$TDINDWG
 40
0.0066871181
  9
$TDUSRTIMER
 40
0.0066871181
  9
$USRTIMER
 70
     1
  9
$ANGBASE
 50
0.0
  9
$ANGDIR
 70
     0
  9
$PDMODE
 70
     0
  9
$PDSIZE
 40
0.0
  9
$PLINEWID
 40
0.0
  9
$COORDS
 70
     2
  9
$SPLFRAME
 70
     0
  9
$SPLINETYPE
 70
     6
  9
$SPLINESEGS
 70
     8
  9
$ATTDIA
 70
     0
  9
$ATTREQ
 70
     1
  9
$HANDLING
 70
 22529
  9
$HANDSEED
  5
367
  9
$SURFTAB1
 70
     6
  9
$SURFTAB2
 70
     6
  9
$SURFTYPE
 70
     6
  9
$SURFU
 70
     6
  9
$SURFV
 70
     6
  9
$UCSNAME
  2

  9
$UCSORG
 10
0.0
 20
0.0
 30
0.0
  9
$UCSXDIR
 10
1.0
 20
0.0
 30
0.0
  9
$UCSYDIR
 10
0.0
 20
1.0
 30
0.0
  9
$PUCSNAME
  2

  9
$PUCSORG
 10
0.0
 20
0.0
 30
0.0
  9
$PUCSXDIR
 10
1.0
 20
0.0
 30
0.0
  9
$PUCSYDIR
 10
0.0
 20
1.0
 30
0.0
  9
$USERI1
 70
     0
  9
$USERI2
 70
     0
  9
$USERI3
 70
     0
  9
$USERI4
 70
     0
  9
$USERI5
 70
     0
  9
$USERR1
 40
0.0
  9
$USERR2
 40
0.0
  9
$USERR3
 40
0.0
  9
$USERR4
 40
0.0
  9
$USERR5
 40
0.0
  9
$WORLDVIEW
 70
     1
  9
$SHADEDGE
 70
     3
  9
$SHADEDIF
 70
    70
  9
$TILEMODE
 70
     1
  9
$MAXACTVP
 70
    16
  9
$PINSBASE
 10
0.0
 20
0.0
 30
0.0
  9
$PLIMCHECK
 70
     0
  9
$PEXTMIN
 10
1.000000000000000E+20
 20
1.000000000000000E+20
 30
1.000000000000000E+20
  9
$PEXTMAX
 10
-1.000000000000000E+20
 20
-1.000000000000000E+20
 30
-1.000000000000000E+20
  9
$PLIMMIN
 10
0.0
 20
0.0
  9
$PLIMMAX
 10
12.0
 20
9.0
  9
$UNITMODE
 70
     0
  9
$VISRETAIN
 70
     0
  9
$PLINEGEN
 70
     1
  9
$PSLTSCALE
 70
     0
  9
$TREEDEPTH
 70
  3020
  9
$PICKSTYLE
 70
     1
  9
$CMLSTYLE
  2
STANDARD
  9
$CMLJUST
 70
     0
  9
$CMLSCALE
 40
1.0
  9
$PROXYGRAPHICS
 70
     1
  9
$MEASUREMENT
 70
     0
  0
ENDSEC
  0
SECTION
  2
CLASSES
  0
CLASS
  1
LWPOLYLINE
  2
AcDbPolyline
  3
AutoCAD 2000
 90
        0
280
     0
281
     1
  0
CLASS
  1
ACDBDICTIONARYWDFLT
  2
AcDbDictionaryWithDefault
  3
AutoCAD 2000
 90
        0
280
     0
281
     0
  0
CLASS
  1
ACDBPLACEHOLDER
  2
AcDbPlaceHolder
  3
AutoCAD 2000
 90
        0
280
     0
281
     0
  0
CLASS
  1
LAYOUT
  2
AcDbLayout
  3
AutoCAD 2000
 90
        0
280
     0
281
     0
  0
CLASS
  1
DICTIONARYVAR
  2
AcDbDictionaryVar
  3
AutoCAD 2000
 90
        0
280
     0
281
     0
  0
CLASS
  1
LONG_TRANSACTION
  2
AcDbLongTransaction
  3
AutoCAD 2000
 90
        0
280
     0
281
     0
  0
CLASS
  1
LWPOLYLINE
  2
AcDbPolyline
  3
AutoCAD 2000
 90
        0
280
     0
281
     1
  0
CLASS
  1
HATCH
  2
AcDbHatch
  3
AutoCAD 2000
 90
        0
280
     0
281
     1
  0
CLASS
  1
XRECORD
  2
AcDbXrecord
  3
AutoCAD 2000
 90
        0
280
     0
281
     0
  0
ENDSEC
  0
SECTION
  2
TABLES
  0
TABLE
  2
VPORT
  5
8
330
0
100
AcDbSymbolTable
 70
     2
  0
VPORT
  5
342
330
8
100
AcDbSymbolTableRecord
100
AcDbViewportTableRecord
  2
*ACTIVE
 70
     0
 10
0.0
 20
0.0
 11
1.0
 21
1.0
 12
7.721146360953635
 22
4.247628865604495
 13
0.0
 23
0.0
 14
0.015625
 24
0.015625
 15
0.0
 25
0.0
 16
0.0
 26
0.0
 36
1.0
 17
0.0
 27
0.0
 37
0.0
 40
2.697269094929495
 41
4.320930232558139
 42
50.0
 43
0.0
 44
0.0
 50
0.0
 51
0.0
 71
     0
 72
  2000
 73
     1
 74
     1
 75
     1
 76
     0
 77
     0
 78
     0
  0
ENDTAB
  0
TABLE
  2
LTYPE
  5
5
330
0
100
AcDbSymbolTable
 70
     1
  0
LTYPE
  5
12
330
5
100
AcDbSymbolTableRecord
100
AcDbLinetypeTableRecord
  2
BYBLOCK
 70
     0
  3

 72
    65
 73
     0
 40
0.0
  0
LTYPE
  5
13
330
5
100
AcDbSymbolTableRecord
100
AcDbLinetypeTableRecord
  2
BYLAYER
 70
     0
  3

 72
    65
 73
     0
 40
0.0
  0
LTYPE
  5
14
330
5
100
AcDbSymbolTableRecord
100
AcDbLinetypeTableRecord
  2
CONTINUOUS
 70
     0
  3
Solid line
 72
    65
 73
     0
 40
0.0
  0
ENDTAB
  0
TABLE
  2
LAYER
  5
2
330
0
100
AcDbSymbolTable
 70
     2
  0
LAYER
  5
F
330
2
100
AcDbSymbolTableRecord
100
AcDbLayerTableRecord
  2
0
 70
     0
 62
     7
  6
CONTINUOUS
  0
LAYER
  5
2A
330
2
100
AcDbSymbolTableRecord
100
AcDbLayerTableRecord
  2
TEXT
 70
     0
 62
     3
  6
CONTINUOUS
  0
ENDTAB
  0
TABLE
  2
STYLE
  5
3
330
0
100
AcDbSymbolTable
 70
     3
  0
STYLE
  5
10
330
3
100
AcDbSymbolTableRecord
100
AcDbTextStyleTableRecord
  2
STANDARD
 70
     0
 40
0.0
 41
1.0
 50
0.0
 71
     0
 42
0.25
  3
txt
  4

  0
STYLE
  5
22D
330
3
100
AcDbSymbolTableRecord
100
AcDbTextStyleTableRecord
  2
ITALICC
 70
     0
 40
0.0
 41
1.0
 50
0.0
 71
     0
 42
0.125
  3
italicc
  4

  0
STYLE
  5
33E
330
3
100
AcDbSymbolTableRecord
100
AcDbTextStyleTableRecord
  2
ROMANS
 70
     0
 40
0.0
 41
1.0
 50
0.0
 71
     0
 42
0.125
  3
romans.shx
  4

  0
ENDTAB
  0
TABLE
  2
VIEW
  5
6
330
0
100
AcDbSymbolTable
 70
     0
  0
ENDTAB
  0
TABLE
  2
UCS
  5
7
330
0
100
AcDbSymbolTable
 70
     0
  0
ENDTAB
  0
TABLE
  2
APPID
  5
9
330
0
100
AcDbSymbolTable
 70
     1
  0
APPID
  5
11
330
9
100
AcDbSymbolTableRecord
100
AcDbRegAppTableRecord
  2
ACAD
 70
     0
  0
ENDTAB
  0
TABLE
  2
DIMSTYLE
  5
A
330
0
100
AcDbSymbolTable
 70
     1
  0
DIMSTYLE
105
223
330
A
100
AcDbSymbolTableRecord
100
AcDbDimStyleTableRecord
  2
STANDARD
 70
     0
  3

  4

  5

  6

  7

 40
1.0
 41
0.18
 42
0.0625
 43
0.38
 44
0.18
 45
0.0
 46
0.0
 47
0.0
 48
0.0
140
0.18
141
0.09
142
0.0
143
25.4
144
1.0
145
0.0
146
1.0
147
0.09
 71
     0
 72
     0
 73
     1
 74
     1
 75
     0
 76
     0
 77
     0
 78
     0
170
     0
171
     2
172
     0
173
     0
174
     0
175
     0
176
     0
177
     0
178
     0
270
     2
271
     4
272
     4
273
     2
274
     2
340
10
275
     0
280
     0
281
     0
282
     0
283
     1
284
     0
285
     0
286
     0
287
     3
288
     0
  0
ENDTAB
  0
TABLE
  2
BLOCK_RECORD
  5
1
330
0
100
AcDbSymbolTable
 70
     0
  0
BLOCK_RECORD
  5
18
102
{ACAD_XDICTIONARY
360
365
102
}
330
1
100
AcDbSymbolTableRecord
100
AcDbBlockTableRecord
  2
*MODEL_SPACE
  0
BLOCK_RECORD
  5
15
102
{ACAD_XDICTIONARY
360
363
102
}
330
1
100
AcDbSymbolTableRecord
100
AcDbBlockTableRecord
  2
*PAPER_SPACE
  0
ENDTAB
  0
ENDSEC
  0
SECTION
  2
BLOCKS
  0
BLOCK
  5
34
330
18
100
AcDbEntity
  8
0
100
AcDbBlockBegin
  2
*MODEL_SPACE
 70
     0
 10
0.0
 20
0.0
 30
0.0
  3
*MODEL_SPACE
  1

  0
ENDBLK
  5
35
330
18
100
AcDbEntity
  8
0
100
AcDbBlockEnd
  0
BLOCK
  5
32
330
15
100
AcDbEntity
 67
     1
  8
0
100
AcDbBlockBegin
  2
*PAPER_SPACE
 70
     0
 10
0.0
 20
0.0
 30
0.0
  3
*PAPER_SPACE
  1

  0
ENDBLK
  5
33
330
15
100
AcDbEntity
 67
     1
  8
0
100
AcDbBlockEnd
  0
ENDSEC
  0
SECTION
  2
ENTITIES
  0
LWPOLYLINE
  5
20D
330
18
100
AcDbEntity
  8
0
100
AcDbPolyline
 90
       20
 70
     1
 43
0.0
 10
6.047125
 20
5.578125
 10
2.109125
 20
5.578125
 42
0.4142135623730951
 10
2.078125
 20
5.547125
 10
2.078125
 20
3.609375
 42
1.0
 10
2.140625
 20
3.609375
 10
2.140625
 20
3.640625
 10
2.523998412263472
 20
3.640624999999999
 42
0.2679491924311222
 10
2.551061706131736
 20
3.656249999999999
 10
2.578125
 20
3.703125
 10
2.140625
 20
3.703125
 10
2.140624999999999
 20
5.515625
 10
6.015625
 20
5.515625
 10
6.015625
 20
3.703125
 10
5.578125
 20
3.703125
 10
5.605188293868264
 20
3.656249999999999
 42
0.267949192431124
 10
5.632251587736528
 20
3.640624999999999
 10
6.015625
 20
3.640625
 10
6.015624999999999
 20
3.609375
 42
1.0
 10
6.078125
 20
3.609375
 10
6.078125
 20
5.547125
 42
0.4142135623730951
  0
TEXT
  5
2B3
330
18
100
AcDbEntity
  8
TEXT
100
AcDbText
 10
3.349380385676699
 20
3.368797644020183
 30
0.0
 40
0.125
  1
PART #110232
  7
ITALICC
 72
     1
 11
4.10235657615289
 21
3.368797644020183
 31
0.0
100
AcDbText
  0
LINE
  5
2B4
330
18
100
AcDbEntity
  8
TEXT
100
AcDbLine
 10
4.070090075104952
 20
3.124443958000349
 30
0.0
 11
4.14673805639751
 21
3.124443958000349
 31
0.0
  0
LINE
  5
2B5
330
18
100
AcDbEntity
  8
TEXT
100
AcDbLine
 10
4.14225816907101
 20
3.188720652657115
 30
0.0
 11
4.074758451421494
 21
3.188720652657115
 31
0.0
  0
LWPOLYLINE
  5
2B6
330
18
100
AcDbEntity
  8
TEXT
100
AcDbPolyline
 90
        5
 70
     0
 43
0.0001332181640625
 10
2.432978032570277
 20
3.065493850899302
 10
2.446299848976526
 20
3.065493850899302
 10
2.446299848976526
 20
3.102128846016491
 10
2.482934844093716
 20
3.102128846016491
 10
2.482934844093716
 20
3.115450662422738
  0
LWPOLYLINE
  5
2B7
330
18
100
AcDbEntity
  8
TEXT
100
AcDbPolyline
 90
        3
 70
     0
 43
0.0006660908203125
 10
2.472943481789025
 20
3.162077019844617
 10
2.386351675148401
 20
3.162077019844617
 10
2.386351675148401
 20
3.07548521320399
  0
LWPOLYLINE
  5
2B8
330
18
100
AcDbEntity
  8
TEXT
100
AcDbPolyline
 90
        3
 70
     0
 43
0.0006660908203125
 10
2.472943481789025
 20
3.188720652657118
 10
2.359708042335903
 20
3.188720652657118
 10
2.359708042335903
 20
3.07548521320399
  0
LWPOLYLINE
  5
2B9
330
18
100
AcDbEntity
  8
TEXT
100
AcDbPolyline
 90
        5
 70
     0
 43
0.0001332181640625
 10
2.482934844093716
 20
2.995554314766491
 10
2.482934844093716
 20
3.008876131172741
 10
2.446299848976528
 20
3.008876131172741
 10
2.446299848976528
 20
3.045511126289928
 10
2.432978032570277
 20
3.045511126289928
  0
LWPOLYLINE
  5
2BA
330
18
100
AcDbEntity
  8
TEXT
100
AcDbPolyline
 90
        3
 70
     0
 43
0.0006660908203125
 10
2.386351675148401
 20
3.035519763985242
 10
2.386351675148401
 20
2.948927957344616
 10
2.472943481789025
 20
2.948927957344616
  0
LWPOLYLINE
  5
2BB
330
18
100
AcDbEntity
  8
TEXT
100
AcDbPolyline
 90
        3
 70
     0
 43
0.0006660908203125
 10
2.359708042335903
 20
3.035519763985242
 10
2.359708042335903
 20
2.922284324532115
 10
2.472943481789025
 20
2.922284324532115
  0
LWPOLYLINE
  5
2BC
330
18
100
AcDbEntity
  8
TEXT
100
AcDbPolyline
 90
        2
 70
     0
 43
0.0001332181640625
 10
2.386351675148401
 20
3.035519763985242
 10
2.446299848976528
 20
3.045511126289928
  0
LWPOLYLINE
  5
2BD
330
18
100
AcDbEntity
  8
TEXT
100
AcDbPolyline
 90
        2
 70
     0
 43
0.0001332181640625
 10
2.432978032570277
 20
3.045511126289928
 10
2.359708042335903
 20
3.035519763985242
  0
LWPOLYLINE
  5
2BE
330
18
100
AcDbEntity
  8
TEXT
100
AcDbPolyline
 90
        2
 70
     0
 43
0.0006660908203125
 10
2.386351675148401
 20
3.035519763985242
 10
2.359708042335903
 20
3.035519763985242
  0
LWPOLYLINE
  5
2BF
330
18
100
AcDbEntity
  8
TEXT
100
AcDbPolyline
 90
        2
 70
     0
 43
0.0001332181640625
 10
2.386351675148401
 20
2.948927957344616
 10
2.446299848976528
 20
3.008876131172741
  0
LWPOLYLINE
  5
2C0
330
18
100
AcDbEntity
  8
TEXT
100
AcDbPolyline
 90
        2
 70
     0
 43
0.0006660908203125
 10
2.386351675148401
 20
3.07548521320399
 10
2.359708042335903
 20
3.07548521320399
  0
LWPOLYLINE
  5
2C1
330
18
100
AcDbEntity
  8
TEXT
100
AcDbPolyline
 90
        2
 70
     0
 43
0.0001332181640625
 10
2.359708042335903
 20
3.07548521320399
 10
2.432978032570277
 20
3.065493850899302
  0
LWPOLYLINE
  5
2C2
330
18
100
AcDbEntity
  8
TEXT
100
AcDbPolyline
 90
        2
 70
     0
 43
0.0001332181640625
 10
2.386351675148401
 20
3.07548521320399
 10
2.446299848976526
 20
3.065493850899302
  0
LWPOLYLINE
  5
2C3
330
18
100
AcDbEntity
  8
TEXT
100
AcDbPolyline
 90
        2
 70
     0
 43
0.0001332181640625
 10
2.386351675148401
 20
3.162077019844617
 10
2.446299848976526
 20
3.102128846016491
  0
LWPOLYLINE
  5
2C4
330
18
100
AcDbEntity
  8
TEXT
100
AcDbPolyline
 90
        5
 70
     0
 43
0.0001332181640625
 10
2.552874380226527
 20
3.045511126289928
 10
2.539552563820278
 20
3.045511126289928
 10
2.539552563820278
 20
3.008876131172741
 10
2.502917568703088
 20
3.008876131172741
 10
2.502917568703088
 20
2.995554314766491
  0
LWPOLYLINE
  5
2C5
330
18
100
AcDbEntity
  8
TEXT
100
AcDbPolyline
 90
        2
 70
     0
 43
0.0001332181640625
 10
2.599500737648402
 20
3.035519763985242
 10
2.539552563820278
 20
3.045511126289928
  0
LWPOLYLINE
  5
2C6
330
18
100
AcDbEntity
  8
TEXT
100
AcDbPolyline
 90
        2
 70
     0
 43
0.0001332181640625
 10
2.626144370460903
 20
3.035519763985242
 10
2.552874380226527
 20
3.045511126289928
  0
LWPOLYLINE
  5
2C7
330
18
100
AcDbEntity
  8
TEXT
100
AcDbPolyline
 90
        3
 70
     0
 43
0.0006660908203125
 10
2.512908931007777
 20
2.922284324532115
 10
2.626144370460903
 20
2.922284324532115
 10
2.626144370460903
 20
3.035519763985242
  0
LWPOLYLINE
  5
2C8
330
18
100
AcDbEntity
  8
TEXT
100
AcDbPolyline
 90
        3
 70
     0
 43
0.0006660908203125
 10
2.512908931007777
 20
2.948927957344616
 10
2.599500737648402
 20
2.948927957344616
 10
2.599500737648402
 20
3.035519763985242
  0
LWPOLYLINE
  5
2C9
330
18
100
AcDbEntity
  8
TEXT
100
AcDbPolyline
 90
        2
 70
     0
 43
0.0001332181640625
 10
2.599500737648402
 20
2.948927957344616
 10
2.539552563820278
 20
3.008876131172741
  0
LWPOLYLINE
  5
2CA
330
18
100
AcDbEntity
  8
TEXT
100
AcDbPolyline
 90
        2
 70
     0
 43
0.0006660908203125
 10
2.512908931007777
 20
2.948927957344616
 10
2.512908931007777
 20
2.922284324532115
  0
LWPOLYLINE
  5
2CB
330
18
100
AcDbEntity
  8
TEXT
100
AcDbPolyline
 90
        2
 70
     0
 43
0.0001332181640625
 10
2.502917568703088
 20
2.995554314766491
 10
2.512908931007777
 20
2.922284324532115
  0
LWPOLYLINE
  5
2CC
330
18
100
AcDbEntity
  8
TEXT
100
AcDbPolyline
 90
        2
 70
     0
 43
0.0001332181640625
 10
2.512908931007777
 20
2.948927957344616
 10
2.502917568703088
 20
3.008876131172741
  0
LWPOLYLINE
  5
2CD
330
18
100
AcDbEntity
  8
TEXT
100
AcDbPolyline
 90
        2
 70
     0
 43
0.0001332181640625
 10
2.472943481789025
 20
2.922284324532115
 10
2.482934844093716
 20
2.995554314766491
  0
LWPOLYLINE
  5
2CE
330
18
100
AcDbEntity
  8
TEXT
100
AcDbPolyline
 90
        2
 70
     0
 43
0.0001332181640625
 10
2.472943481789025
 20
2.948927957344616
 10
2.482934844093716
 20
3.008876131172741
  0
LWPOLYLINE
  5
2CF
330
18
100
AcDbEntity
  8
TEXT
100
AcDbPolyline
 90
        2
 70
     0
 43
0.0006660908203125
 10
2.472943481789025
 20
2.948927957344616
 10
2.472943481789025
 20
2.922284324532115
  0
LWPOLYLINE
  5
2D0
330
18
100
AcDbEntity
  8
TEXT
100
AcDbPolyline
 90
        2
 70
     0
 43
0.0006660908203125
 10
2.599500737648402
 20
3.035519763985242
 10
2.626144370460903
 20
3.035519763985242
  0
LWPOLYLINE
  5
2D1
330
18
100
AcDbEntity
  8
TEXT
100
AcDbPolyline
 90
        2
 70
     0
 43
0.0001332181640625
 10
2.599500737648402
 20
3.162077019844617
 10
2.539552563820278
 20
3.102128846016491
  0
LWPOLYLINE
  5
2D2
330
18
100
AcDbEntity
  8
TEXT
100
AcDbPolyline
 90
        2
 70
     0
 43
0.0001332181640625
 10
2.599500737648402
 20
3.07548521320399
 10
2.539552563820278
 20
3.065493850899302
  0
LWPOLYLINE
  5
2D3
330
18
100
AcDbEntity
  8
TEXT
100
AcDbPolyline
 90
        2
 70
     0
 43
0.0001332181640625
 10
2.552874380226527
 20
3.065493850899302
 10
2.626144370460903
 20
3.07548521320399
  0
LWPOLYLINE
  5
2D4
330
18
100
AcDbEntity
  8
TEXT
100
AcDbPolyline
 90
        3
 70
     0
 43
0.0006660908203125
 10
2.599500737648402
 20
3.07548521320399
 10
2.599500737648402
 20
3.162077019844617
 10
2.512908931007777
 20
3.162077019844617
  0
LWPOLYLINE
  5
2D5
330
18
100
AcDbEntity
  8
TEXT
100
AcDbPolyline
 90
        3
 70
     0
 43
0.0006660908203125
 10
2.626144370460903
 20
3.07548521320399
 10
2.626144370460903
 20
3.188720652657118
 10
2.512908931007777
 20
3.188720652657118
  0
LWPOLYLINE
  5
2D6
330
18
100
AcDbEntity
  8
TEXT
100
AcDbPolyline
 90
        2
 70
     0
 43
0.0001332181640625
 10
2.512908931007777
 20
3.188720652657118
 10
2.502917568703088
 20
3.115450662422738
  0
LWPOLYLINE
  5
2D7
330
18
100
AcDbEntity
  8
TEXT
100
AcDbPolyline
 90
        2
 70
     0
 43
0.0001332181640625
 10
2.512908931007777
 20
3.162077019844617
 10
2.502917568703088
 20
3.102128846016491
  0
LWPOLYLINE
  5
2D8
330
18
100
AcDbEntity
  8
TEXT
100
AcDbPolyline
 90
        2
 70
     0
 43
0.0006660908203125
 10
2.512908931007777
 20
3.162077019844617
 10
2.512908931007777
 20
3.188720652657118
  0
LWPOLYLINE
  5
2D9
330
18
100
AcDbEntity
  8
TEXT
100
AcDbPolyline
 90
        5
 70
     0
 43
0.0001332181640625
 10
2.502917568703088
 20
3.115450662422738
 10
2.502917568703088
 20
3.102128846016491
 10
2.539552563820278
 20
3.102128846016491
 10
2.539552563820278
 20
3.065493850899302
 10
2.552874380226527
 20
3.065493850899302
  0
LWPOLYLINE
  5
2DA
330
18
100
AcDbEntity
  8
TEXT
100
AcDbPolyline
 90
        2
 70
     0
 43
0.0001332181640625
 10
2.472943481789025
 20
3.162077019844617
 10
2.482934844093716
 20
3.102128846016491
  0
LWPOLYLINE
  5
2DB
330
18
100
AcDbEntity
  8
TEXT
100
AcDbPolyline
 90
        2
 70
     0
 43
0.0001332181640625
 10
2.482934844093716
 20
3.115450662422738
 10
2.472943481789025
 20
3.188720652657118
  0
LWPOLYLINE
  5
2DC
330
18
100
AcDbEntity
  8
TEXT
100
AcDbPolyline
 90
        2
 70
     0
 43
0.0006660908203125
 10
2.472943481789025
 20
3.162077019844617
 10
2.472943481789025
 20
3.188720652657118
  0
LWPOLYLINE
  5
2DD
330
18
100
AcDbEntity
  8
TEXT
100
AcDbPolyline
 90
        2
 70
     0
 43
0.0006660908203125
 10
2.599500737648402
 20
3.07548521320399
 10
2.626144370460903
 20
3.07548521320399
  0
LWPOLYLINE
  5
2DE
330
18
100
AcDbEntity
  8
TEXT
100
AcDbPolyline
 90
        2
 70
     0
 43
0.0
 10
3.344924291209533
 20
2.973798961883532
 42
0.3318488747599744
 10
3.414043583774846
 20
2.922247619668604
 42
-6.868794160588311
  0
LINE
  5
2DF
330
18
100
AcDbEntity
  8
TEXT
100
AcDbLine
 10
3.41290401027865
 20
3.256732130395925
 30
0.0
 11
3.346095297712285
 21
3.256732130395925
 31
0.0
  0
LINE
  5
2E0
330
18
100
AcDbEntity
  8
TEXT
100
AcDbLine
 10
3.066752930093191
 20
3.188720652657115
 30
0.0
 11
2.89102117719468
 21
3.188720652657115
 31
0.0
  0
ARC
  5
2E1
330
18
100
AcDbEntity
  8
TEXT
100
AcDbCircle
 10
2.96185864355323
 20
3.005443428029161
 30
0.0
 40
0.0831958083605586
100
AcDbArc
 50
270.0
 51
90.0
  0
LINE
  5
2E2
330
18
100
AcDbEntity
  8
TEXT
100
AcDbLine
 10
2.896258507308928
 20
3.124443958000349
 30
0.0
 11
3.063164161337899
 21
3.124443958000349
 31
0.0
  0
LINE
  5
2E3
330
18
100
AcDbEntity
  8
TEXT
100
AcDbLine
 10
2.966799017459509
 20
2.990604626002043
 30
0.0
 11
2.808933717748175
 21
2.990604626002043
 31
0.0
  0
LINE
  5
2E4
330
18
100
AcDbEntity
  8
TEXT
100
AcDbLine
 10
2.808933717748177
 20
2.922247619668604
 30
0.0
 11
2.961858643553229
 21
2.922247619668604
 31
0.0
  0
ARC
  5
2E5
330
18
100
AcDbEntity
  8
TEXT
100
AcDbCircle
 10
2.89102117719468
 20
3.106633193210613
 30
0.0
 40
0.0820874594465043
100
AcDbArc
 50
90.0
 51
270.0
  0
LINE
  5
2E6
330
18
100
AcDbEntity
  8
TEXT
100
AcDbLine
 10
2.808933717748175
 20
2.990604626002043
 30
0.0
 11
2.808933717748177
 21
2.922247619668604
 31
0.0
  0
LINE
  5
2E7
330
18
100
AcDbEntity
  8
TEXT
100
AcDbLine
 10
2.89102117719468
 20
3.024545733764107
 30
0.0
 11
2.966799017459509
 21
3.024545733764107
 31
0.0
  0
ARC
  5
2E8
330
18
100
AcDbEntity
  8
TEXT
100
AcDbCircle
 10
2.966799017459509
 20
3.007575179883077
 30
0.0
 40
0.0169705538810321
100
AcDbArc
 50
270.0
 51
90.0
  0
LINE
  5
2E9
330
18
100
AcDbEntity
  8
TEXT
100
AcDbLine
 10
2.961858643553229
 20
3.088639236389721
 30
0.0
 11
2.896258507308928
 21
3.088639236389721
 31
0.0
  0
ARC
  5
2EA
330
18
100
AcDbEntity
  8
TEXT
100
AcDbCircle
 10
2.896258507308928
 20
3.106541597195037
 30
0.0
 40
0.017902360805315
100
AcDbArc
 50
90.0
 51
270.0
  0
LINE
  5
2EB
330
18
100
AcDbEntity
  8
TEXT
100
AcDbLine
 10
3.257224822113044
 20
3.087848656543994
 30
0.0
 11
3.198594501081106
 21
3.188720652657115
 31
0.0
  0
LINE
  5
2EC
330
18
100
AcDbEntity
  8
TEXT
100
AcDbLine
 10
3.117050768818004
 20
2.922247619668604
 30
0.0
 11
3.213691019892999
 21
2.922518258766886
 31
0.0
  0
LWPOLYLINE
  5
2ED
330
18
100
AcDbEntity
  8
TEXT
100
AcDbPolyline
 90
        6
 70
     1
 43
0.0
 10
3.159574572393154
 20
3.124443958000349
 10
3.129257978172946
 20
3.124443958000349
 10
3.129257978172946
 20
3.001332959945455
 42
0.407328721240804
 10
3.140801629334422
 20
2.989514045269069
 10
3.201423328379153
 20
2.989514045269069
 10
3.218888668786471
 20
3.022326274312548
  0
LINE
  5
2EE
330
18
100
AcDbEntity
  8
TEXT
100
AcDbLine
 10
3.063164161337899
 20
3.124443958000349
 30
0.0
 11
3.063164161337899
 21
2.982040011006653
 31
0.0
  0
ARC
  5
2EF
330
18
100
AcDbEntity
  8
TEXT
100
AcDbCircle
 10
3.123280179311651
 20
2.982040011006653
 30
0.0
 40
0.0601160179737537
100
AcDbArc
 50
180.0000000000003
 51
264.0521544866073
  0
LINE
  5
2F0
330
18
100
AcDbEntity
  8
TEXT
100
AcDbLine
 10
3.126795534937198
 20
3.223108570251253
 30
0.0
 11
3.066752930093191
 21
3.223108570251253
 31
0.0
  0
LINE
  5
2F1
330
18
100
AcDbEntity
  8
TEXT
100
AcDbLine
 10
3.066752930093191
 20
3.223108570251253
 30
0.0
 11
3.066752930093191
 21
3.188720652657115
 31
0.0
  0
LINE
  5
2F2
330
18
100
AcDbEntity
  8
TEXT
100
AcDbLine
 10
3.126795534937198
 20
3.188720652657115
 30
0.0
 11
3.126795534937198
 21
3.223108570251253
 31
0.0
  0
LINE
  5
2F3
330
18
100
AcDbEntity
  8
TEXT
100
AcDbLine
 10
3.198594501081106
 20
3.188720652657115
 30
0.0
 11
3.126795534937198
 21
3.188720652657115
 31
0.0
  0
LINE
  5
2F4
330
18
100
AcDbEntity
  8
TEXT
100
AcDbLine
 10
3.247624585116089
 20
2.942206125773616
 30
0.0
 11
3.344924291209534
 21
3.106556336708885
 31
0.0
  0
LINE
  5
2F5
330
18
100
AcDbEntity
  8
TEXT
100
AcDbLine
 10
3.344924291209534
 20
3.106556336708885
 30
0.0
 11
3.344924291209534
 21
2.973798961883528
 31
0.0
  0
ARC
  5
2F6
330
18
100
AcDbEntity
  8
TEXT
100
AcDbCircle
 10
3.213581025203876
 20
2.961795341942299
 30
0.0
 40
0.0392772371940762
100
AcDbArc
 50
270.1604552698595
 51
330.0831797321295
  0
LINE
  5
2F7
330
18
100
AcDbEntity
  8
TEXT
100
AcDbLine
 10
3.315973384918909
 20
3.188720652657115
 30
0.0
 11
3.257224822113044
 21
3.087848656543994
 31
0.0
  0
LINE
  5
2F8
330
18
100
AcDbEntity
  8
TEXT
100
AcDbLine
 10
3.346095297712285
 20
3.256732130395925
 30
0.0
 11
3.346095297712285
 21
3.188720652657115
 31
0.0
  0
LINE
  5
2F9
330
18
100
AcDbEntity
  8
TEXT
100
AcDbLine
 10
3.346095297712285
 20
3.188720652657115
 30
0.0
 11
3.315973384918909
 21
3.188720652657115
 31
0.0
  0
LWPOLYLINE
  5
2FA
330
18
100
AcDbEntity
  8
TEXT
100
AcDbPolyline
 90
        4
 70
     0
 43
0.0
 10
3.698181419332444
 20
3.116890168834239
 10
3.698181419332444
 20
2.922247619668604
 10
3.766659702620302
 20
2.922247619668604
 10
3.766659702620302
 20
2.965738564619042
 42
-1.714843617202739
  0
LWPOLYLINE
  5
2FB
330
18
100
AcDbEntity
  8
TEXT
100
AcDbPolyline
 90
        2
 70
     0
 43
0.0
 10
3.733315769876654
 20
3.188720652657118
 42
-0.3277054968067132
 10
3.769097460589819
 20
3.160398106887474
 42
6.667889725900311
  0
LWPOLYLINE
  5
2FC
330
18
100
AcDbEntity
  8
TEXT
100
AcDbPolyline
 90
        2
 70
     0
 43
0.0
 10
3.561882197297427
 20
3.124443958000349
 42
-0.4142135623731017
 10
3.56943598646354
 20
3.116890168834239
 42
-0.9999999999999998
  0
LINE
  5
2FD
330
18
100
AcDbEntity
  8
TEXT
100
AcDbLine
 10
3.579233920347447
 20
3.188720652657115
 30
0.0
 11
3.445215864416311
 21
3.188720652657115
 31
0.0
  0
LINE
  5
2FE
330
18
100
AcDbEntity
  8
TEXT
100
AcDbLine
 10
3.51204691747428
 20
2.922247619668604
 30
0.0
 11
3.51204691747428
 21
3.124443958000349
 31
0.0
  0
LINE
  5
2FF
330
18
100
AcDbEntity
  8
TEXT
100
AcDbLine
 10
3.445215864416311
 20
3.188720652657115
 30
0.0
 11
3.445215864416311
 21
2.987856445924706
 31
0.0
  0
LINE
  5
300
330
18
100
AcDbEntity
  8
TEXT
100
AcDbLine
 10
3.41290401027865
 20
3.004635457771603
 30
0.0
 11
3.41290401027865
 21
3.256732130395925
 31
0.0
  0
LINE
  5
301
330
18
100
AcDbEntity
  8
TEXT
100
AcDbLine
 10
3.414043583774845
 20
2.922247619668604
 30
0.0
 11
3.51204691747428
 21
2.922247619668604
 31
0.0
  0
LINE
  5
302
330
18
100
AcDbEntity
  8
TEXT
100
AcDbLine
 10
3.445215864416311
 20
2.987856445924706
 30
0.0
 11
3.428222227531709
 21
2.987856445924706
 31
0.0
  0
ARC
  5
303
330
18
100
AcDbEntity
  8
TEXT
100
AcDbCircle
 10
3.428222227531708
 20
3.003238252168132
 30
0.0
 40
0.0153818062434269
100
AcDbArc
 50
174.7883570302258
 51
270.0
  0
LINE
  5
304
330
18
100
AcDbEntity
  8
TEXT
100
AcDbLine
 10
3.51204691747428
 20
3.124443958000349
 30
0.0
 11
3.561882197297427
 21
3.124443958000349
 31
0.0
  0
LINE
  5
305
330
18
100
AcDbEntity
  8
TEXT
100
AcDbLine
 10
3.569435986463541
 20
3.116890168834239
 30
0.0
 11
3.569435986463541
 21
2.922247619668604
 31
0.0
  0
LINE
  5
306
330
18
100
AcDbEntity
  8
TEXT
100
AcDbLine
 10
3.636494033245381
 20
2.922247619668604
 30
0.0
 11
3.636494033245381
 21
3.124443958000349
 31
0.0
  0
LINE
  5
307
330
18
100
AcDbEntity
  8
TEXT
100
AcDbLine
 10
3.569435986463541
 20
2.922247619668604
 30
0.0
 11
3.636494033245381
 21
2.922247619668604
 31
0.0
  0
LWPOLYLINE
  5
308
330
18
100
AcDbEntity
  8
TEXT
100
AcDbPolyline
 90
        3
 70
     0
 43
0.0
 10
3.733315769876654
 20
3.188720652657118
 10
3.615015611060609
 20
3.188720652657118
 10
3.615015611060609
 20
3.161553155896222
 42
-1.960274751411753
  0
LINE
  5
309
330
18
100
AcDbEntity
  8
TEXT
100
AcDbLine
 10
3.636494033245381
 20
3.124443958000349
 30
0.0
 11
3.690627630166331
 21
3.124443958000349
 31
0.0
  0
LWPOLYLINE
  5
30A
330
18
100
AcDbEntity
  8
TEXT
100
AcDbPolyline
 90
        2
 70
     0
 43
0.0
 10
3.579233920347448
 20
3.188720652657118
 42
-0.3328679258950098
 10
3.615015611060609
 20
3.161553155896222
 42
6.772930709997214
  0
LWPOLYLINE
  5
30B
330
18
100
AcDbEntity
  8
TEXT
100
AcDbPolyline
 90
        2
 70
     0
 43
0.0
 10
3.69062763016633
 20
3.124443958000349
 42
-0.4142135623731017
 10
3.698181419332444
 20
3.116890168834239
 42
-0.9999999999999998
  0
ARC
  5
30C
330
18
100
AcDbEntity
  8
TEXT
100
AcDbCircle
 10
3.90190243002981
 20
3.147137085536212
 30
0.0
 40
0.0416329381542859
100
AcDbArc
 50
26.56974201007528
 51
87.20939649401342
  0
LWPOLYLINE
  5
30D
330
18
100
AcDbEntity
  8
TEXT
100
AcDbPolyline
 90
        2
 70
     0
 43
0.0
 10
3.809735635487937
 20
2.922247619668604
 10
3.943753053119314
 20
2.922247619668604
 42
0.9999999999999998
  0
LWPOLYLINE
  5
30E
330
18
100
AcDbEntity
  8
TEXT
100
AcDbPolyline
 90
        4
 70
     1
 43
0.0
 10
3.923630588049421
 20
3.025211597652629
 10
3.834970269389563
 20
3.025211597652629
 42
0.9999999999999998
 10
3.834970269389563
 20
2.982813057148768
 10
3.923630588049421
 20
2.982813057148768
 42
1.0
  0
LWPOLYLINE
  5
30F
330
18
100
AcDbEntity
  8
TEXT
100
AcDbPolyline
 90
        2
 70
     0
 43
0.0
 10
3.766659702620302
 20
2.965738564619042
 42
0.2901071551932823
 10
3.809735635487937
 20
2.922247619668604
 42
5.328517124445801
  0
LINE
  5
310
330
18
100
AcDbEntity
  8
TEXT
100
AcDbLine
 10
3.903929369806879
 20
3.188720652657115
 30
0.0
 11
3.769097460589819
 21
3.188720652657115
 31
0.0
  0
LINE
  5
311
330
18
100
AcDbEntity
  8
TEXT
100
AcDbLine
 10
3.828411556983138
 20
3.087168984538217
 30
0.0
 11
3.910699546766521
 21
3.087168984538217
 31
0.0
  0
LINE
  5
312
330
18
100
AcDbEntity
  8
TEXT
100
AcDbLine
 10
3.8748984714624
 20
3.124443958000349
 30
0.0
 11
3.767692198075111
 21
3.124443958000349
 31
0.0
  0
LINE
  5
313
330
18
100
AcDbEntity
  8
TEXT
100
AcDbLine
 10
3.769097460589819
 20
3.188720652657115
 30
0.0
 11
3.769097460589819
 21
3.160398106887471
 31
0.0
  0
ARC
  5
314
330
18
100
AcDbEntity
  8
TEXT
100
AcDbCircle
 10
3.828411556983137
 20
3.019483403394098
 30
0.0
 40
0.0676855811441166
100
AcDbArc
 50
90.0
 51
153.7768192527749
  0
LINE
  5
315
330
18
100
AcDbEntity
  8
TEXT
100
AcDbLine
 10
3.767692198075111
 20
3.124443958000349
 30
0.0
 11
3.767692198075111
 21
3.049391551926142
 31
0.0
  0
LINE
  5
316
330
18
100
AcDbEntity
  8
TEXT
100
AcDbLine
 10
3.910699546766521
 20
3.087168984538217
 30
0.0
 11
3.900434786352957
 21
3.108419524110911
 31
0.0
  0
ARC
  5
317
330
18
100
AcDbEntity
  8
TEXT
100
AcDbCircle
 10
3.874898471462399
 20
3.096084583000352
 30
0.0
 40
0.028359375
100
AcDbArc
 50
25.78218179591245
 51
90.0
  0
LINE
  5
318
330
18
100
AcDbEntity
  8
TEXT
100
AcDbLine
 10
4.045184199822293
 20
2.922247619668604
 30
0.0
 11
4.045184199822288
 21
3.099538125100072
 31
0.0
  0
LWPOLYLINE
  5
319
330
18
100
AcDbEntity
  8
TEXT
100
AcDbPolyline
 90
        2
 70
     0
 43
0.0
 10
3.986828985986958
 20
2.922247619668604
 10
4.045184199822292
 20
2.922247619668604
  0
LWPOLYLINE
  5
31A
330
18
100
AcDbEntity
  8
TEXT
100
AcDbPolyline
 90
        2
 70
     0
 43
0.0
 10
3.986828985986958
 20
2.965738564619042
 42
-0.2901071551932486
 10
3.943753053119314
 20
2.922247619668604
 42
-5.328517124445184
  0
LWPOLYLINE
  5
31B
330
18
100
AcDbEntity
  8
TEXT
100
AcDbPolyline
 90
        2
 70
     0
 43
0.0
 10
3.986828985986958
 20
2.965738564619042
 10
3.986828985986958
 20
2.922247619668604
  0
LINE
  5
31C
330
18
100
AcDbEntity
  8
TEXT
100
AcDbLine
 10
4.046786214981421
 20
3.188720652657115
 30
0.0
 11
3.98288930868192
 21
3.188720652657115
 31
0.0
  0
LINE
  5
31D
330
18
100
AcDbEntity
  8
TEXT
100
AcDbLine
 10
3.98288930868192
 20
3.188720652657115
 30
0.0
 11
3.98288930868192
 21
3.083508674103687
 31
0.0
  0
LINE
  5
31E
330
18
100
AcDbEntity
  8
TEXT
100
AcDbLine
 10
3.98288930868192
 20
3.083508674103687
 30
0.0
 11
3.939138537500018
 21
3.165758950099832
 31
0.0
  0
ARC
  5
31F
330
18
100
AcDbEntity
  8
TEXT
100
AcDbCircle
 10
4.070090075104952
 20
3.099538082717686
 30
0.0
 40
0.0249058752826653
100
AcDbArc
 50
89.99971217465335
 51
179.9999999999985
  0
ARC
  5
320
330
18
100
AcDbEntity
  8
TEXT
100
AcDbCircle
 10
4.077979032044529
 20
3.15747492537485
 30
0.0
 40
0.0314112657011332
100
AcDbArc
 50
95.88484768694724
 51
173.2388340632136
  0
LINE
  5
321
330
18
100
AcDbEntity
  8
TEXT
100
AcDbLine
 10
4.046786214981421
 20
3.16117300279624
 30
0.0
 11
4.046786214981421
 21
3.188720652657115
 31
0.0
  0
TEXT
  5
322
330
18
100
AcDbEntity
  8
TEXT
100
AcDbText
 10
4.515661734403211
 20
3.0151334283141
 30
0.0
 40
0.0522247191011236
  1
Minneapolis, MN 55432-0008
 41
1.11444212721585
 72
     5
 11
5.844594318672875
 21
3.0151334283141
 31
0.0
100
AcDbText
  0
TEXT
  5
323
330
18
100
AcDbEntity
  8
TEXT
100
AcDbText
 10
4.515661734403211
 20
3.108391855280392
 30
0.0
 40
0.0522247191011236
  1
6536 Main St. N.E. * P.O. Box 32008
 41
0.8388932496075355
 72
     5
 11
5.844594318672875
 21
3.108391855280392
 31
0.0
100
AcDbText
  0
TEXT
  5
324
330
18
100
AcDbEntity
  8
TEXT
100
AcDbText
 10
4.515661734403211
 20
3.201650282246684
 30
0.0
 40
0.0522247191011236
  1
Stylmark  Incorporated
 41
1.221428571428571
 72
     5
 11
5.844594318672875
 21
3.201650282246684
 31
0.0
100
AcDbText
  0
TEXT
  5
325
330
18
100
AcDbEntity
  8
TEXT
100
AcDbText
 10
4.515661734403211
 20
2.921875001347808
 30
0.0
 40
0.0522247191011236
  1
Phone  1-800-328-2495
 41
1.272321428571429
 72
     5
 11
5.844594318672875
 21
2.921875001347808
 31
0.0
100
AcDbText
  0
LINE
  5
326
330
18
100
AcDbEntity
  8
TEXT
100
AcDbLine
 10
4.268105922940196
 20
3.078827409716141
 30
0.0
 11
4.332663038905901
 21
3.188720652657115
 31
0.0
  0
LINE
  5
327
330
18
100
AcDbEntity
  8
TEXT
100
AcDbLine
 10
4.332663038905901
 20
3.188720652657115
 30
0.0
 11
4.257671206176275
 21
3.188720652657115
 31
0.0
  0
LINE
  5
328
330
18
100
AcDbEntity
  8
TEXT
100
AcDbLine
 10
4.287019773927601
 20
2.922247619668604
 30
0.0
 11
4.363598146303806
 21
2.922247619668604
 31
0.0
  0
LINE
  5
329
330
18
100
AcDbEntity
  8
TEXT
100
AcDbLine
 10
4.363598146303806
 20
2.922247619668604
 30
0.0
 11
4.268105922940196
 21
3.078827409716141
 31
0.0
  0
LINE
  5
32A
330
18
100
AcDbEntity
  8
TEXT
100
AcDbLine
 10
4.211116240716136
 20
2.922247619668604
 30
0.0
 11
4.211116240716136
 21
3.053827188144784
 31
0.0
  0
LINE
  5
32B
330
18
100
AcDbEntity
  8
TEXT
100
AcDbLine
 10
4.211116240716136
 20
3.053827188144784
 30
0.0
 11
4.287019773927601
 21
2.922247619668604
 31
0.0
  0
LINE
  5
32C
330
18
100
AcDbEntity
  8
TEXT
100
AcDbLine
 10
4.14673805639751
 20
3.124443958000349
 30
0.0
 11
4.146738056397516
 21
2.922247619668604
 31
0.0
  0
LINE
  5
32D
330
18
100
AcDbEntity
  8
TEXT
100
AcDbLine
 10
4.146738056397516
 20
2.922247619668604
 30
0.0
 11
4.211116240716136
 21
2.922247619668604
 31
0.0
  0
LINE
  5
32E
330
18
100
AcDbEntity
  8
TEXT
100
AcDbLine
 10
4.210573047620289
 20
3.254184858424715
 30
0.0
 11
4.142258169071015
 21
3.254184858424715
 31
0.0
  0
LINE
  5
32F
330
18
100
AcDbEntity
  8
TEXT
100
AcDbLine
 10
4.142258169071015
 20
3.254184858424715
 30
0.0
 11
4.14225816907101
 21
3.188720652657115
 31
0.0
  0
LINE
  5
330
330
18
100
AcDbEntity
  8
TEXT
100
AcDbLine
 10
4.257671206176273
 20
3.188720652657115
 30
0.0
 11
4.210573047620289
 21
3.112855326245576
 31
0.0
  0
LINE
  5
331
330
18
100
AcDbEntity
  8
TEXT
100
AcDbLine
 10
4.210573047620289
 20
3.112855326245576
 30
0.0
 11
4.210573047620289
 21
3.254184858424715
 31
0.0
  0
ENDSEC
  0
SECTION
  2
OBJECTS
  0
DICTIONARY
  5
C
330
0
100
AcDbDictionary
  3
ACAD_GROUP
350
D
  3
ACAD_LAYOUT
350
337
  3
ACAD_MLINESTYLE
350
E
  3
ACAD_PLOTSETTINGS
350
338
  3
ACAD_PLOTSTYLENAME
350
335
  3
ACDBHEADERROUNDTRIPXREC
350
343
  3
ACDBVARIABLEDICTIONARY
350
340
  0
DICTIONARY
  5
365
330
18
100
AcDbDictionary
280
     1
  3
ACAD_LAYOUTSELFREF
360
366
  0
DICTIONARY
  5
363
330
15
100
AcDbDictionary
280
     1
  3
ACAD_LAYOUTSELFREF
360
364
  0
DICTIONARY
  5
D
102
{ACAD_REACTORS
330
C
102
}
330
C
100
AcDbDictionary
  0
DICTIONARY
  5
337
102
{ACAD_REACTORS
330
C
102
}
330
C
100
AcDbDictionary
  0
DICTIONARY
  5
E
102
{ACAD_REACTORS
330
C
102
}
330
C
100
AcDbDictionary
  3
STANDARD
350
1B
  0
DICTIONARY
  5
338
102
{ACAD_REACTORS
330
C
102
}
330
C
100
AcDbDictionary
  0
ACDBDICTIONARYWDFLT
  5
335
102
{ACAD_REACTORS
330
C
102
}
330
C
100
AcDbDictionary
281
     1
  3
Normal
350
336
100
AcDbDictionaryWithDefault
340
336
  0
DICTIONARY
  5
343
102
{ACAD_REACTORS
330
C
102
}
330
C
100
AcDbDictionary
  3
CEPSNTYPE
350
34D
  3
FINGERPRINTGUID
350
34E
  3
HYPERLINKBASE
350
346
  3
INSUNITS
350
34C
  3
LAYOUTDICT
350
348
  3
LWETCUNION
350
34B
  3
PLOTSETDICT
350
349
  3
PLOTSTYLNAMDICT
350
34A
  3
PSVPSCALE
350
350
  3
PUCSBASE
350
353
  3
PUCSORGBACK
350
359
  3
PUCSORGBOTTOM
350
355
  3
PUCSORGFRONT
350
358
  3
PUCSORGLEFT
350
356
  3
PUCSORGRIGHT
350
357
  3
PUCSORGTOP
350
354
  3
PUCSORTHOREF
350
351
  3
PUCSORTHOVIEW
350
352
  3
STYLESHEET
350
347
  3
TSTACKALIGN
350
344
  3
TSTACKSIZE
350
345
  3
UCSBASE
350
35C
  3
UCSORGBACK
350
362
  3
UCSORGBOTTOM
350
35E
  3
UCSORGFRONT
350
361
  3
UCSORGLEFT
350
35F
  3
UCSORGRIGHT
350
360
  3
UCSORGTOP
350
35D
  3
UCSORTHOREF
350
35A
  3
UCSORTHOVIEW
350
35B
  3
VERSIONGUID
350
34F
  0
DICTIONARY
  5
340
102
{ACAD_REACTORS
330
C
102
}
330
C
100
AcDbDictionary
  3
DIMASSOC
350
341
  0
XRECORD
  5
366
102
{ACAD_REACTORS
330
365
102
}
330
365
100
AcDbXrecord
340
18
  0
XRECORD
  5
364
102
{ACAD_REACTORS
330
363
102
}
330
363
100
AcDbXrecord
340
15
  0
MLINESTYLE
  5
1B
102
{ACAD_REACTORS
330
E
102
}
330
E
100
AcDbMlineStyle
  2
STANDARD
 70
     0
  3

 62
     0
 51
90.0
 52
90.0
 71
     2
 49
0.5
 62
   256
  6
BYLAYER
 49
-0.5
 62
   256
  6
BYLAYER
  0
ACDBPLACEHOLDER
  5
336
102
{ACAD_REACTORS
330
335
102
}
330
335
100
AcDbPlaceHolder
280
     0
  0
XRECORD
  5
34D
102
{ACAD_REACTORS
330
343
102
}
330
343
100
AcDbXrecord
 90
        0
  0
XRECORD
  5
34E
102
{ACAD_REACTORS
330
343
102
}
330
343
100
AcDbXrecord
  1
{60D84C10-8DB5-11D6-88E6-0090279574E7}
  0
XRECORD
  5
346
102
{ACAD_REACTORS
330
343
102
}
330
343
100
AcDbXrecord
  1

  0
XRECORD
  5
34C
102
{ACAD_REACTORS
330
343
102
}
330
343
100
AcDbXrecord
 90
        0
  0
XRECORD
  5
348
102
{ACAD_REACTORS
330
343
102
}
330
343
100
AcDbXrecord
340
337
  0
XRECORD
  5
34B
102
{ACAD_REACTORS
330
343
102
}
330
343
100
AcDbXrecord
 90
    14877
  0
XRECORD
  5
349
102
{ACAD_REACTORS
330
343
102
}
330
343
100
AcDbXrecord
340
338
  0
XRECORD
  5
34A
102
{ACAD_REACTORS
330
343
102
}
330
343
100
AcDbXrecord
340
335
  0
XRECORD
  5
350
102
{ACAD_REACTORS
330
343
102
}
330
343
100
AcDbXrecord
 40
0.0
  0
XRECORD
  5
353
102
{ACAD_REACTORS
330
343
102
}
330
343
100
AcDbXrecord
340
0
  0
XRECORD
  5
359
102
{ACAD_REACTORS
330
343
102
}
330
343
100
AcDbXrecord
 10
0.0
 20
0.0
 30
0.0
  0
XRECORD
  5
355
102
{ACAD_REACTORS
330
343
102
}
330
343
100
AcDbXrecord
 10
0.0
 20
0.0
 30
0.0
  0
XRECORD
  5
358
102
{ACAD_REACTORS
330
343
102
}
330
343
100
AcDbXrecord
 10
0.0
 20
0.0
 30
0.0
  0
XRECORD
  5
356
102
{ACAD_REACTORS
330
343
102
}
330
343
100
AcDbXrecord
 10
0.0
 20
0.0
 30
0.0
  0
XRECORD
  5
357
102
{ACAD_REACTORS
330
343
102
}
330
343
100
AcDbXrecord
 10
0.0
 20
0.0
 30
0.0
  0
XRECORD
  5
354
102
{ACAD_REACTORS
330
343
102
}
330
343
100
AcDbXrecord
 10
0.0
 20
0.0
 30
0.0
  0
XRECORD
  5
351
102
{ACAD_REACTORS
330
343
102
}
330
343
100
AcDbXrecord
340
0
  0
XRECORD
  5
352
102
{ACAD_REACTORS
330
343
102
}
330
343
100
AcDbXrecord
 70
     0
  0
XRECORD
  5
347
102
{ACAD_REACTORS
330
343
102
}
330
343
100
AcDbXrecord
  1

  0
XRECORD
  5
344
102
{ACAD_REACTORS
330
343
102
}
330
343
100
AcDbXrecord
 90
        1
  0
XRECORD
  5
345
102
{ACAD_REACTORS
330
343
102
}
330
343
100
AcDbXrecord
 90
       70
  0
XRECORD
  5
35C
102
{ACAD_REACTORS
330
343
102
}
330
343
100
AcDbXrecord
340
0
  0
XRECORD
  5
362
102
{ACAD_REACTORS
330
343
102
}
330
343
100
AcDbXrecord
 10
0.0
 20
0.0
 30
0.0
  0
XRECORD
  5
35E
102
{ACAD_REACTORS
330
343
102
}
330
343
100
AcDbXrecord
 10
0.0
 20
0.0
 30
0.0
  0
XRECORD
  5
361
102
{ACAD_REACTORS
330
343
102
}
330
343
100
AcDbXrecord
 10
0.0
 20
0.0
 30
0.0
  0
XRECORD
  5
35F
102
{ACAD_REACTORS
330
343
102
}
330
343
100
AcDbXrecord
 10
0.0
 20
0.0
 30
0.0
  0
XRECORD
  5
360
102
{ACAD_REACTORS
330
343
102
}
330
343
100
AcDbXrecord
 10
0.0
 20
0.0
 30
0.0
  0
XRECORD
  5
35D
102
{ACAD_REACTORS
330
343
102
}
330
343
100
AcDbXrecord
 10
0.0
 20
0.0
 30
0.0
  0
XRECORD
  5
35A
102
{ACAD_REACTORS
330
343
102
}
330
343
100
AcDbXrecord
340
0
  0
XRECORD
  5
35B
102
{ACAD_REACTORS
330
343
102
}
330
343
100
AcDbXrecord
 70
     0
  0
XRECORD
  5
34F
102
{ACAD_REACTORS
330
343
102
}
330
343
100
AcDbXrecord
  1
{60D84C12-8DB5-11D6-88E6-0090279574E7}
  0
DICTIONARYVAR
  5
341
102
{ACAD_REACTORS
330
340
102
}
330
340
100
DictionaryVariables
280
     0
  1
1
  0
ENDSEC
  0
EOF
