  0
SECTION
  2
HEADER
  9
$ACADVER
  1
AC1014
  9
$ACADMAINTVER
 70
     9
  9
$DWGCODEPAGE
  3
ANSI_1252
  9
$INSBASE
 10
0.9603658451180079
 20
1.008465692235279
 30
0.0
  9
$EXTMIN
 10
-0.7452681773123598
 20
-0.0266662201422483
 30
0.0
  9
$EXTMAX
 10
2.739951144434767
 20
1.275143800943598
 30
0.0
  9
$LIMMIN
 10
0.0
 20
0.0
  9
$LIMMAX
 10
18.0
 20
12.0
  9
$ORTHOMODE
 70
     1
  9
$REGENMODE
 70
     1
  9
$FILLMODE
 70
     1
  9
$QTEXTMODE
 70
     0
  9
$MIRRTEXT
 70
     0
  9
$DRAGMODE
 70
     2
  9
$LTSCALE
 40
1.0
  9
$OSMODE
 70
    39
  9
$ATTMODE
 70
     1
  9
$TEXTSIZE
 40
0.125
  9
$TRACEWID
 40
0.05
  9
$TEXTSTYLE
  7
ROMANS
  9
$CLAYER
  8
0
  9
$CELTYPE
  6
BYLAYER
  9
$CECOLOR
 62
   256
  9
$CELTSCALE
 40
1.0
  9
$DELOBJ
 70
     1
  9
$DISPSILH
 70
     1
  9
$DIMSCALE
 40
1.0
  9
$DIMASZ
 40
0.125
  9
$DIMEXO
 40
0.125
  9
$DIMDLI
 40
0.375
  9
$DIMRND
 40
0.0
  9
$DIMDLE
 40
0.0
  9
$DIMEXE
 40
0.125
  9
$DIMTP
 40
0.0
  9
$DIMTM
 40
0.0
  9
$DIMTXT
 40
0.125
  9
$DIMCEN
 40
-0.125
  9
$DIMTSZ
 40
0.0
  9
$DIMTOL
 70
     0
  9
$DIMLIM
 70
     0
  9
$DIMTIH
 70
     1
  9
$DIMTOH
 70
     1
  9
$DIMSE1
 70
     0
  9
$DIMSE2
 70
     0
  9
$DIMTAD
 70
     0
  9
$DIMZIN
 70
     4
  9
$DIMBLK
  1

  9
$DIMASO
 70
     1
  9
$DIMSHO
 70
     1
  9
$DIMPOST
  1

  9
$DIMAPOST
  1

  9
$DIMALT
 70
     0
  9
$DIMALTD
 70
     2
  9
$DIMALTF
 40
25.4
  9
$DIMLFAC
 40
1.0
  9
$DIMTOFL
 70
     0
  9
$DIMTVP
 40
0.0
  9
$DIMTIX
 70
     1
  9
$DIMSOXD
 70
     0
  9
$DIMSAH
 70
     0
  9
$DIMBLK1
  1

  9
$DIMBLK2
  1

  9
$DIMSTYLE
  2
STANDARD
  9
$DIMCLRD
 70
     0
  9
$DIMCLRE
 70
     0
  9
$DIMCLRT
 70
     0
  9
$DIMTFAC
 40
1.0
  9
$DIMGAP
 40
0.09
  9
$DIMJUST
 70
     0
  9
$DIMSD1
 70
     0
  9
$DIMSD2
 70
     0
  9
$DIMTOLJ
 70
     1
  9
$DIMTZIN
 70
     4
  9
$DIMALTZ
 70
     0
  9
$DIMALTTZ
 70
     0
  9
$DIMFIT
 70
     3
  9
$DIMUPT
 70
     0
  9
$DIMUNIT
 70
     2
  9
$DIMDEC
 70
     3
  9
$DIMTDEC
 70
     3
  9
$DIMALTU
 70
     2
  9
$DIMALTTD
 70
     2
  9
$DIMTXSTY
  7
ROMANS
  9
$DIMAUNIT
 70
     0
  9
$LUNITS
 70
     2
  9
$LUPREC
 70
     3
  9
$SKETCHINC
 40
0.1
  9
$FILLETRAD
 40
0.03125
  9
$AUNITS
 70
     0
  9
$AUPREC
 70
     0
  9
$MENU
  1
ACAD
  9
$ELEVATION
 40
0.0
  9
$PELEVATION
 40
0.0
  9
$THICKNESS
 40
0.0
  9
$LIMCHECK
 70
     0
  9
$BLIPMODE
 70
     0
  9
$CHAMFERA
 40
0.0
  9
$CHAMFERB
 40
0.0
  9
$CHAMFERC
 40
0.0
  9
$CHAMFERD
 40
0.0
  9
$SKPOLY
 70
     0
  9
$TDCREATE
 40
2448994.480184143
  9
$TDUPDATE
 40
2452458.302103935
  9
$TDINDWG
 40
0.0005635995
  9
$TDUSRTIMER
 40
0.0005635995
  9
$USRTIMER
 70
     1
  9
$ANGBASE
 50
0.0
  9
$ANGDIR
 70
     0
  9
$PDMODE
 70
     0
  9
$PDSIZE
 40
0.0
  9
$PLINEWID
 40
0.0
  9
$COORDS
 70
     2
  9
$SPLFRAME
 70
     0
  9
$SPLINETYPE
 70
     6
  9
$SPLINESEGS
 70
     8
  9
$ATTDIA
 70
     0
  9
$ATTREQ
 70
     1
  9
$HANDLING
 70
 22529
  9
$HANDSEED
  5
7DE1B343D9DF5C9
  9
$SURFTAB1
 70
     6
  9
$SURFTAB2
 70
     6
  9
$SURFTYPE
 70
     6
  9
$SURFU
 70
     6
  9
$SURFV
 70
     6
  9
$UCSNAME
  2

  9
$UCSORG
 10
0.0
 20
0.0
 30
0.0
  9
$UCSXDIR
 10
1.0
 20
0.0
 30
0.0
  9
$UCSYDIR
 10
0.0
 20
1.0
 30
0.0
  9
$PUCSNAME
  2

  9
$PUCSORG
 10
0.0
 20
0.0
 30
0.0
  9
$PUCSXDIR
 10
1.0
 20
0.0
 30
0.0
  9
$PUCSYDIR
 10
0.0
 20
1.0
 30
0.0
  9
$USERI1
 70
     0
  9
$USERI2
 70
     0
  9
$USERI3
 70
     0
  9
$USERI4
 70
     0
  9
$USERI5
 70
     0
  9
$USERR1
 40
0.0
  9
$USERR2
 40
0.0
  9
$USERR3
 40
0.0
  9
$USERR4
 40
0.0
  9
$USERR5
 40
0.0
  9
$WORLDVIEW
 70
     1
  9
$SHADEDGE
 70
     3
  9
$SHADEDIF
 70
    70
  9
$TILEMODE
 70
     1
  9
$MAXACTVP
 70
    16
  9
$PINSBASE
 10
0.6976998340282168
 20
50.00000000000001
 30
0.7469512160142337
  9
$PLIMCHECK
 70
     0
  9
$PEXTMIN
 10
1.000000000000000E+20
 20
1.000000000000000E+20
 30
1.000000000000000E+20
  9
$PEXTMAX
 10
-1.000000000000000E+20
 20
-1.000000000000000E+20
 30
-1.000000000000000E+20
  9
$PLIMMIN
 10
0.0
 20
0.0
  9
$PLIMMAX
 10
12.0
 20
9.0
  9
$UNITMODE
 70
     0
  9
$VISRETAIN
 70
     0
  9
$PLINEGEN
 70
     1
  9
$PSLTSCALE
 70
     0
  9
$TREEDEPTH
 70
  3020
  9
$PICKSTYLE
 70
     1
  9
$CMLSTYLE
  2
STANDARD
  9
$CMLJUST
 70
     0
  9
$CMLSCALE
 40
1.0
  9
$PROXYGRAPHICS
 70
     1
  9
$MEASUREMENT
 70
     0
  0
ENDSEC
  0
SECTION
  2
CLASSES
  0
CLASS
  1
LWPOLYLINE
  2
AcDbPolyline
  3
AutoCAD 2000
 90
        0
280
     0
281
     1
  0
CLASS
  1
ACDBDICTIONARYWDFLT
  2
AcDbDictionaryWithDefault
  3
AutoCAD 2000
 90
        0
280
     0
281
     0
  0
CLASS
  1
ACDBPLACEHOLDER
  2
AcDbPlaceHolder
  3
AutoCAD 2000
 90
        0
280
     0
281
     0
  0
CLASS
  1
LAYOUT
  2
AcDbLayout
  3
AutoCAD 2000
 90
        0
280
     0
281
     0
  0
CLASS
  1
DICTIONARYVAR
  2
AcDbDictionaryVar
  3
AutoCAD 2000
 90
        0
280
     0
281
     0
  0
CLASS
  1
LONG_TRANSACTION
  2
AcDbLongTransaction
  3
AutoCAD 2000
 90
        0
280
     0
281
     0
  0
CLASS
  1
LWPOLYLINE
  2
AcDbPolyline
  3
AutoCAD 2000
 90
        0
280
     0
281
     1
  0
CLASS
  1
HATCH
  2
AcDbHatch
  3
AutoCAD 2000
 90
        0
280
     0
281
     1
  0
CLASS
  1
XRECORD
  2
AcDbXrecord
  3
AutoCAD 2000
 90
        0
280
     0
281
     0
  0
ENDSEC
  0
SECTION
  2
TABLES
  0
TABLE
  2
VPORT
  5
7DE1B343D9DF570
330
0
100
AcDbSymbolTable
 70
     2
  0
VPORT
  5
7DE1B343D9DF5A4
330
7DE1B343D9DF570
100
AcDbSymbolTableRecord
100
AcDbViewportTableRecord
  2
*ACTIVE
 70
     0
 10
0.0
 20
0.0
 11
1.0
 21
1.0
 12
3.97378202130799
 22
0.624435665463869
 13
0.0
 23
0.0
 14
0.015625
 24
0.015625
 15
0.0
 25
0.0
 16
0.0
 26
0.0
 36
1.0
 17
0.0
 27
0.0
 37
0.0
 40
2.282595461007848
 41
4.320930232558139
 42
50.0
 43
0.0
 44
0.0
 50
0.0
 51
0.0
 71
     0
 72
  2000
 73
     1
 74
     0
 75
     0
 76
     0
 77
     0
 78
     0
  0
ENDTAB
  0
TABLE
  2
LTYPE
  5
7DE1B343D9DF56D
330
0
100
AcDbSymbolTable
 70
     1
  0
LTYPE
  5
7DE1B343D9DF57A
330
7DE1B343D9DF56D
100
AcDbSymbolTableRecord
100
AcDbLinetypeTableRecord
  2
BYBLOCK
 70
     0
  3

 72
    65
 73
     0
 40
0.0
  0
LTYPE
  5
7DE1B343D9DF57B
330
7DE1B343D9DF56D
100
AcDbSymbolTableRecord
100
AcDbLinetypeTableRecord
  2
BYLAYER
 70
     0
  3

 72
    65
 73
     0
 40
0.0
  0
LTYPE
  5
7DE1B343D9DF57C
330
7DE1B343D9DF56D
100
AcDbSymbolTableRecord
100
AcDbLinetypeTableRecord
  2
CONTINUOUS
 70
     0
  3
Solid line
 72
    65
 73
     0
 40
0.0
  0
ENDTAB
  0
TABLE
  2
LAYER
  5
7DE1B343D9DF56A
330
0
100
AcDbSymbolTable
 70
     2
  0
LAYER
  5
7DE1B343D9DF577
330
7DE1B343D9DF56A
100
AcDbSymbolTableRecord
100
AcDbLayerTableRecord
  2
0
 70
     0
 62
     7
  6
CONTINUOUS
  0
LAYER
  5
7DE1B343D9DF587
330
7DE1B343D9DF56A
100
AcDbSymbolTableRecord
100
AcDbLayerTableRecord
  2
TEXT
 70
     0
 62
     3
  6
CONTINUOUS
  0
ENDTAB
  0
TABLE
  2
STYLE
  5
7DE1B343D9DF56B
330
0
100
AcDbSymbolTable
 70
     3
  0
STYLE
  5
7DE1B343D9DF578
330
7DE1B343D9DF56B
100
AcDbSymbolTableRecord
100
AcDbTextStyleTableRecord
  2
STANDARD
 70
     0
 40
0.0
 41
1.0
 50
0.0
 71
     0
 42
0.3125
  3
txt
  4

  0
STYLE
  5
7DE1B343D9DF584
330
7DE1B343D9DF56B
100
AcDbSymbolTableRecord
100
AcDbTextStyleTableRecord
  2
ITALICC
 70
     0
 40
0.0
 41
1.0
 50
0.0
 71
     0
 42
0.125
  3
italicc
  4

  0
STYLE
  5
7DE1B343D9DF594
330
7DE1B343D9DF56B
100
AcDbSymbolTableRecord
100
AcDbTextStyleTableRecord
  2
ROMANS
 70
     0
 40
0.0
 41
1.0
 50
0.0
 71
     0
 42
0.125
  3
romans.shx
  4

  0
ENDTAB
  0
TABLE
  2
VIEW
  5
7DE1B343D9DF56E
330
0
100
AcDbSymbolTable
 70
     0
  0
ENDTAB
  0
TABLE
  2
UCS
  5
7DE1B343D9DF56F
330
0
100
AcDbSymbolTable
 70
     0
  0
ENDTAB
  0
TABLE
  2
APPID
  5
7DE1B343D9DF571
330
0
100
AcDbSymbolTable
 70
     1
  0
APPID
  5
7DE1B343D9DF579
330
7DE1B343D9DF571
100
AcDbSymbolTableRecord
100
AcDbRegAppTableRecord
  2
ACAD
 70
     0
  0
ENDTAB
  0
TABLE
  2
DIMSTYLE
  5
7DE1B343D9DF572
330
0
100
AcDbSymbolTable
 70
     1
  0
DIMSTYLE
105
7DE1B343D9DF58C
330
7DE1B343D9DF572
100
AcDbSymbolTableRecord
100
AcDbDimStyleTableRecord
  2
STANDARD
 70
     0
  3

  4

  5

  6

  7

 40
1.0
 41
0.125
 42
0.125
 43
0.375
 44
0.125
 45
0.0
 46
0.0
 47
0.0
 48
0.0
140
0.125
141
-0.125
142
0.0
143
25.4
144
1.0
145
0.0
146
1.0
147
0.09
 71
     0
 72
     0
 73
     1
 74
     1
 75
     0
 76
     0
 77
     0
 78
     4
170
     0
171
     2
172
     0
173
     0
174
     1
175
     0
176
     0
177
     0
178
     0
270
     2
271
     3
272
     3
273
     2
274
     2
340
7DE1B343D9DF594
275
     0
280
     0
281
     0
282
     0
283
     1
284
     4
285
     0
286
     0
287
     3
288
     0
  0
ENDTAB
  0
TABLE
  2
BLOCK_RECORD
  5
7DE1B343D9DF569
330
0
100
AcDbSymbolTable
 70
     0
  0
BLOCK_RECORD
  5
7DE1B343D9DF580
102
{ACAD_XDICTIONARY
360
7DE1B343D9DF5C7
102
}
330
7DE1B343D9DF569
100
AcDbSymbolTableRecord
100
AcDbBlockTableRecord
  2
*MODEL_SPACE
  0
BLOCK_RECORD
  5
7DE1B343D9DF57D
102
{ACAD_XDICTIONARY
360
7DE1B343D9DF5C5
102
}
330
7DE1B343D9DF569
100
AcDbSymbolTableRecord
100
AcDbBlockTableRecord
  2
*PAPER_SPACE
  0
ENDTAB
  0
ENDSEC
  0
SECTION
  2
BLOCKS
  0
BLOCK
  5
7DE1B343D9DF58A
330
7DE1B343D9DF580
100
AcDbEntity
  8
0
100
AcDbBlockBegin
  2
*MODEL_SPACE
 70
     0
 10
0.0
 20
0.0
 30
0.0
  3
*MODEL_SPACE
  1

  0
ENDBLK
  5
7DE1B343D9DF58B
330
7DE1B343D9DF580
100
AcDbEntity
  8
0
100
AcDbBlockEnd
  0
BLOCK
  5
7DE1B343D9DF588
330
7DE1B343D9DF57D
100
AcDbEntity
 67
     1
  8
0
100
AcDbBlockBegin
  2
*PAPER_SPACE
 70
     0
 10
0.0
 20
0.0
 30
0.0
  3
*PAPER_SPACE
  1

  0
ENDBLK
  5
7DE1B343D9DF589
330
7DE1B343D9DF57D
100
AcDbEntity
 67
     1
  8
0
100
AcDbBlockEnd
  0
ENDSEC
  0
SECTION
  2
ENTITIES
  0
LWPOLYLINE
  5
7DE1B343D9DE159
330
7DE1B343D9DF580
100
AcDbEntity
  8
0
100
AcDbPolyline
 90
       20
 70
     1
 43
0.0
 10
1.018673778665752
 20
1.268671714031518
 10
0.7061737786657521
 20
1.268671714031518
 42
0.4142135623730951
 10
0.6749237786657521
 20
1.237421714031518
 10
0.6749237786657521
 20
0.7061717140315186
 42
0.4142135623730951
 10
0.7061737786657521
 20
0.6749217140315186
 10
0.7374237786657521
 20
0.6749217140315186
 10
0.7374237786657521
 20
0.8624217140315185
 10
1.018673778665752
 20
0.8624217140315185
 10
1.018673778665752
 20
0.6749217140315186
 10
1.081173778665752
 20
0.6749217140315186
 10
1.081173778665752
 20
0.8624217140315185
 10
1.196173778665752
 20
0.8624217140315185
 10
1.206173778665752
 20
0.8724217140315182
 10
1.216173778665751
 20
0.8624217140315185
 10
1.331173778665752
 20
0.8624217140315185
 10
1.331173778665752
 20
0.9249217140315185
 10
0.7374237786657521
 20
0.9249217140315185
 10
0.7374237786657521
 20
1.206171714031518
 10
1.049923778665752
 20
1.206171714031518
 10
1.049923778665752
 20
1.237421714031518
 42
0.4142135623730951
  0
TEXT
  5
7DE1B343D9DF42B
330
7DE1B343D9DF580
100
AcDbEntity
  8
TEXT
100
AcDbText
 10
0.2447372114385939
 20
0.4313523839403333
 30
0.0
 40
0.125
  1
PART #110228
  7
ITALICC
 72
     1
 11
0.9977134019147834
 21
0.4313523839403333
 31
0.0
100
AcDbText
  0
TEXT
  5
7DE1B343D9DF42C
330
7DE1B343D9DF580
100
AcDbEntity
  8
TEXT
100
AcDbText
 10
1.411018560165104
 20
-0.0155702587320419
 30
0.0
 40
0.0522247191011236
  1
Phone  1-800-328-2495
 41
1.272321428571429
 72
     5
 11
2.739951144434767
 21
-0.0155702587320419
 31
0.0
100
AcDbText
  0
TEXT
  5
7DE1B343D9DF42D
330
7DE1B343D9DF580
100
AcDbEntity
  8
TEXT
100
AcDbText
 10
1.411018560165104
 20
0.2642050221668346
 30
0.0
 40
0.0522247191011236
  1
Stylmark  Incorporated
 41
1.221428571428572
 72
     5
 11
2.739951144434767
 21
0.2642050221668346
 31
0.0
100
AcDbText
  0
TEXT
  5
7DE1B343D9DF42E
330
7DE1B343D9DF580
100
AcDbEntity
  8
TEXT
100
AcDbText
 10
1.411018560165104
 20
0.1709465952005424
 30
0.0
 40
0.0522247191011236
  1
6536 Main St. N.E. * P.O. Box 32008
 41
0.8388932496075364
 72
     5
 11
2.739951144434767
 21
0.1709465952005424
 31
0.0
100
AcDbText
  0
TEXT
  5
7DE1B343D9DF42F
330
7DE1B343D9DF580
100
AcDbEntity
  8
TEXT
100
AcDbText
 10
1.411018560165104
 20
0.0776881682342503
 30
0.0
 40
0.0522247191011236
  1
Minneapolis, MN 55432-0008
 41
1.11444212721585
 72
     5
 11
2.739951144434767
 21
0.0776881682342503
 31
0.0
100
AcDbText
  0
LWPOLYLINE
  5
7DE1B343D9DF430
330
7DE1B343D9DF580
100
AcDbEntity
  8
TEXT
100
AcDbPolyline
 90
        3
 70
     0
 43
0.0006660908203125
 10
-0.7449351319022036
 20
0.098074503905393
 10
-0.7449351319022036
 20
-0.0151609355477347
 10
-0.6316996924490813
 20
-0.0151609355477347
  0
LWPOLYLINE
  5
7DE1B343D9DF435
330
7DE1B343D9DF580
100
AcDbEntity
  8
TEXT
100
AcDbPolyline
 90
        3
 70
     0
 43
0.0006660908203125
 10
-0.7182914990897061
 20
0.098074503905393
 10
-0.7182914990897061
 20
0.0114826972647664
 10
-0.6316996924490813
 20
0.0114826972647664
  0
LWPOLYLINE
  5
7DE1B343D9DF43A
330
7DE1B343D9DF580
100
AcDbEntity
  8
TEXT
100
AcDbPolyline
 90
        2
 70
     0
 43
0.0001332181640625
 10
-0.6716651416678293
 20
0.1080658662100782
 10
-0.7449351319022036
 20
0.098074503905393
  0
LWPOLYLINE
  5
7DE1B343D9DF43E
330
7DE1B343D9DF580
100
AcDbEntity
  8
TEXT
100
AcDbPolyline
 90
        2
 70
     0
 43
0.0001332181640625
 10
-0.7182914990897061
 20
0.098074503905393
 10
-0.6583433252615788
 20
0.1080658662100782
  0
LWPOLYLINE
  5
7DE1B343D9DF442
330
7DE1B343D9DF580
100
AcDbEntity
  8
TEXT
100
AcDbPolyline
 90
        2
 70
     0
 43
0.0001332181640625
 10
-0.7182914990897061
 20
0.0114826972647664
 10
-0.6583433252615788
 20
0.0714308710928919
  0
LWPOLYLINE
  5
7DE1B343D9DF446
330
7DE1B343D9DF580
100
AcDbEntity
  8
TEXT
100
AcDbPolyline
 90
        3
 70
     0
 43
0.0006660908203125
 10
-0.6316996924490813
 20
0.2512753925772686
 10
-0.7449351319022036
 20
0.2512753925772686
 10
-0.7449351319022036
 20
0.138039953124141
  0
LWPOLYLINE
  5
7DE1B343D9DF44B
330
7DE1B343D9DF580
100
AcDbEntity
  8
TEXT
100
AcDbPolyline
 90
        3
 70
     0
 43
0.0006660908203125
 10
-0.6316996924490813
 20
0.2246317597647676
 10
-0.7182914990897061
 20
0.2246317597647676
 10
-0.7182914990897061
 20
0.138039953124141
  0
LWPOLYLINE
  5
7DE1B343D9DF450
330
7DE1B343D9DF580
100
AcDbEntity
  8
TEXT
100
AcDbPolyline
 90
        2
 70
     0
 43
0.0001332181640625
 10
-0.7182914990897061
 20
0.2246317597647676
 10
-0.6583433252615805
 20
0.164683585936642
  0
LWPOLYLINE
  5
7DE1B343D9DF454
330
7DE1B343D9DF580
100
AcDbEntity
  8
TEXT
100
AcDbPolyline
 90
        2
 70
     0
 43
0.0001332181640625
 10
-0.7182914990897061
 20
0.138039953124141
 10
-0.6583433252615805
 20
0.1280485908194522
  0
LWPOLYLINE
  5
7DE1B343D9DF458
330
7DE1B343D9DF580
100
AcDbEntity
  8
TEXT
100
AcDbPolyline
 90
        2
 70
     0
 43
0.0001332181640625
 10
-0.7449351319022036
 20
0.138039953124141
 10
-0.6716651416678293
 20
0.1280485908194522
  0
LWPOLYLINE
  5
7DE1B343D9DF45C
330
7DE1B343D9DF580
100
AcDbEntity
  8
TEXT
100
AcDbPolyline
 90
        2
 70
     0
 43
0.0006660908203125
 10
-0.7182914990897061
 20
0.098074503905393
 10
-0.7449351319022036
 20
0.098074503905393
  0
LWPOLYLINE
  5
7DE1B343D9DF460
330
7DE1B343D9DF580
100
AcDbEntity
  8
TEXT
100
AcDbPolyline
 90
        2
 70
     0
 43
0.0006660908203125
 10
-0.7182914990897061
 20
0.138039953124141
 10
-0.7449351319022036
 20
0.138039953124141
  0
LINE
  5
7DE1B343D9DF464
330
7DE1B343D9DF580
100
AcDbEntity
  8
TEXT
100
AcDbLine
 10
0.770255297224294
 20
0.1869986979204996
 30
0.0
 11
0.6630490238370046
 21
0.1869986979204996
 31
0.0
  0
LINE
  5
7DE1B343D9DF465
330
7DE1B343D9DF580
100
AcDbEntity
  8
TEXT
100
AcDbLine
 10
0.7992861955687724
 20
0.251275392577265
 30
0.0
 11
0.6644542863517133
 21
0.251275392577265
 31
0.0
  0
ARC
  5
7DE1B343D9DF466
330
7DE1B343D9DF580
100
AcDbEntity
  8
TEXT
100
AcDbCircle
 10
0.7237683827450303
 20
0.0820381433142488
 30
0.0
 40
0.0676855811441166
100
AcDbArc
 50
90.0
 51
153.7768192527749
  0
LWPOLYLINE
  5
7DE1B343D9DF467
330
7DE1B343D9DF580
100
AcDbEntity
  8
TEXT
100
AcDbPolyline
 90
        2
 70
     0
 43
0.0
 10
0.6620165283821946
 20
0.0282933045391922
 42
0.2901071551932823
 10
0.7050924612498302
 20
-0.015197640411246
 42
5.328517124445801
  0
ARC
  5
7DE1B343D9DF46B
330
7DE1B343D9DF580
100
AcDbEntity
  8
TEXT
100
AcDbCircle
 10
0.0186370050735445
 20
0.0445947509268039
 30
0.0
 40
0.0601160179737537
100
AcDbArc
 50
180.0000000000003
 51
264.0521544866073
  0
LINE
  5
7DE1B343D9DF46C
330
7DE1B343D9DF580
100
AcDbEntity
  8
TEXT
100
AcDbLine
 10
0.0221523606990923
 20
0.2856633101714032
 30
0.0
 11
-0.0378902441449147
 21
0.2856633101714032
 31
0.0
  0
ARC
  5
7DE1B343D9DF46D
330
7DE1B343D9DF580
100
AcDbEntity
  8
TEXT
100
AcDbCircle
 10
-0.2136219970434261
 20
0.1691879331307633
 30
0.0
 40
0.0820874594465043
100
AcDbArc
 50
90.0
 51
270.0
  0
LWPOLYLINE
  5
7DE1B343D9DF46E
330
7DE1B343D9DF580
100
AcDbEntity
  8
TEXT
100
AcDbPolyline
 90
        2
 70
     0
 43
0.0001332181640625
 10
-0.6217083301443907
 20
0.178005402342889
 10
-0.6316996924490813
 20
0.2512753925772686
  0
LWPOLYLINE
  5
7DE1B343D9DF472
330
7DE1B343D9DF580
100
AcDbEntity
  8
TEXT
100
AcDbPolyline
 90
        2
 70
     0
 43
0.0001332181640625
 10
-0.6316996924490813
 20
0.2246317597647676
 10
-0.6217083301443907
 20
0.164683585936642
  0
LWPOLYLINE
  5
7DE1B343D9DF476
330
7DE1B343D9DF580
100
AcDbEntity
  8
TEXT
100
AcDbPolyline
 90
        3
 70
     0
 43
0.0006660908203125
 10
-0.4784988037772039
 20
0.138039953124141
 10
-0.4784988037772039
 20
0.2512753925772686
 10
-0.5917342432303297
 20
0.2512753925772686
  0
LWPOLYLINE
  5
7DE1B343D9DF47B
330
7DE1B343D9DF580
100
AcDbEntity
  8
TEXT
100
AcDbPolyline
 90
        3
 70
     0
 43
0.0006660908203125
 10
-0.5051424365897049
 20
0.138039953124141
 10
-0.5051424365897049
 20
0.2246317597647676
 10
-0.5917342432303297
 20
0.2246317597647676
  0
LWPOLYLINE
  5
7DE1B343D9DF480
330
7DE1B343D9DF580
100
AcDbEntity
  8
TEXT
100
AcDbPolyline
 90
        2
 70
     0
 43
0.0001332181640625
 10
-0.5051424365897049
 20
0.2246317597647676
 10
-0.5650906104178287
 20
0.164683585936642
  0
LWPOLYLINE
  5
7DE1B343D9DF484
330
7DE1B343D9DF580
100
AcDbEntity
  8
TEXT
100
AcDbPolyline
 90
        2
 70
     0
 43
0.0001332181640625
 10
-0.5917342432303297
 20
0.2246317597647676
 10
-0.6017256055350185
 20
0.164683585936642
  0
LWPOLYLINE
  5
7DE1B343D9DF488
330
7DE1B343D9DF580
100
AcDbEntity
  8
TEXT
100
AcDbPolyline
 90
        2
 70
     0
 43
0.0001332181640625
 10
-0.5917342432303297
 20
0.2512753925772686
 10
-0.6017256055350185
 20
0.178005402342889
  0
LWPOLYLINE
  5
7DE1B343D9DF48C
330
7DE1B343D9DF580
100
AcDbEntity
  8
TEXT
100
AcDbPolyline
 90
        2
 70
     0
 43
0.0001332181640625
 10
-0.5517687940115799
 20
0.1280485908194522
 10
-0.4784988037772039
 20
0.138039953124141
  0
LWPOLYLINE
  5
7DE1B343D9DF490
330
7DE1B343D9DF580
100
AcDbEntity
  8
TEXT
100
AcDbPolyline
 90
        2
 70
     0
 43
0.0001332181640625
 10
-0.5051424365897049
 20
0.138039953124141
 10
-0.5650906104178287
 20
0.1280485908194522
  0
LWPOLYLINE
  5
7DE1B343D9DF494
330
7DE1B343D9DF580
100
AcDbEntity
  8
TEXT
100
AcDbPolyline
 90
        2
 70
     0
 43
0.0001332181640625
 10
-0.4784988037772039
 20
0.098074503905393
 10
-0.5517687940115799
 20
0.1080658662100782
  0
LWPOLYLINE
  5
7DE1B343D9DF498
330
7DE1B343D9DF580
100
AcDbEntity
  8
TEXT
100
AcDbPolyline
 90
        2
 70
     0
 43
0.0001332181640625
 10
-0.5051424365897049
 20
0.098074503905393
 10
-0.5650906104178287
 20
0.1080658662100782
  0
LWPOLYLINE
  5
7DE1B343D9DF49C
330
7DE1B343D9DF580
100
AcDbEntity
  8
TEXT
100
AcDbPolyline
 90
        2
 70
     0
 43
0.0001332181640625
 10
-0.5051424365897049
 20
0.0114826972647664
 10
-0.5650906104178287
 20
0.0714308710928919
  0
LWPOLYLINE
  5
7DE1B343D9DF4A0
330
7DE1B343D9DF580
100
AcDbEntity
  8
TEXT
100
AcDbPolyline
 90
        3
 70
     0
 43
0.0006660908203125
 10
-0.5917342432303297
 20
0.0114826972647664
 10
-0.5051424365897049
 20
0.0114826972647664
 10
-0.5051424365897049
 20
0.098074503905393
  0
LWPOLYLINE
  5
7DE1B343D9DF4A5
330
7DE1B343D9DF580
100
AcDbEntity
  8
TEXT
100
AcDbPolyline
 90
        3
 70
     0
 43
0.0006660908203125
 10
-0.5917342432303297
 20
-0.0151609355477347
 10
-0.4784988037772039
 20
-0.0151609355477347
 10
-0.4784988037772039
 20
0.098074503905393
  0
LWPOLYLINE
  5
7DE1B343D9DF4AA
330
7DE1B343D9DF580
100
AcDbEntity
  8
TEXT
100
AcDbPolyline
 90
        5
 70
     0
 43
0.0001332181640625
 10
-0.6217083301443907
 20
0.0581090546866414
 10
-0.6217083301443907
 20
0.0714308710928919
 10
-0.6583433252615788
 20
0.0714308710928919
 10
-0.6583433252615788
 20
0.1080658662100782
 10
-0.6716651416678293
 20
0.1080658662100782
  0
LWPOLYLINE
  5
7DE1B343D9DF4B1
330
7DE1B343D9DF580
100
AcDbEntity
  8
TEXT
100
AcDbPolyline
 90
        2
 70
     0
 43
0.0006660908203125
 10
-0.6316996924490813
 20
0.0114826972647664
 10
-0.6316996924490813
 20
-0.0151609355477347
  0
LWPOLYLINE
  5
7DE1B343D9DF4B5
330
7DE1B343D9DF580
100
AcDbEntity
  8
TEXT
100
AcDbPolyline
 90
        2
 70
     0
 43
0.0001332181640625
 10
-0.6316996924490813
 20
0.0114826972647664
 10
-0.6217083301443907
 20
0.0714308710928919
  0
LWPOLYLINE
  5
7DE1B343D9DF4B9
330
7DE1B343D9DF580
100
AcDbEntity
  8
TEXT
100
AcDbPolyline
 90
        2
 70
     0
 43
0.0001332181640625
 10
-0.6316996924490813
 20
-0.0151609355477347
 10
-0.6217083301443907
 20
0.0581090546866414
  0
LWPOLYLINE
  5
7DE1B343D9DF4BD
330
7DE1B343D9DF580
100
AcDbEntity
  8
TEXT
100
AcDbPolyline
 90
        5
 70
     0
 43
0.0001332181640625
 10
-0.6716651416678293
 20
0.1280485908194522
 10
-0.6583433252615805
 20
0.1280485908194522
 10
-0.6583433252615805
 20
0.164683585936642
 10
-0.6217083301443907
 20
0.164683585936642
 10
-0.6217083301443907
 20
0.178005402342889
  0
LWPOLYLINE
  5
7DE1B343D9DF4C4
330
7DE1B343D9DF580
100
AcDbEntity
  8
TEXT
100
AcDbPolyline
 90
        5
 70
     0
 43
0.0001332181640625
 10
-0.6017256055350185
 20
0.178005402342889
 10
-0.6017256055350185
 20
0.164683585936642
 10
-0.5650906104178287
 20
0.164683585936642
 10
-0.5650906104178287
 20
0.1280485908194522
 10
-0.5517687940115799
 20
0.1280485908194522
  0
LWPOLYLINE
  5
7DE1B343D9DF4CB
330
7DE1B343D9DF580
100
AcDbEntity
  8
TEXT
100
AcDbPolyline
 90
        2
 70
     0
 43
0.0001332181640625
 10
-0.5917342432303297
 20
0.0114826972647664
 10
-0.6017256055350185
 20
0.0714308710928919
  0
LWPOLYLINE
  5
7DE1B343D9DF4CF
330
7DE1B343D9DF580
100
AcDbEntity
  8
TEXT
100
AcDbPolyline
 90
        2
 70
     0
 43
0.0001332181640625
 10
-0.6017256055350185
 20
0.0581090546866414
 10
-0.5917342432303297
 20
-0.0151609355477347
  0
LWPOLYLINE
  5
7DE1B343D9DF4D3
330
7DE1B343D9DF580
100
AcDbEntity
  8
TEXT
100
AcDbPolyline
 90
        2
 70
     0
 43
0.0006660908203125
 10
-0.5917342432303297
 20
0.0114826972647664
 10
-0.5917342432303297
 20
-0.0151609355477347
  0
LWPOLYLINE
  5
7DE1B343D9DF4D7
330
7DE1B343D9DF580
100
AcDbEntity
  8
TEXT
100
AcDbPolyline
 90
        5
 70
     0
 43
0.0001332181640625
 10
-0.5517687940115799
 20
0.1080658662100782
 10
-0.5650906104178287
 20
0.1080658662100782
 10
-0.5650906104178287
 20
0.0714308710928919
 10
-0.6017256055350185
 20
0.0714308710928919
 10
-0.6017256055350185
 20
0.0581090546866414
  0
LWPOLYLINE
  5
7DE1B343D9DF4DE
330
7DE1B343D9DF580
100
AcDbEntity
  8
TEXT
100
AcDbPolyline
 90
        2
 70
     0
 43
0.0006660908203125
 10
-0.5051424365897049
 20
0.138039953124141
 10
-0.4784988037772039
 20
0.138039953124141
  0
LWPOLYLINE
  5
7DE1B343D9DF4E2
330
7DE1B343D9DF580
100
AcDbEntity
  8
TEXT
100
AcDbPolyline
 90
        2
 70
     0
 43
0.0006660908203125
 10
-0.5051424365897049
 20
0.098074503905393
 10
-0.4784988037772039
 20
0.098074503905393
  0
LINE
  5
7DE1B343D9DF4E6
330
7DE1B343D9DF580
100
AcDbEntity
  8
TEXT
100
AcDbLine
 10
-0.2083846669291789
 20
0.1869986979204996
 30
0.0
 11
-0.0414790129002076
 21
0.1869986979204996
 31
0.0
  0
LINE
  5
7DE1B343D9DF4E7
330
7DE1B343D9DF580
100
AcDbEntity
  8
TEXT
100
AcDbLine
 10
-0.1427845306848778
 20
0.1511939763098717
 30
0.0
 11
-0.2083846669291789
 21
0.1511939763098717
 31
0.0
  0
LINE
  5
7DE1B343D9DF4E8
330
7DE1B343D9DF580
100
AcDbEntity
  8
TEXT
100
AcDbLine
 10
-0.2957094564899305
 20
-0.015197640411246
 30
0.0
 11
-0.1427845306848778
 21
-0.015197640411246
 31
0.0
  0
LINE
  5
7DE1B343D9DF4E9
330
7DE1B343D9DF580
100
AcDbEntity
  8
TEXT
100
AcDbLine
 10
-0.1378441567785982
 20
0.0531593659221934
 30
0.0
 11
-0.2957094564899323
 21
0.0531593659221934
 31
0.0
  0
LINE
  5
7DE1B343D9DF4EA
330
7DE1B343D9DF580
100
AcDbEntity
  8
TEXT
100
AcDbLine
 10
-0.213621997043427
 20
0.087100473684258
 30
0.0
 11
-0.1378441567785982
 21
0.087100473684258
 31
0.0
  0
ARC
  5
7DE1B343D9DF4EB
330
7DE1B343D9DF580
100
AcDbEntity
  8
TEXT
100
AcDbCircle
 10
-0.208384666929178
 20
0.1690963371151875
 30
0.0
 40
0.017902360805315
100
AcDbArc
 50
90.0
 51
270.0
  0
LINE
  5
7DE1B343D9DF4EC
330
7DE1B343D9DF580
100
AcDbEntity
  8
TEXT
100
AcDbLine
 10
-0.2957094564899323
 20
0.0531593659221934
 30
0.0
 11
-0.2957094564899305
 21
-0.015197640411246
 31
0.0
  0
LINE
  5
7DE1B343D9DF4ED
330
7DE1B343D9DF580
100
AcDbEntity
  8
TEXT
100
AcDbLine
 10
-0.0414790129002076
 20
0.1869986979204996
 30
0.0
 11
-0.0414790129002076
 21
0.0445947509268039
 31
0.0
  0
ARC
  5
7DE1B343D9DF4EE
330
7DE1B343D9DF580
100
AcDbEntity
  8
TEXT
100
AcDbCircle
 10
-0.1427845306848769
 20
0.0679981679493111
 30
0.0
 40
0.0831958083605586
100
AcDbArc
 50
270.0
 51
90.0
  0
ARC
  5
7DE1B343D9DF4EF
330
7DE1B343D9DF580
100
AcDbEntity
  8
TEXT
100
AcDbCircle
 10
-0.1378441567785973
 20
0.0701299198032275
 30
0.0
 40
0.0169705538810321
100
AcDbArc
 50
270.0
 51
90.0
  0
LWPOLYLINE
  5
7DE1B343D9DF4F0
330
7DE1B343D9DF580
100
AcDbEntity
  8
TEXT
100
AcDbPolyline
 90
        2
 70
     0
 43
0.0006660908203125
 10
-0.6316996924490813
 20
0.2246317597647676
 10
-0.6316996924490813
 20
0.2512753925772686
  0
LWPOLYLINE
  5
7DE1B343D9DF4F4
330
7DE1B343D9DF580
100
AcDbEntity
  8
TEXT
100
AcDbPolyline
 90
        2
 70
     0
 43
0.0006660908203125
 10
-0.5917342432303297
 20
0.2246317597647676
 10
-0.5917342432303297
 20
0.2512753925772686
  0
LINE
  5
7DE1B343D9DF4F8
330
7DE1B343D9DF580
100
AcDbEntity
  8
TEXT
100
AcDbLine
 10
-0.0378902441449147
 20
0.251275392577265
 30
0.0
 11
-0.213621997043427
 21
0.251275392577265
 31
0.0
  0
LINE
  5
7DE1B343D9DF4F9
330
7DE1B343D9DF580
100
AcDbEntity
  8
TEXT
100
AcDbLine
 10
-0.0378902441449147
 20
0.2856633101714032
 30
0.0
 11
-0.0378902441449147
 21
0.251275392577265
 31
0.0
  0
LINE
  5
7DE1B343D9DF4FA
330
7DE1B343D9DF580
100
AcDbEntity
  8
TEXT
100
AcDbLine
 10
0.1525816478749375
 20
0.1504033964641445
 30
0.0
 11
0.0939513268429997
 21
0.251275392577265
 31
0.0
  0
LINE
  5
7DE1B343D9DF4FB
330
7DE1B343D9DF580
100
AcDbEntity
  8
TEXT
100
AcDbLine
 10
0.211330210680803
 20
0.251275392577265
 30
0.0
 11
0.1525816478749375
 21
0.1504033964641445
 31
0.0
  0
LINE
  5
7DE1B343D9DF4FC
330
7DE1B343D9DF580
100
AcDbEntity
  8
TEXT
100
AcDbLine
 10
0.3082608360405443
 20
0.0671901976917533
 30
0.0
 11
0.3082608360405443
 21
0.3192868703160756
 31
0.0
  0
LINE
  5
7DE1B343D9DF4FD
330
7DE1B343D9DF580
100
AcDbEntity
  8
TEXT
100
AcDbLine
 10
0.3405726901782045
 20
0.251275392577265
 30
0.0
 11
0.3405726901782045
 21
0.0504111858448568
 31
0.0
  0
LINE
  5
7DE1B343D9DF4FE
330
7DE1B343D9DF580
100
AcDbEntity
  8
TEXT
100
AcDbLine
 10
0.3405726901782045
 20
0.0504111858448568
 30
0.0
 11
0.3235790532936031
 21
0.0504111858448568
 31
0.0
  0
LINE
  5
7DE1B343D9DF4FF
330
7DE1B343D9DF580
100
AcDbEntity
  8
TEXT
100
AcDbLine
 10
0.3094004095367391
 20
-0.015197640411246
 30
0.0
 11
0.4074037432361737
 21
-0.015197640411246
 31
0.0
  0
LINE
  5
7DE1B343D9DF500
330
7DE1B343D9DF580
100
AcDbEntity
  8
TEXT
100
AcDbLine
 10
0.1429814108779832
 20
0.004760865693767
 30
0.0
 11
0.2402811169714278
 21
0.1691110766290351
 31
0.0
  0
ARC
  5
7DE1B343D9DF501
330
7DE1B343D9DF580
100
AcDbEntity
  8
TEXT
100
AcDbCircle
 10
0.1089378509657692
 20
0.0243500818624498
 30
0.0
 40
0.0392772371940762
100
AcDbArc
 50
270.1604552698595
 51
330.0831797321295
  0
LINE
  5
7DE1B343D9DF502
330
7DE1B343D9DF580
100
AcDbEntity
  8
TEXT
100
AcDbLine
 10
0.0124075945798981
 20
-0.015197640411246
 30
0.0
 11
0.1090478456548924
 21
-0.0149270013129637
 31
0.0
  0
LWPOLYLINE
  5
7DE1B343D9DF503
330
7DE1B343D9DF580
100
AcDbEntity
  8
TEXT
100
AcDbPolyline
 90
        6
 70
     1
 43
0.0
 10
0.0549313981550477
 20
0.1869986979204996
 10
0.0246148039348395
 20
0.1869986979204996
 10
0.0246148039348395
 20
0.0638876998656053
 42
0.407328721240804
 10
0.0361584550963159
 20
0.0520687851892192
 10
0.0967801541410467
 20
0.0520687851892192
 10
0.1142454945483646
 20
0.0848810142326984
  0
LINE
  5
7DE1B343D9DF50B
330
7DE1B343D9DF580
100
AcDbEntity
  8
TEXT
100
AcDbLine
 10
0.2402811169714278
 20
0.1691110766290351
 30
0.0
 11
0.2402811169714278
 21
0.0363537018036788
 31
0.0
  0
ARC
  5
7DE1B343D9DF50C
330
7DE1B343D9DF580
100
AcDbEntity
  8
TEXT
100
AcDbCircle
 10
0.3235790532936014
 20
0.0657929920882823
 30
0.0
 40
0.0153818062434269
100
AcDbArc
 50
174.7883570302258
 51
270.0
  0
LWPOLYLINE
  5
7DE1B343D9DF50D
330
7DE1B343D9DF580
100
AcDbEntity
  8
TEXT
100
AcDbPolyline
 90
        2
 70
     0
 43
0.0
 10
0.2402811169714261
 20
0.0363537018036824
 42
0.3318488747599744
 10
0.3094004095367391
 20
-0.015197640411246
 42
-6.868794160588311
  0
LINE
  5
7DE1B343D9DF511
330
7DE1B343D9DF580
100
AcDbEntity
  8
TEXT
100
AcDbLine
 10
0.4647928122254348
 20
-0.015197640411246
 30
0.0
 11
0.5318508590072748
 21
-0.015197640411246
 31
0.0
  0
LINE
  5
7DE1B343D9DF512
330
7DE1B343D9DF580
100
AcDbEntity
  8
TEXT
100
AcDbLine
 10
0.4647928122254348
 20
0.1794449087543897
 30
0.0
 11
0.4647928122254348
 21
-0.015197640411246
 31
0.0
  0
LINE
  5
7DE1B343D9DF513
330
7DE1B343D9DF580
100
AcDbEntity
  8
TEXT
100
AcDbLine
 10
0.4074037432361737
 20
0.1869986979204996
 30
0.0
 11
0.4572390230593213
 21
0.1869986979204996
 31
0.0
  0
LINE
  5
7DE1B343D9DF514
330
7DE1B343D9DF580
100
AcDbEntity
  8
TEXT
100
AcDbLine
 10
0.4074037432361737
 20
-0.015197640411246
 30
0.0
 11
0.4074037432361737
 21
0.1869986979204996
 31
0.0
  0
LWPOLYLINE
  5
7DE1B343D9DF515
330
7DE1B343D9DF580
100
AcDbEntity
  8
TEXT
100
AcDbPolyline
 90
        2
 70
     0
 43
0.0
 10
0.4572390230593195
 20
0.1869986979204996
 42
-0.4142135623731017
 10
0.464792812225433
 20
0.1794449087543897
 42
-0.9999999999999998
  0
LINE
  5
7DE1B343D9DF519
330
7DE1B343D9DF580
100
AcDbEntity
  8
TEXT
100
AcDbLine
 10
0.6630490238370046
 20
0.1869986979204996
 30
0.0
 11
0.6630490238370046
 21
0.111946291846293
 31
0.0
  0
LINE
  5
7DE1B343D9DF51A
330
7DE1B343D9DF580
100
AcDbEntity
  8
TEXT
100
AcDbLine
 10
0.5318508590072748
 20
0.1869986979204996
 30
0.0
 11
0.585984455928225
 21
0.1869986979204996
 31
0.0
  0
LINE
  5
7DE1B343D9DF51B
330
7DE1B343D9DF580
100
AcDbEntity
  8
TEXT
100
AcDbLine
 10
0.5318508590072748
 20
-0.015197640411246
 30
0.0
 11
0.5318508590072748
 21
0.1869986979204996
 31
0.0
  0
LWPOLYLINE
  5
7DE1B343D9DF51C
330
7DE1B343D9DF580
100
AcDbEntity
  8
TEXT
100
AcDbPolyline
 90
        2
 70
     0
 43
0.0
 10
0.5859844559282232
 20
0.1869986979204996
 42
-0.4142135623731017
 10
0.5935382450943367
 20
0.1794449087543897
 42
-0.9999999999999998
  0
LWPOLYLINE
  5
7DE1B343D9DF520
330
7DE1B343D9DF580
100
AcDbEntity
  8
TEXT
100
AcDbPolyline
 90
        4
 70
     0
 43
0.0
 10
0.5935382450943367
 20
0.1794449087543897
 10
0.5935382450943367
 20
-0.015197640411246
 10
0.6620165283821946
 20
-0.015197640411246
 10
0.6620165283821946
 20
0.0282933045391922
 42
-1.714843617202739
  0
LINE
  5
7DE1B343D9DF526
330
7DE1B343D9DF580
100
AcDbEntity
  8
TEXT
100
AcDbLine
 10
0.0221523606990923
 20
0.251275392577265
 30
0.0
 11
0.0221523606990923
 21
0.2856633101714032
 31
0.0
  0
LINE
  5
7DE1B343D9DF527
330
7DE1B343D9DF580
100
AcDbEntity
  8
TEXT
100
AcDbLine
 10
0.0939513268429997
 20
0.251275392577265
 30
0.0
 11
0.0221523606990923
 21
0.251275392577265
 31
0.0
  0
LINE
  5
7DE1B343D9DF528
330
7DE1B343D9DF580
100
AcDbEntity
  8
TEXT
100
AcDbLine
 10
0.2414521234741793
 20
0.251275392577265
 30
0.0
 11
0.211330210680803
 21
0.251275392577265
 31
0.0
  0
LINE
  5
7DE1B343D9DF529
330
7DE1B343D9DF580
100
AcDbEntity
  8
TEXT
100
AcDbLine
 10
0.2414521234741793
 20
0.3192868703160756
 30
0.0
 11
0.2414521234741793
 21
0.251275392577265
 31
0.0
  0
LINE
  5
7DE1B343D9DF52A
330
7DE1B343D9DF580
100
AcDbEntity
  8
TEXT
100
AcDbLine
 10
0.3082608360405443
 20
0.3192868703160756
 30
0.0
 11
0.2414521234741793
 21
0.3192868703160756
 31
0.0
  0
LWPOLYLINE
  5
7DE1B343D9DF52B
330
7DE1B343D9DF580
100
AcDbEntity
  8
TEXT
100
AcDbPolyline
 90
        3
 70
     0
 43
0.0
 10
0.6286725956385466
 20
0.2512753925772686
 10
0.5103724368225022
 20
0.2512753925772686
 10
0.5103724368225022
 20
0.2241078958163727
 42
-1.960274751411753
  0
LINE
  5
7DE1B343D9DF530
330
7DE1B343D9DF580
100
AcDbEntity
  8
TEXT
100
AcDbLine
 10
0.4745907461093408
 20
0.251275392577265
 30
0.0
 11
0.3405726901782045
 21
0.251275392577265
 31
0.0
  0
LWPOLYLINE
  5
7DE1B343D9DF531
330
7DE1B343D9DF580
100
AcDbEntity
  8
TEXT
100
AcDbPolyline
 90
        2
 70
     0
 43
0.0
 10
0.4745907461093408
 20
0.2512753925772686
 42
-0.3328679258950098
 10
0.5103724368225022
 20
0.2241078958163727
 42
6.772930709997214
  0
LINE
  5
7DE1B343D9DF535
330
7DE1B343D9DF580
100
AcDbEntity
  8
TEXT
100
AcDbLine
 10
0.6644542863517133
 20
0.251275392577265
 30
0.0
 11
0.6644542863517133
 21
0.2229528468076212
 31
0.0
  0
LWPOLYLINE
  5
7DE1B343D9DF536
330
7DE1B343D9DF580
100
AcDbEntity
  8
TEXT
100
AcDbPolyline
 90
        2
 70
     0
 43
0.0
 10
0.6286725956385466
 20
0.2512753925772686
 42
-0.3277054968067132
 10
0.6644542863517115
 20
0.2229528468076247
 42
6.667889725900311
  0
LINE
  5
7DE1B343D9DF53A
330
7DE1B343D9DF580
100
AcDbEntity
  8
TEXT
100
AcDbLine
 10
0.8782461344438134
 20
0.1460634140238377
 30
0.0
 11
0.8344953632619118
 21
0.2283136900199829
 31
0.0
  0
LINE
  5
7DE1B343D9DF53B
330
7DE1B343D9DF580
100
AcDbEntity
  8
TEXT
100
AcDbLine
 10
0.8782461344438134
 20
0.251275392577265
 30
0.0
 11
0.8782461344438134
 21
0.1460634140238377
 31
0.0
  0
LINE
  5
7DE1B343D9DF53C
330
7DE1B343D9DF580
100
AcDbEntity
  8
TEXT
100
AcDbLine
 10
1.105929873382182
 20
0.175410066165727
 30
0.0
 11
1.105929873382182
 21
0.3167395983448658
 31
0.0
  0
LINE
  5
7DE1B343D9DF53D
330
7DE1B343D9DF580
100
AcDbEntity
  8
TEXT
100
AcDbLine
 10
1.153028031938166
 20
0.251275392577265
 30
0.0
 11
1.105929873382182
 21
0.175410066165727
 31
0.0
  0
LINE
  5
7DE1B343D9DF53E
330
7DE1B343D9DF580
100
AcDbEntity
  8
TEXT
100
AcDbLine
 10
1.163462748702089
 20
0.1413821496362915
 30
0.0
 11
1.228019864667795
 21
0.251275392577265
 31
0.0
  0
LINE
  5
7DE1B343D9DF53F
330
7DE1B343D9DF580
100
AcDbEntity
  8
TEXT
100
AcDbLine
 10
1.042094882159409
 20
-0.015197640411246
 30
0.0
 11
1.106473066478029
 21
-0.015197640411246
 31
0.0
  0
LWPOLYLINE
  5
7DE1B343D9DF540
330
7DE1B343D9DF580
100
AcDbEntity
  8
TEXT
100
AcDbPolyline
 90
        2
 70
     0
 43
0.0
 10
0.8821858117488512
 20
0.0282933045391922
 42
-0.2901071551932486
 10
0.8391098788812067
 20
-0.015197640411246
 42
-5.328517124445184
  0
ARC
  5
7DE1B343D9DF544
330
7DE1B343D9DF580
100
AcDbEntity
  8
TEXT
100
AcDbCircle
 10
0.7702552972242922
 20
0.1586393229205023
 30
0.0
 40
0.028359375
100
AcDbArc
 50
25.78218179591245
 51
90.0
  0
LINE
  5
7DE1B343D9DF545
330
7DE1B343D9DF580
100
AcDbEntity
  8
TEXT
100
AcDbLine
 10
0.8060563725284152
 20
0.1497237244583673
 30
0.0
 11
0.7957916121148509
 21
0.1709742640310616
 31
0.0
  0
LINE
  5
7DE1B343D9DF546
330
7DE1B343D9DF580
100
AcDbEntity
  8
TEXT
100
AcDbLine
 10
0.7237683827450321
 20
0.1497237244583673
 30
0.0
 11
0.8060563725284152
 21
0.1497237244583673
 31
0.0
  0
LWPOLYLINE
  5
7DE1B343D9DF547
330
7DE1B343D9DF580
100
AcDbEntity
  8
TEXT
100
AcDbPolyline
 90
        4
 70
     1
 43
0.0
 10
0.8189874138113141
 20
0.0877663375727793
 10
0.7303270951514558
 20
0.0877663375727793
 42
0.9999999999999998
 10
0.7303270951514558
 20
0.0453677970689186
 10
0.8189874138113141
 20
0.0453677970689186
 42
1.0
  0
LWPOLYLINE
  5
7DE1B343D9DF54D
330
7DE1B343D9DF580
100
AcDbEntity
  8
TEXT
100
AcDbPolyline
 90
        2
 70
     0
 43
0.0
 10
0.7050924612498302
 20
-0.015197640411246
 10
0.8391098788812067
 20
-0.015197640411246
 42
0.9999999999999998
  0
LINE
  5
7DE1B343D9DF551
330
7DE1B343D9DF580
100
AcDbEntity
  8
TEXT
100
AcDbLine
 10
0.9654469008668462
 20
0.1869986979204996
 30
0.0
 11
1.042094882159404
 21
0.1869986979204996
 31
0.0
  0
LINE
  5
7DE1B343D9DF552
330
7DE1B343D9DF580
100
AcDbEntity
  8
TEXT
100
AcDbLine
 10
1.042094882159404
 20
0.1869986979204996
 30
0.0
 11
1.042094882159409
 21
-0.015197640411246
 31
0.0
  0
ARC
  5
7DE1B343D9DF553
330
7DE1B343D9DF580
100
AcDbEntity
  8
TEXT
100
AcDbCircle
 10
0.9654469008668444
 20
0.1620928226378369
 30
0.0
 40
0.0249058752826653
100
AcDbArc
 50
89.99971217465335
 51
179.9999999999985
  0
LINE
  5
7DE1B343D9DF554
330
7DE1B343D9DF580
100
AcDbEntity
  8
TEXT
100
AcDbLine
 10
0.940541025584187
 20
-0.015197640411246
 30
0.0
 11
0.9405410255841816
 21
0.1620928650202225
 31
0.0
  0
LWPOLYLINE
  5
7DE1B343D9DF555
330
7DE1B343D9DF580
100
AcDbEntity
  8
TEXT
100
AcDbPolyline
 90
        2
 70
     0
 43
0.0
 10
0.8821858117488512
 20
-0.015197640411246
 10
0.9405410255841852
 20
-0.015197640411246
  0
LWPOLYLINE
  5
7DE1B343D9DF559
330
7DE1B343D9DF580
100
AcDbEntity
  8
TEXT
100
AcDbPolyline
 90
        2
 70
     0
 43
0.0
 10
0.8821858117488512
 20
0.0282933045391922
 10
0.8821858117488512
 20
-0.015197640411246
  0
LINE
  5
7DE1B343D9DF55D
330
7DE1B343D9DF580
100
AcDbEntity
  8
TEXT
100
AcDbLine
 10
1.2589549720657
 20
-0.015197640411246
 30
0.0
 11
1.163462748702089
 21
0.1413821496362915
 31
0.0
  0
LINE
  5
7DE1B343D9DF55E
330
7DE1B343D9DF580
100
AcDbEntity
  8
TEXT
100
AcDbLine
 10
1.182376599689494
 20
-0.015197640411246
 30
0.0
 11
1.2589549720657
 21
-0.015197640411246
 31
0.0
  0
LINE
  5
7DE1B343D9DF55F
330
7DE1B343D9DF580
100
AcDbEntity
  8
TEXT
100
AcDbLine
 10
1.106473066478029
 20
0.1163819280649343
 30
0.0
 11
1.182376599689494
 21
-0.015197640411246
 31
0.0
  0
LINE
  5
7DE1B343D9DF560
330
7DE1B343D9DF580
100
AcDbEntity
  8
TEXT
100
AcDbLine
 10
1.106473066478029
 20
-0.015197640411246
 30
0.0
 11
1.106473066478029
 21
0.1163819280649343
 31
0.0
  0
LINE
  5
7DE1B343D9DF561
330
7DE1B343D9DF580
100
AcDbEntity
  8
TEXT
100
AcDbLine
 10
1.105929873382182
 20
0.3167395983448658
 30
0.0
 11
1.037614994832909
 21
0.3167395983448658
 31
0.0
  0
ARC
  5
7DE1B343D9DF562
330
7DE1B343D9DF580
100
AcDbEntity
  8
TEXT
100
AcDbCircle
 10
0.7972592557917031
 20
0.2096918254563627
 30
0.0
 40
0.0416329381542859
100
AcDbArc
 50
26.56974201007528
 51
87.20939649401342
  0
LINE
  5
7DE1B343D9DF563
330
7DE1B343D9DF580
100
AcDbEntity
  8
TEXT
100
AcDbLine
 10
0.9421430407433144
 20
0.251275392577265
 30
0.0
 11
0.8782461344438134
 21
0.251275392577265
 31
0.0
  0
LINE
  5
7DE1B343D9DF564
330
7DE1B343D9DF580
100
AcDbEntity
  8
TEXT
100
AcDbLine
 10
0.9421430407433144
 20
0.2237277427163904
 30
0.0
 11
0.9421430407433144
 21
0.251275392577265
 31
0.0
  0
ARC
  5
7DE1B343D9DF565
330
7DE1B343D9DF580
100
AcDbEntity
  8
TEXT
100
AcDbCircle
 10
0.9733358578064221
 20
0.2200296652950002
 30
0.0
 40
0.0314112657011332
100
AcDbArc
 50
95.88484768694724
 51
173.2388340632136
  0
LINE
  5
7DE1B343D9DF566
330
7DE1B343D9DF580
100
AcDbEntity
  8
TEXT
100
AcDbLine
 10
1.037614994832903
 20
0.251275392577265
 30
0.0
 11
0.9701152771833873
 21
0.251275392577265
 31
0.0
  0
LINE
  5
7DE1B343D9DF567
330
7DE1B343D9DF580
100
AcDbEntity
  8
TEXT
100
AcDbLine
 10
1.037614994832909
 20
0.3167395983448658
 30
0.0
 11
1.037614994832903
 21
0.251275392577265
 31
0.0
  0
LINE
  5
7DE1B343D9DF568
330
7DE1B343D9DF580
100
AcDbEntity
  8
TEXT
100
AcDbLine
 10
1.228019864667795
 20
0.251275392577265
 30
0.0
 11
1.153028031938168
 21
0.251275392577265
 31
0.0
  0
ENDSEC
  0
SECTION
  2
OBJECTS
  0
DICTIONARY
  5
7DE1B343D9DF574
330
0
100
AcDbDictionary
  3
ACAD_GROUP
350
7DE1B343D9DF575
  3
ACAD_LAYOUT
350
7DE1B343D9DF59A
  3
ACAD_MLINESTYLE
350
7DE1B343D9DF576
  3
ACAD_PLOTSETTINGS
350
7DE1B343D9DF59B
  3
ACAD_PLOTSTYLENAME
350
7DE1B343D9DF598
  3
ACDBHEADERROUNDTRIPXREC
350
7DE1B343D9DF5A5
  3
ACDBVARIABLEDICTIONARY
350
7DE1B343D9DF5A2
  0
DICTIONARY
  5
7DE1B343D9DF5C7
330
7DE1B343D9DF580
100
AcDbDictionary
280
     1
  3
ACAD_LAYOUTSELFREF
360
7DE1B343D9DF5C8
  0
DICTIONARY
  5
7DE1B343D9DF5C5
330
7DE1B343D9DF57D
100
AcDbDictionary
280
     1
  3
ACAD_LAYOUTSELFREF
360
7DE1B343D9DF5C6
  0
DICTIONARY
  5
7DE1B343D9DF575
102
{ACAD_REACTORS
330
7DE1B343D9DF574
102
}
330
7DE1B343D9DF574
100
AcDbDictionary
  0
DICTIONARY
  5
7DE1B343D9DF59A
102
{ACAD_REACTORS
330
7DE1B343D9DF574
102
}
330
7DE1B343D9DF574
100
AcDbDictionary
  0
DICTIONARY
  5
7DE1B343D9DF576
102
{ACAD_REACTORS
330
7DE1B343D9DF574
102
}
330
7DE1B343D9DF574
100
AcDbDictionary
  3
STANDARD
350
7DE1B343D9DF583
  0
DICTIONARY
  5
7DE1B343D9DF59B
102
{ACAD_REACTORS
330
7DE1B343D9DF574
102
}
330
7DE1B343D9DF574
100
AcDbDictionary
  0
ACDBDICTIONARYWDFLT
  5
7DE1B343D9DF598
102
{ACAD_REACTORS
330
7DE1B343D9DF574
102
}
330
7DE1B343D9DF574
100
AcDbDictionary
281
     1
  3
Normal
350
7DE1B343D9DF599
100
AcDbDictionaryWithDefault
340
7DE1B343D9DF599
  0
DICTIONARY
  5
7DE1B343D9DF5A5
102
{ACAD_REACTORS
330
7DE1B343D9DF574
102
}
330
7DE1B343D9DF574
100
AcDbDictionary
  3
CEPSNTYPE
350
7DE1B343D9DF5AF
  3
FINGERPRINTGUID
350
7DE1B343D9DF5B0
  3
HYPERLINKBASE
350
7DE1B343D9DF5A8
  3
INSUNITS
350
7DE1B343D9DF5AE
  3
LAYOUTDICT
350
7DE1B343D9DF5AA
  3
LWETCUNION
350
7DE1B343D9DF5AD
  3
PLOTSETDICT
350
7DE1B343D9DF5AB
  3
PLOTSTYLNAMDICT
350
7DE1B343D9DF5AC
  3
PSVPSCALE
350
7DE1B343D9DF5B2
  3
PUCSBASE
350
7DE1B343D9DF5B5
  3
PUCSORGBACK
350
7DE1B343D9DF5BB
  3
PUCSORGBOTTOM
350
7DE1B343D9DF5B7
  3
PUCSORGFRONT
350
7DE1B343D9DF5BA
  3
PUCSORGLEFT
350
7DE1B343D9DF5B8
  3
PUCSORGRIGHT
350
7DE1B343D9DF5B9
  3
PUCSORGTOP
350
7DE1B343D9DF5B6
  3
PUCSORTHOREF
350
7DE1B343D9DF5B3
  3
PUCSORTHOVIEW
350
7DE1B343D9DF5B4
  3
STYLESHEET
350
7DE1B343D9DF5A9
  3
TSTACKALIGN
350
7DE1B343D9DF5A6
  3
TSTACKSIZE
350
7DE1B343D9DF5A7
  3
UCSBASE
350
7DE1B343D9DF5BE
  3
UCSORGBACK
350
7DE1B343D9DF5C4
  3
UCSORGBOTTOM
350
7DE1B343D9DF5C0
  3
UCSORGFRONT
350
7DE1B343D9DF5C3
  3
UCSORGLEFT
350
7DE1B343D9DF5C1
  3
UCSORGRIGHT
350
7DE1B343D9DF5C2
  3
UCSORGTOP
350
7DE1B343D9DF5BF
  3
UCSORTHOREF
350
7DE1B343D9DF5BC
  3
UCSORTHOVIEW
350
7DE1B343D9DF5BD
  3
VERSIONGUID
350
7DE1B343D9DF5B1
  0
DICTIONARY
  5
7DE1B343D9DF5A2
102
{ACAD_REACTORS
330
7DE1B343D9DF574
102
}
330
7DE1B343D9DF574
100
AcDbDictionary
  3
DIMASSOC
350
7DE1B343D9DF5A3
  0
XRECORD
  5
7DE1B343D9DF5C8
102
{ACAD_REACTORS
330
7DE1B343D9DF5C7
102
}
330
7DE1B343D9DF5C7
100
AcDbXrecord
340
7DE1B343D9DF580
  0
XRECORD
  5
7DE1B343D9DF5C6
102
{ACAD_REACTORS
330
7DE1B343D9DF5C5
102
}
330
7DE1B343D9DF5C5
100
AcDbXrecord
340
7DE1B343D9DF57D
  0
MLINESTYLE
  5
7DE1B343D9DF583
102
{ACAD_REACTORS
330
7DE1B343D9DF576
102
}
330
7DE1B343D9DF576
100
AcDbMlineStyle
  2
STANDARD
 70
     0
  3

 62
     0
 51
90.0
 52
90.0
 71
     2
 49
0.5
 62
   256
  6
BYLAYER
 49
-0.5
 62
   256
  6
BYLAYER
  0
ACDBPLACEHOLDER
  5
7DE1B343D9DF599
102
{ACAD_REACTORS
330
7DE1B343D9DF598
102
}
330
7DE1B343D9DF598
100
AcDbPlaceHolder
280
     0
  0
XRECORD
  5
7DE1B343D9DF5AF
102
{ACAD_REACTORS
330
7DE1B343D9DF5A5
102
}
330
7DE1B343D9DF5A5
100
AcDbXrecord
 90
        0
  0
XRECORD
  5
7DE1B343D9DF5B0
102
{ACAD_REACTORS
330
7DE1B343D9DF5A5
102
}
330
7DE1B343D9DF5A5
100
AcDbXrecord
  1
{53FB4B00-8DB5-11D6-88E6-0090279574E7}
  0
XRECORD
  5
7DE1B343D9DF5A8
102
{ACAD_REACTORS
330
7DE1B343D9DF5A5
102
}
330
7DE1B343D9DF5A5
100
AcDbXrecord
  1

  0
XRECORD
  5
7DE1B343D9DF5AE
102
{ACAD_REACTORS
330
7DE1B343D9DF5A5
102
}
330
7DE1B343D9DF5A5
100
AcDbXrecord
 90
        0
  0
XRECORD
  5
7DE1B343D9DF5AA
102
{ACAD_REACTORS
330
7DE1B343D9DF5A5
102
}
330
7DE1B343D9DF5A5
100
AcDbXrecord
340
7DE1B343D9DF59A
  0
XRECORD
  5
7DE1B343D9DF5AD
102
{ACAD_REACTORS
330
7DE1B343D9DF5A5
102
}
330
7DE1B343D9DF5A5
100
AcDbXrecord
 90
    14877
  0
XRECORD
  5
7DE1B343D9DF5AB
102
{ACAD_REACTORS
330
7DE1B343D9DF5A5
102
}
330
7DE1B343D9DF5A5
100
AcDbXrecord
340
7DE1B343D9DF59B
  0
XRECORD
  5
7DE1B343D9DF5AC
102
{ACAD_REACTORS
330
7DE1B343D9DF5A5
102
}
330
7DE1B343D9DF5A5
100
AcDbXrecord
340
7DE1B343D9DF598
  0
XRECORD
  5
7DE1B343D9DF5B2
102
{ACAD_REACTORS
330
7DE1B343D9DF5A5
102
}
330
7DE1B343D9DF5A5
100
AcDbXrecord
 40
0.0
  0
XRECORD
  5
7DE1B343D9DF5B5
102
{ACAD_REACTORS
330
7DE1B343D9DF5A5
102
}
330
7DE1B343D9DF5A5
100
AcDbXrecord
340
0
  0
XRECORD
  5
7DE1B343D9DF5BB
102
{ACAD_REACTORS
330
7DE1B343D9DF5A5
102
}
330
7DE1B343D9DF5A5
100
AcDbXrecord
 10
0.0
 20
0.0
 30
0.0
  0
XRECORD
  5
7DE1B343D9DF5B7
102
{ACAD_REACTORS
330
7DE1B343D9DF5A5
102
}
330
7DE1B343D9DF5A5
100
AcDbXrecord
 10
0.0
 20
0.0
 30
0.0
  0
XRECORD
  5
7DE1B343D9DF5BA
102
{ACAD_REACTORS
330
7DE1B343D9DF5A5
102
}
330
7DE1B343D9DF5A5
100
AcDbXrecord
 10
0.0
 20
0.0
 30
0.0
  0
XRECORD
  5
7DE1B343D9DF5B8
102
{ACAD_REACTORS
330
7DE1B343D9DF5A5
102
}
330
7DE1B343D9DF5A5
100
AcDbXrecord
 10
0.0
 20
0.0
 30
0.0
  0
XRECORD
  5
7DE1B343D9DF5B9
102
{ACAD_REACTORS
330
7DE1B343D9DF5A5
102
}
330
7DE1B343D9DF5A5
100
AcDbXrecord
 10
0.0
 20
0.0
 30
0.0
  0
XRECORD
  5
7DE1B343D9DF5B6
102
{ACAD_REACTORS
330
7DE1B343D9DF5A5
102
}
330
7DE1B343D9DF5A5
100
AcDbXrecord
 10
0.0
 20
0.0
 30
0.0
  0
XRECORD
  5
7DE1B343D9DF5B3
102
{ACAD_REACTORS
330
7DE1B343D9DF5A5
102
}
330
7DE1B343D9DF5A5
100
AcDbXrecord
340
0
  0
XRECORD
  5
7DE1B343D9DF5B4
102
{ACAD_REACTORS
330
7DE1B343D9DF5A5
102
}
330
7DE1B343D9DF5A5
100
AcDbXrecord
 70
     0
  0
XRECORD
  5
7DE1B343D9DF5A9
102
{ACAD_REACTORS
330
7DE1B343D9DF5A5
102
}
330
7DE1B343D9DF5A5
100
AcDbXrecord
  1

  0
XRECORD
  5
7DE1B343D9DF5A6
102
{ACAD_REACTORS
330
7DE1B343D9DF5A5
102
}
330
7DE1B343D9DF5A5
100
AcDbXrecord
 90
        1
  0
XRECORD
  5
7DE1B343D9DF5A7
102
{ACAD_REACTORS
330
7DE1B343D9DF5A5
102
}
330
7DE1B343D9DF5A5
100
AcDbXrecord
 90
       70
  0
XRECORD
  5
7DE1B343D9DF5BE
102
{ACAD_REACTORS
330
7DE1B343D9DF5A5
102
}
330
7DE1B343D9DF5A5
100
AcDbXrecord
340
0
  0
XRECORD
  5
7DE1B343D9DF5C4
102
{ACAD_REACTORS
330
7DE1B343D9DF5A5
102
}
330
7DE1B343D9DF5A5
100
AcDbXrecord
 10
0.0
 20
0.0
 30
0.0
  0
XRECORD
  5
7DE1B343D9DF5C0
102
{ACAD_REACTORS
330
7DE1B343D9DF5A5
102
}
330
7DE1B343D9DF5A5
100
AcDbXrecord
 10
0.0
 20
0.0
 30
0.0
  0
XRECORD
  5
7DE1B343D9DF5C3
102
{ACAD_REACTORS
330
7DE1B343D9DF5A5
102
}
330
7DE1B343D9DF5A5
100
AcDbXrecord
 10
0.0
 20
0.0
 30
0.0
  0
XRECORD
  5
7DE1B343D9DF5C1
102
{ACAD_REACTORS
330
7DE1B343D9DF5A5
102
}
330
7DE1B343D9DF5A5
100
AcDbXrecord
 10
0.0
 20
0.0
 30
0.0
  0
XRECORD
  5
7DE1B343D9DF5C2
102
{ACAD_REACTORS
330
7DE1B343D9DF5A5
102
}
330
7DE1B343D9DF5A5
100
AcDbXrecord
 10
0.0
 20
0.0
 30
0.0
  0
XRECORD
  5
7DE1B343D9DF5BF
102
{ACAD_REACTORS
330
7DE1B343D9DF5A5
102
}
330
7DE1B343D9DF5A5
100
AcDbXrecord
 10
0.0
 20
0.0
 30
0.0
  0
XRECORD
  5
7DE1B343D9DF5BC
102
{ACAD_REACTORS
330
7DE1B343D9DF5A5
102
}
330
7DE1B343D9DF5A5
100
AcDbXrecord
340
0
  0
XRECORD
  5
7DE1B343D9DF5BD
102
{ACAD_REACTORS
330
7DE1B343D9DF5A5
102
}
330
7DE1B343D9DF5A5
100
AcDbXrecord
 70
     0
  0
XRECORD
  5
7DE1B343D9DF5B1
102
{ACAD_REACTORS
330
7DE1B343D9DF5A5
102
}
330
7DE1B343D9DF5A5
100
AcDbXrecord
  1
{53FB4B02-8DB5-11D6-88E6-0090279574E7}
  0
DICTIONARYVAR
  5
7DE1B343D9DF5A3
102
{ACAD_REACTORS
330
7DE1B343D9DF5A2
102
}
330
7DE1B343D9DF5A2
100
DictionaryVariables
280
     0
  1
1
  0
ENDSEC
  0
EOF
