  0
SECTION
  2
HEADER
  9
$ACADVER
  1
AC1014
  9
$ACADMAINTVER
 70
     9
  9
$DWGCODEPAGE
  3
ANSI_1252
  9
$INSBASE
 10
1.829540167923743
 20
1.384155347485966
 30
0.0
  9
$EXTMIN
 10
-0.1769319189883365
 20
-0.0822542976251663
 30
0.0
  9
$EXTMAX
 10
3.836012254835822
 20
1.390627434398045
 30
0.0
  9
$LIMMIN
 10
0.0
 20
0.0
  9
$LIMMAX
 10
18.0
 20
12.0
  9
$ORTHOMODE
 70
     1
  9
$REGENMODE
 70
     1
  9
$FILLMODE
 70
     1
  9
$QTEXTMODE
 70
     0
  9
$MIRRTEXT
 70
     0
  9
$DRAGMODE
 70
     2
  9
$LTSCALE
 40
1.0
  9
$OSMODE
 70
    39
  9
$ATTMODE
 70
     1
  9
$TEXTSIZE
 40
0.125
  9
$TRACEWID
 40
0.05
  9
$TEXTSTYLE
  7
ROMANS
  9
$CLAYER
  8
0
  9
$CELTYPE
  6
BYLAYER
  9
$CECOLOR
 62
   256
  9
$CELTSCALE
 40
1.0
  9
$DELOBJ
 70
     1
  9
$DISPSILH
 70
     1
  9
$DIMSCALE
 40
1.0
  9
$DIMASZ
 40
0.125
  9
$DIMEXO
 40
0.125
  9
$DIMDLI
 40
0.375
  9
$DIMRND
 40
0.0
  9
$DIMDLE
 40
0.0
  9
$DIMEXE
 40
0.125
  9
$DIMTP
 40
0.0
  9
$DIMTM
 40
0.0
  9
$DIMTXT
 40
0.125
  9
$DIMCEN
 40
-0.125
  9
$DIMTSZ
 40
0.0
  9
$DIMTOL
 70
     0
  9
$DIMLIM
 70
     0
  9
$DIMTIH
 70
     1
  9
$DIMTOH
 70
     1
  9
$DIMSE1
 70
     0
  9
$DIMSE2
 70
     0
  9
$DIMTAD
 70
     0
  9
$DIMZIN
 70
     4
  9
$DIMBLK
  1

  9
$DIMASO
 70
     1
  9
$DIMSHO
 70
     1
  9
$DIMPOST
  1

  9
$DIMAPOST
  1

  9
$DIMALT
 70
     0
  9
$DIMALTD
 70
     2
  9
$DIMALTF
 40
25.4
  9
$DIMLFAC
 40
1.0
  9
$DIMTOFL
 70
     0
  9
$DIMTVP
 40
0.0
  9
$DIMTIX
 70
     1
  9
$DIMSOXD
 70
     0
  9
$DIMSAH
 70
     0
  9
$DIMBLK1
  1

  9
$DIMBLK2
  1

  9
$DIMSTYLE
  2
STANDARD
  9
$DIMCLRD
 70
     0
  9
$DIMCLRE
 70
     0
  9
$DIMCLRT
 70
     0
  9
$DIMTFAC
 40
1.0
  9
$DIMGAP
 40
0.09
  9
$DIMJUST
 70
     0
  9
$DIMSD1
 70
     0
  9
$DIMSD2
 70
     0
  9
$DIMTOLJ
 70
     1
  9
$DIMTZIN
 70
     4
  9
$DIMALTZ
 70
     0
  9
$DIMALTTZ
 70
     0
  9
$DIMFIT
 70
     3
  9
$DIMUPT
 70
     0
  9
$DIMUNIT
 70
     2
  9
$DIMDEC
 70
     3
  9
$DIMTDEC
 70
     3
  9
$DIMALTU
 70
     2
  9
$DIMALTTD
 70
     2
  9
$DIMTXSTY
  7
ROMANS
  9
$DIMAUNIT
 70
     0
  9
$LUNITS
 70
     2
  9
$LUPREC
 70
     3
  9
$SKETCHINC
 40
0.1
  9
$FILLETRAD
 40
0.03125
  9
$AUNITS
 70
     0
  9
$AUPREC
 70
     0
  9
$MENU
  1
ACAD
  9
$ELEVATION
 40
0.0
  9
$PELEVATION
 40
0.0
  9
$THICKNESS
 40
0.0
  9
$LIMCHECK
 70
     0
  9
$BLIPMODE
 70
     0
  9
$CHAMFERA
 40
0.0
  9
$CHAMFERB
 40
0.0
  9
$CHAMFERC
 40
0.0
  9
$CHAMFERD
 40
0.0
  9
$SKPOLY
 70
     0
  9
$TDCREATE
 40
2448994.479533796
  9
$TDUPDATE
 40
2452458.302022222
  9
$TDINDWG
 40
0.0009443866
  9
$TDUSRTIMER
 40
0.0009443866
  9
$USRTIMER
 70
     1
  9
$ANGBASE
 50
0.0
  9
$ANGDIR
 70
     0
  9
$PDMODE
 70
     0
  9
$PDSIZE
 40
0.0
  9
$PLINEWID
 40
0.0
  9
$COORDS
 70
     2
  9
$SPLFRAME
 70
     0
  9
$SPLINETYPE
 70
     6
  9
$SPLINESEGS
 70
     8
  9
$ATTDIA
 70
     0
  9
$ATTREQ
 70
     1
  9
$HANDLING
 70
 22529
  9
$HANDSEED
  5
7DE1B343D9DF1E3
  9
$SURFTAB1
 70
     6
  9
$SURFTAB2
 70
     6
  9
$SURFTYPE
 70
     6
  9
$SURFU
 70
     6
  9
$SURFV
 70
     6
  9
$UCSNAME
  2

  9
$UCSORG
 10
0.0
 20
0.0
 30
0.0
  9
$UCSXDIR
 10
1.0
 20
0.0
 30
0.0
  9
$UCSYDIR
 10
0.0
 20
1.0
 30
0.0
  9
$PUCSNAME
  2

  9
$PUCSORG
 10
0.0
 20
0.0
 30
0.0
  9
$PUCSXDIR
 10
1.0
 20
0.0
 30
0.0
  9
$PUCSYDIR
 10
0.0
 20
1.0
 30
0.0
  9
$USERI1
 70
     0
  9
$USERI2
 70
     0
  9
$USERI3
 70
     0
  9
$USERI4
 70
     0
  9
$USERI5
 70
     0
  9
$USERR1
 40
0.0
  9
$USERR2
 40
0.0
  9
$USERR3
 40
0.0
  9
$USERR4
 40
0.0
  9
$USERR5
 40
0.0
  9
$WORLDVIEW
 70
     1
  9
$SHADEDGE
 70
     3
  9
$SHADEDIF
 70
    70
  9
$TILEMODE
 70
     1
  9
$MAXACTVP
 70
    16
  9
$PINSBASE
 10
0.0
 20
0.0
 30
0.0
  9
$PLIMCHECK
 70
     0
  9
$PEXTMIN
 10
1.000000000000000E+20
 20
1.000000000000000E+20
 30
1.000000000000000E+20
  9
$PEXTMAX
 10
-1.000000000000000E+20
 20
-1.000000000000000E+20
 30
-1.000000000000000E+20
  9
$PLIMMIN
 10
0.0
 20
0.0
  9
$PLIMMAX
 10
12.0
 20
9.0
  9
$UNITMODE
 70
     0
  9
$VISRETAIN
 70
     0
  9
$PLINEGEN
 70
     1
  9
$PSLTSCALE
 70
     0
  9
$TREEDEPTH
 70
  3020
  9
$PICKSTYLE
 70
     1
  9
$CMLSTYLE
  2
STANDARD
  9
$CMLJUST
 70
     0
  9
$CMLSCALE
 40
1.0
  9
$PROXYGRAPHICS
 70
     1
  9
$MEASUREMENT
 70
     0
  0
ENDSEC
  0
SECTION
  2
CLASSES
  0
CLASS
  1
LWPOLYLINE
  2
AcDbPolyline
  3
AutoCAD 2000
 90
        0
280
     0
281
     1
  0
CLASS
  1
ACDBDICTIONARYWDFLT
  2
AcDbDictionaryWithDefault
  3
AutoCAD 2000
 90
        0
280
     0
281
     0
  0
CLASS
  1
ACDBPLACEHOLDER
  2
AcDbPlaceHolder
  3
AutoCAD 2000
 90
        0
280
     0
281
     0
  0
CLASS
  1
LAYOUT
  2
AcDbLayout
  3
AutoCAD 2000
 90
        0
280
     0
281
     0
  0
CLASS
  1
DICTIONARYVAR
  2
AcDbDictionaryVar
  3
AutoCAD 2000
 90
        0
280
     0
281
     0
  0
CLASS
  1
LONG_TRANSACTION
  2
AcDbLongTransaction
  3
AutoCAD 2000
 90
        0
280
     0
281
     0
  0
CLASS
  1
LWPOLYLINE
  2
AcDbPolyline
  3
AutoCAD 2000
 90
        0
280
     0
281
     1
  0
CLASS
  1
HATCH
  2
AcDbHatch
  3
AutoCAD 2000
 90
        0
280
     0
281
     1
  0
CLASS
  1
XRECORD
  2
AcDbXrecord
  3
AutoCAD 2000
 90
        0
280
     0
281
     0
  0
ENDSEC
  0
SECTION
  2
TABLES
  0
TABLE
  2
VPORT
  5
7DE1B343D9DF16F
330
0
100
AcDbSymbolTable
 70
     2
  0
VPORT
  5
7DE1B343D9DF1BE
330
7DE1B343D9DF16F
100
AcDbSymbolTableRecord
100
AcDbViewportTableRecord
  2
*ACTIVE
 70
     0
 10
0.0
 20
0.0
 11
1.0
 21
1.0
 12
5.256906211043656
 22
0.6543583806747718
 13
0.0
 23
0.0
 14
0.015625
 24
0.015625
 15
0.0
 25
0.0
 16
0.0
 26
0.0
 36
1.0
 17
0.0
 27
0.0
 37
0.0
 40
2.628286710554213
 41
4.320930232558139
 42
50.0
 43
0.0
 44
0.0
 50
0.0
 51
0.0
 71
     0
 72
  2000
 73
     1
 74
     0
 75
     0
 76
     0
 77
     0
 78
     0
  0
ENDTAB
  0
TABLE
  2
LTYPE
  5
7DE1B343D9DF16C
330
0
100
AcDbSymbolTable
 70
     1
  0
LTYPE
  5
7DE1B343D9DF179
330
7DE1B343D9DF16C
100
AcDbSymbolTableRecord
100
AcDbLinetypeTableRecord
  2
BYBLOCK
 70
     0
  3

 72
    65
 73
     0
 40
0.0
  0
LTYPE
  5
7DE1B343D9DF17A
330
7DE1B343D9DF16C
100
AcDbSymbolTableRecord
100
AcDbLinetypeTableRecord
  2
BYLAYER
 70
     0
  3

 72
    65
 73
     0
 40
0.0
  0
LTYPE
  5
7DE1B343D9DF17B
330
7DE1B343D9DF16C
100
AcDbSymbolTableRecord
100
AcDbLinetypeTableRecord
  2
CONTINUOUS
 70
     0
  3
Solid line
 72
    65
 73
     0
 40
0.0
  0
ENDTAB
  0
TABLE
  2
LAYER
  5
7DE1B343D9DF169
330
0
100
AcDbSymbolTable
 70
     3
  0
LAYER
  5
7DE1B343D9DF176
330
7DE1B343D9DF169
100
AcDbSymbolTableRecord
100
AcDbLayerTableRecord
  2
0
 70
     0
 62
     7
  6
CONTINUOUS
  0
LAYER
  5
7DE1B343D9DF186
330
7DE1B343D9DF169
100
AcDbSymbolTableRecord
100
AcDbLayerTableRecord
  2
TEXT
 70
     0
 62
     3
  6
CONTINUOUS
  0
LAYER
  5
7DE1B343D9DF196
330
7DE1B343D9DF169
100
AcDbSymbolTableRecord
100
AcDbLayerTableRecord
  2
ASHADE
 70
     4
 62
     7
  6
CONTINUOUS
  0
ENDTAB
  0
TABLE
  2
STYLE
  5
7DE1B343D9DF16A
330
0
100
AcDbSymbolTable
 70
     4
  0
STYLE
  5
7DE1B343D9DF177
330
7DE1B343D9DF16A
100
AcDbSymbolTableRecord
100
AcDbTextStyleTableRecord
  2
STANDARD
 70
     0
 40
0.0
 41
1.0
 50
0.0
 71
     0
 42
0.3125
  3
txt
  4

  0
STYLE
  5
7DE1B343D9DF183
330
7DE1B343D9DF16A
100
AcDbSymbolTableRecord
100
AcDbTextStyleTableRecord
  2
ITALICC
 70
     0
 40
0.0
 41
1.0
 50
0.0
 71
     0
 42
0.125
  3
italicc
  4

  0
STYLE
  5
7DE1B343D9DF193
330
7DE1B343D9DF16A
100
AcDbSymbolTableRecord
100
AcDbTextStyleTableRecord
  2
ASHADE
 70
     0
 40
0.2
 41
1.0
 50
0.0
 71
     0
 42
0.3125
  3
simplex
  4

  0
STYLE
  5
7DE1B343D9DF1AE
330
7DE1B343D9DF16A
100
AcDbSymbolTableRecord
100
AcDbTextStyleTableRecord
  2
ROMANS
 70
     0
 40
0.0
 41
1.0
 50
0.0
 71
     0
 42
0.125
  3
romans.shx
  4

  0
ENDTAB
  0
TABLE
  2
VIEW
  5
7DE1B343D9DF16D
330
0
100
AcDbSymbolTable
 70
     0
  0
ENDTAB
  0
TABLE
  2
UCS
  5
7DE1B343D9DF16E
330
0
100
AcDbSymbolTable
 70
     0
  0
ENDTAB
  0
TABLE
  2
APPID
  5
7DE1B343D9DF170
330
0
100
AcDbSymbolTable
 70
     6
  0
APPID
  5
7DE1B343D9DF178
330
7DE1B343D9DF170
100
AcDbSymbolTableRecord
100
AcDbRegAppTableRecord
  2
ACAD
 70
     0
  0
APPID
  5
7DE1B343D9DF194
330
7DE1B343D9DF170
100
AcDbSymbolTableRecord
100
AcDbRegAppTableRecord
  2
AVE_RENDER
 70
     0
  0
APPID
  5
7DE1B343D9DF195
330
7DE1B343D9DF170
100
AcDbSymbolTableRecord
100
AcDbRegAppTableRecord
  2
AVE_ENTITY_MATERIAL
 70
     0
  0
APPID
  5
7DE1B343D9DF1A2
330
7DE1B343D9DF170
100
AcDbSymbolTableRecord
100
AcDbRegAppTableRecord
  2
AVE_FINISH
 70
     0
  0
APPID
  5
7DE1B343D9DF1A3
330
7DE1B343D9DF170
100
AcDbSymbolTableRecord
100
AcDbRegAppTableRecord
  2
AVE_MATERIAL
 70
     0
  0
APPID
  5
7DE1B343D9DF1A4
330
7DE1B343D9DF170
100
AcDbSymbolTableRecord
100
AcDbRegAppTableRecord
  2
AVE_GLOBAL
 70
     0
  0
ENDTAB
  0
TABLE
  2
DIMSTYLE
  5
7DE1B343D9DF171
330
0
100
AcDbSymbolTable
 70
     1
  0
DIMSTYLE
105
7DE1B343D9DF18B
330
7DE1B343D9DF171
100
AcDbSymbolTableRecord
100
AcDbDimStyleTableRecord
  2
STANDARD
 70
     0
  3

  4

  5

  6

  7

 40
1.0
 41
0.125
 42
0.125
 43
0.375
 44
0.125
 45
0.0
 46
0.0
 47
0.0
 48
0.0
140
0.125
141
-0.125
142
0.0
143
25.4
144
1.0
145
0.0
146
1.0
147
0.09
 71
     0
 72
     0
 73
     1
 74
     1
 75
     0
 76
     0
 77
     0
 78
     4
170
     0
171
     2
172
     0
173
     0
174
     1
175
     0
176
     0
177
     0
178
     0
270
     2
271
     3
272
     3
273
     2
274
     2
340
7DE1B343D9DF1AE
275
     0
280
     0
281
     0
282
     0
283
     1
284
     4
285
     0
286
     0
287
     3
288
     0
  0
ENDTAB
  0
TABLE
  2
BLOCK_RECORD
  5
7DE1B343D9DF168
330
0
100
AcDbSymbolTable
 70
     2
  0
BLOCK_RECORD
  5
7DE1B343D9DF17F
102
{ACAD_XDICTIONARY
360
7DE1B343D9DF1E1
102
}
330
7DE1B343D9DF168
100
AcDbSymbolTableRecord
100
AcDbBlockTableRecord
  2
*MODEL_SPACE
  0
BLOCK_RECORD
  5
7DE1B343D9DF17C
102
{ACAD_XDICTIONARY
360
7DE1B343D9DF1DF
102
}
330
7DE1B343D9DF168
100
AcDbSymbolTableRecord
100
AcDbBlockTableRecord
  2
*PAPER_SPACE
  0
BLOCK_RECORD
  5
7DE1B343D9DF197
330
7DE1B343D9DF168
100
AcDbSymbolTableRecord
100
AcDbBlockTableRecord
  2
AVE_RENDER
  0
BLOCK_RECORD
  5
7DE1B343D9DF1A5
330
7DE1B343D9DF168
100
AcDbSymbolTableRecord
100
AcDbBlockTableRecord
  2
AVE_GLOBAL
  0
ENDTAB
  0
ENDSEC
  0
SECTION
  2
BLOCKS
  0
BLOCK
  5
7DE1B343D9DF189
330
7DE1B343D9DF17F
100
AcDbEntity
  8
0
100
AcDbBlockBegin
  2
*MODEL_SPACE
 70
     0
 10
0.0
 20
0.0
 30
0.0
  3
*MODEL_SPACE
  1

  0
ENDBLK
  5
7DE1B343D9DF18A
330
7DE1B343D9DF17F
100
AcDbEntity
  8
0
100
AcDbBlockEnd
  0
BLOCK
  5
7DE1B343D9DF187
330
7DE1B343D9DF17C
100
AcDbEntity
 67
     1
  8
0
100
AcDbBlockBegin
  2
*PAPER_SPACE
 70
     0
 10
0.0
 20
0.0
 30
0.0
  3
*PAPER_SPACE
  1

  0
ENDBLK
  5
7DE1B343D9DF188
330
7DE1B343D9DF17C
100
AcDbEntity
 67
     1
  8
0
100
AcDbBlockEnd
  0
BLOCK
  5
7DE1B343D9DF198
330
7DE1B343D9DF197
100
AcDbEntity
  8
0
100
AcDbBlockBegin
  2
AVE_RENDER
 70
     0
 10
0.0
 20
0.0
 30
0.0
  3
AVE_RENDER
  1
AVE_RENDER
  0
ENDBLK
  5
7DE1B343D9DF199
330
7DE1B343D9DF197
100
AcDbEntity
  8
0
100
AcDbBlockEnd
  0
BLOCK
  5
7DE1B343D9DF1A6
330
7DE1B343D9DF1A5
100
AcDbEntity
  8
0
100
AcDbBlockBegin
  2
AVE_GLOBAL
 70
     0
 10
0.0
 20
0.0
 30
0.0
  3
AVE_GLOBAL
  1
AVE_GLOBAL
  0
ENDBLK
  5
7DE1B343D9DF1A7
330
7DE1B343D9DF1A5
100
AcDbEntity
  8
0
100
AcDbBlockEnd
  0
ENDSEC
  0
SECTION
  2
ENTITIES
  0
LWPOLYLINE
  5
7DE1B343D9DDBE1
330
7DE1B343D9DF17F
100
AcDbEntity
  8
0
100
AcDbPolyline
 90
       20
 70
     1
 43
0.0
 10
-0.1004598320762566
 20
0.7591553474859661
 10
0.3295401679237431
 20
0.7591553474859661
 10
0.3024768740554786
 20
0.7122803474859652
 42
-0.2679491924311219
 10
0.2754135801872151
 20
0.6966553474859652
 10
-0.1079598320762569
 20
0.6966553474859661
 10
-0.1079598320762569
 20
0.6654053474859661
 42
-1.0
 10
-0.1704598320762569
 20
0.6654053474859661
 10
-0.1704598320762569
 20
1.352905347485966
 42
-0.4142135623730951
 10
-0.1392098320762569
 20
1.384155347485966
 10
3.798290167923743
 20
1.384155347485966
 42
-0.4142135623730951
 10
3.829540167923743
 20
1.352905347485966
 10
3.829540167923743
 20
0.6654053474859661
 42
-1.0
 10
3.767040167923743
 20
0.6654053474859661
 10
3.767040167923743
 20
0.6966553474859661
 10
3.383666755660271
 20
0.6966553474859652
 42
-0.2679491924311219
 10
3.356603461792007
 20
0.7122803474859652
 10
3.329540167923743
 20
0.7591553474859661
 10
3.759540167923742
 20
0.7591553474859661
 10
3.759540167923742
 20
1.314155347485965
 10
-0.1004598320762571
 20
1.314155347485965
  0
TEXT
  5
7DE1B343D9DF02A
330
7DE1B343D9DF17F
100
AcDbEntity
  8
TEXT
100
AcDbText
 10
1.073587786971362
 20
0.3757643064574152
 30
0.0
 40
0.125
  1
PART #110227
  7
ITALICC
 72
     1
 11
1.829540167923742
 21
0.3757643064574152
 31
0.0
100
AcDbText
  0
TEXT
  5
7DE1B343D9DF02B
330
7DE1B343D9DF17F
100
AcDbEntity
  8
TEXT
100
AcDbText
 10
2.242845326174063
 20
-0.0711583362149599
 30
0.0
 40
0.0522247191011236
  1
Phone  1-800-328-2495
 41
1.272321428571429
 72
     5
 11
3.571777910443727
 21
-0.0711583362149599
 31
0.0
100
AcDbText
  0
TEXT
  5
7DE1B343D9DF02C
330
7DE1B343D9DF17F
100
AcDbEntity
  8
TEXT
100
AcDbText
 10
2.242845326174063
 20
0.2086169446839166
 30
0.0
 40
0.0522247191011236
  1
Stylmark  Incorporated
 41
1.221428571428573
 72
     5
 11
3.571777910443727
 21
0.2086169446839166
 31
0.0
100
AcDbText
  0
TEXT
  5
7DE1B343D9DF02D
330
7DE1B343D9DF17F
100
AcDbEntity
  8
TEXT
100
AcDbText
 10
2.242845326174063
 20
0.1153585177176244
 30
0.0
 40
0.0522247191011236
  1
6536 Main St. N.E. * P.O. Box 32008
 41
0.8388932496075366
 72
     5
 11
3.571777910443727
 21
0.1153585177176244
 31
0.0
100
AcDbText
  0
TEXT
  5
7DE1B343D9DF02E
330
7DE1B343D9DF17F
100
AcDbEntity
  8
TEXT
100
AcDbText
 10
2.242845326174063
 20
0.0221000907513322
 30
0.0
 40
0.0522247191011236
  1
Minneapolis, MN 55432-0008
 41
1.11444212721585
 72
     5
 11
3.571777910443727
 21
0.0221000907513322
 31
0.0
100
AcDbText
  0
LWPOLYLINE
  5
7DE1B343D9DF02F
330
7DE1B343D9DF17F
100
AcDbEntity
  8
TEXT
100
AcDbPolyline
 90
        3
 70
     0
 43
0.0006660908203125
 10
0.0868916341067559
 20
0.0424864264224749
 10
0.0868916341067559
 20
-0.0707490130306527
 10
0.2001270735598781
 20
-0.0707490130306527
  0
LWPOLYLINE
  5
7DE1B343D9DF034
330
7DE1B343D9DF17F
100
AcDbEntity
  8
TEXT
100
AcDbPolyline
 90
        3
 70
     0
 43
0.0006660908203125
 10
0.1135352669192533
 20
0.0424864264224749
 10
0.1135352669192533
 20
-0.0441053802181517
 10
0.2001270735598781
 20
-0.0441053802181517
  0
LWPOLYLINE
  5
7DE1B343D9DF039
330
7DE1B343D9DF17F
100
AcDbEntity
  8
TEXT
100
AcDbPolyline
 90
        2
 70
     0
 43
0.0001332181640625
 10
0.1601616243411301
 20
0.0524777887271601
 10
0.0868916341067559
 20
0.0424864264224749
  0
LWPOLYLINE
  5
7DE1B343D9DF03D
330
7DE1B343D9DF17F
100
AcDbEntity
  8
TEXT
100
AcDbPolyline
 90
        2
 70
     0
 43
0.0001332181640625
 10
0.1135352669192533
 20
0.0424864264224749
 10
0.1734834407473806
 20
0.0524777887271601
  0
LWPOLYLINE
  5
7DE1B343D9DF041
330
7DE1B343D9DF17F
100
AcDbEntity
  8
TEXT
100
AcDbPolyline
 90
        2
 70
     0
 43
0.0001332181640625
 10
0.1135352669192533
 20
-0.0441053802181517
 10
0.1734834407473806
 20
0.0158427936099739
  0
LWPOLYLINE
  5
7DE1B343D9DF045
330
7DE1B343D9DF17F
100
AcDbEntity
  8
TEXT
100
AcDbPolyline
 90
        3
 70
     0
 43
0.0006660908203125
 10
0.2001270735598781
 20
0.1956873150943506
 10
0.0868916341067559
 20
0.1956873150943506
 10
0.0868916341067559
 20
0.0824518756412229
  0
LWPOLYLINE
  5
7DE1B343D9DF04A
330
7DE1B343D9DF17F
100
AcDbEntity
  8
TEXT
100
AcDbPolyline
 90
        3
 70
     0
 43
0.0006660908203125
 10
0.2001270735598781
 20
0.1690436822818495
 10
0.1135352669192533
 20
0.1690436822818495
 10
0.1135352669192533
 20
0.0824518756412229
  0
LWPOLYLINE
  5
7DE1B343D9DF04F
330
7DE1B343D9DF17F
100
AcDbEntity
  8
TEXT
100
AcDbPolyline
 90
        2
 70
     0
 43
0.0001332181640625
 10
0.1135352669192533
 20
0.1690436822818495
 10
0.1734834407473789
 20
0.1090955084537239
  0
LWPOLYLINE
  5
7DE1B343D9DF053
330
7DE1B343D9DF17F
100
AcDbEntity
  8
TEXT
100
AcDbPolyline
 90
        2
 70
     0
 43
0.0001332181640625
 10
0.1135352669192533
 20
0.0824518756412229
 10
0.1734834407473789
 20
0.0724605133365342
  0
LWPOLYLINE
  5
7DE1B343D9DF057
330
7DE1B343D9DF17F
100
AcDbEntity
  8
TEXT
100
AcDbPolyline
 90
        2
 70
     0
 43
0.0001332181640625
 10
0.0868916341067559
 20
0.0824518756412229
 10
0.1601616243411301
 20
0.0724605133365342
  0
LWPOLYLINE
  5
7DE1B343D9DF05B
330
7DE1B343D9DF17F
100
AcDbEntity
  8
TEXT
100
AcDbPolyline
 90
        2
 70
     0
 43
0.0006660908203125
 10
0.1135352669192533
 20
0.0424864264224749
 10
0.0868916341067559
 20
0.0424864264224749
  0
LWPOLYLINE
  5
7DE1B343D9DF05F
330
7DE1B343D9DF17F
100
AcDbEntity
  8
TEXT
100
AcDbPolyline
 90
        2
 70
     0
 43
0.0006660908203125
 10
0.1135352669192533
 20
0.0824518756412229
 10
0.0868916341067559
 20
0.0824518756412229
  0
LINE
  5
7DE1B343D9DF063
330
7DE1B343D9DF17F
100
AcDbEntity
  8
TEXT
100
AcDbLine
 10
1.602082063233253
 20
0.1314106204375816
 30
0.0
 11
1.494875789845963
 21
0.1314106204375816
 31
0.0
  0
LINE
  5
7DE1B343D9DF064
330
7DE1B343D9DF17F
100
AcDbEntity
  8
TEXT
100
AcDbLine
 10
1.631112961577731
 20
0.195687315094347
 30
0.0
 11
1.496281052360672
 21
0.195687315094347
 31
0.0
  0
ARC
  5
7DE1B343D9DF065
330
7DE1B343D9DF17F
100
AcDbEntity
  8
TEXT
100
AcDbCircle
 10
1.555595148753989
 20
0.0264500658313307
 30
0.0
 40
0.0676855811441166
100
AcDbArc
 50
90.0
 51
153.7768192527749
  0
LWPOLYLINE
  5
7DE1B343D9DF066
330
7DE1B343D9DF17F
100
AcDbEntity
  8
TEXT
100
AcDbPolyline
 90
        2
 70
     0
 43
0.0
 10
1.493843294391153
 20
-0.0272947729437259
 42
0.2901071551932823
 10
1.536919227258789
 20
-0.070785717894164
 42
5.328517124445801
  0
ARC
  5
7DE1B343D9DF06A
330
7DE1B343D9DF17F
100
AcDbEntity
  8
TEXT
100
AcDbCircle
 10
0.8504637710825038
 20
-0.0109933265561142
 30
0.0
 40
0.0601160179737537
100
AcDbArc
 50
180.0000000000003
 51
264.0521544866073
  0
LINE
  5
7DE1B343D9DF06B
330
7DE1B343D9DF17F
100
AcDbEntity
  8
TEXT
100
AcDbLine
 10
0.8539791267080516
 20
0.2300752326884852
 30
0.0
 11
0.7939365218640447
 21
0.2300752326884852
 31
0.0
  0
ARC
  5
7DE1B343D9DF06C
330
7DE1B343D9DF17F
100
AcDbEntity
  8
TEXT
100
AcDbCircle
 10
0.6182047689655333
 20
0.1135998556478452
 30
0.0
 40
0.0820874594465043
100
AcDbArc
 50
90.0
 51
270.0
  0
LWPOLYLINE
  5
7DE1B343D9DF06D
330
7DE1B343D9DF17F
100
AcDbEntity
  8
TEXT
100
AcDbPolyline
 90
        2
 70
     0
 43
0.0001332181640625
 10
0.2101184358645687
 20
0.1224173248599709
 10
0.2001270735598781
 20
0.1956873150943506
  0
LWPOLYLINE
  5
7DE1B343D9DF071
330
7DE1B343D9DF17F
100
AcDbEntity
  8
TEXT
100
AcDbPolyline
 90
        2
 70
     0
 43
0.0001332181640625
 10
0.2001270735598781
 20
0.1690436822818495
 10
0.2101184358645687
 20
0.1090955084537239
  0
LWPOLYLINE
  5
7DE1B343D9DF075
330
7DE1B343D9DF17F
100
AcDbEntity
  8
TEXT
100
AcDbPolyline
 90
        3
 70
     0
 43
0.0006660908203125
 10
0.3533279622317555
 20
0.0824518756412229
 10
0.3533279622317555
 20
0.1956873150943506
 10
0.2400925227786297
 20
0.1956873150943506
  0
LWPOLYLINE
  5
7DE1B343D9DF07A
330
7DE1B343D9DF17F
100
AcDbEntity
  8
TEXT
100
AcDbPolyline
 90
        3
 70
     0
 43
0.0006660908203125
 10
0.3266843294192545
 20
0.0824518756412229
 10
0.3266843294192545
 20
0.1690436822818495
 10
0.2400925227786297
 20
0.1690436822818495
  0
LWPOLYLINE
  5
7DE1B343D9DF07F
330
7DE1B343D9DF17F
100
AcDbEntity
  8
TEXT
100
AcDbPolyline
 90
        2
 70
     0
 43
0.0001332181640625
 10
0.3266843294192545
 20
0.1690436822818495
 10
0.2667361555911307
 20
0.1090955084537239
  0
LWPOLYLINE
  5
7DE1B343D9DF083
330
7DE1B343D9DF17F
100
AcDbEntity
  8
TEXT
100
AcDbPolyline
 90
        2
 70
     0
 43
0.0001332181640625
 10
0.2400925227786297
 20
0.1690436822818495
 10
0.2301011604739409
 20
0.1090955084537239
  0
LWPOLYLINE
  5
7DE1B343D9DF087
330
7DE1B343D9DF17F
100
AcDbEntity
  8
TEXT
100
AcDbPolyline
 90
        2
 70
     0
 43
0.0001332181640625
 10
0.2400925227786297
 20
0.1956873150943506
 10
0.2301011604739409
 20
0.1224173248599709
  0
LWPOLYLINE
  5
7DE1B343D9DF08B
330
7DE1B343D9DF17F
100
AcDbEntity
  8
TEXT
100
AcDbPolyline
 90
        2
 70
     0
 43
0.0001332181640625
 10
0.2800579719973795
 20
0.0724605133365342
 10
0.3533279622317555
 20
0.0824518756412229
  0
LWPOLYLINE
  5
7DE1B343D9DF08F
330
7DE1B343D9DF17F
100
AcDbEntity
  8
TEXT
100
AcDbPolyline
 90
        2
 70
     0
 43
0.0001332181640625
 10
0.3266843294192545
 20
0.0824518756412229
 10
0.2667361555911307
 20
0.0724605133365342
  0
LWPOLYLINE
  5
7DE1B343D9DF093
330
7DE1B343D9DF17F
100
AcDbEntity
  8
TEXT
100
AcDbPolyline
 90
        2
 70
     0
 43
0.0001332181640625
 10
0.3533279622317555
 20
0.0424864264224749
 10
0.2800579719973795
 20
0.0524777887271601
  0
LWPOLYLINE
  5
7DE1B343D9DF097
330
7DE1B343D9DF17F
100
AcDbEntity
  8
TEXT
100
AcDbPolyline
 90
        2
 70
     0
 43
0.0001332181640625
 10
0.3266843294192545
 20
0.0424864264224749
 10
0.2667361555911307
 20
0.0524777887271601
  0
LWPOLYLINE
  5
7DE1B343D9DF09B
330
7DE1B343D9DF17F
100
AcDbEntity
  8
TEXT
100
AcDbPolyline
 90
        2
 70
     0
 43
0.0001332181640625
 10
0.3266843294192545
 20
-0.0441053802181517
 10
0.2667361555911307
 20
0.0158427936099739
  0
LWPOLYLINE
  5
7DE1B343D9DF09F
330
7DE1B343D9DF17F
100
AcDbEntity
  8
TEXT
100
AcDbPolyline
 90
        3
 70
     0
 43
0.0006660908203125
 10
0.2400925227786297
 20
-0.0441053802181517
 10
0.3266843294192545
 20
-0.0441053802181517
 10
0.3266843294192545
 20
0.0424864264224749
  0
LWPOLYLINE
  5
7DE1B343D9DF0A4
330
7DE1B343D9DF17F
100
AcDbEntity
  8
TEXT
100
AcDbPolyline
 90
        3
 70
     0
 43
0.0006660908203125
 10
0.2400925227786297
 20
-0.0707490130306527
 10
0.3533279622317555
 20
-0.0707490130306527
 10
0.3533279622317555
 20
0.0424864264224749
  0
LWPOLYLINE
  5
7DE1B343D9DF0A9
330
7DE1B343D9DF17F
100
AcDbEntity
  8
TEXT
100
AcDbPolyline
 90
        5
 70
     0
 43
0.0001332181640625
 10
0.2101184358645687
 20
0.0025209772037234
 10
0.2101184358645687
 20
0.0158427936099739
 10
0.1734834407473806
 20
0.0158427936099739
 10
0.1734834407473806
 20
0.0524777887271601
 10
0.1601616243411301
 20
0.0524777887271601
  0
LWPOLYLINE
  5
7DE1B343D9DF0B0
330
7DE1B343D9DF17F
100
AcDbEntity
  8
TEXT
100
AcDbPolyline
 90
        2
 70
     0
 43
0.0006660908203125
 10
0.2001270735598781
 20
-0.0441053802181517
 10
0.2001270735598781
 20
-0.0707490130306527
  0
LWPOLYLINE
  5
7DE1B343D9DF0B4
330
7DE1B343D9DF17F
100
AcDbEntity
  8
TEXT
100
AcDbPolyline
 90
        2
 70
     0
 43
0.0001332181640625
 10
0.2001270735598781
 20
-0.0441053802181517
 10
0.2101184358645687
 20
0.0158427936099739
  0
LWPOLYLINE
  5
7DE1B343D9DF0B8
330
7DE1B343D9DF17F
100
AcDbEntity
  8
TEXT
100
AcDbPolyline
 90
        2
 70
     0
 43
0.0001332181640625
 10
0.2001270735598781
 20
-0.0707490130306527
 10
0.2101184358645687
 20
0.0025209772037234
  0
LWPOLYLINE
  5
7DE1B343D9DF0BC
330
7DE1B343D9DF17F
100
AcDbEntity
  8
TEXT
100
AcDbPolyline
 90
        5
 70
     0
 43
0.0001332181640625
 10
0.1601616243411301
 20
0.0724605133365342
 10
0.1734834407473789
 20
0.0724605133365342
 10
0.1734834407473789
 20
0.1090955084537239
 10
0.2101184358645687
 20
0.1090955084537239
 10
0.2101184358645687
 20
0.1224173248599709
  0
LWPOLYLINE
  5
7DE1B343D9DF0C3
330
7DE1B343D9DF17F
100
AcDbEntity
  8
TEXT
100
AcDbPolyline
 90
        5
 70
     0
 43
0.0001332181640625
 10
0.2301011604739409
 20
0.1224173248599709
 10
0.2301011604739409
 20
0.1090955084537239
 10
0.2667361555911307
 20
0.1090955084537239
 10
0.2667361555911307
 20
0.0724605133365342
 10
0.2800579719973795
 20
0.0724605133365342
  0
LWPOLYLINE
  5
7DE1B343D9DF0CA
330
7DE1B343D9DF17F
100
AcDbEntity
  8
TEXT
100
AcDbPolyline
 90
        2
 70
     0
 43
0.0001332181640625
 10
0.2400925227786297
 20
-0.0441053802181517
 10
0.2301011604739409
 20
0.0158427936099739
  0
LWPOLYLINE
  5
7DE1B343D9DF0CE
330
7DE1B343D9DF17F
100
AcDbEntity
  8
TEXT
100
AcDbPolyline
 90
        2
 70
     0
 43
0.0001332181640625
 10
0.2301011604739409
 20
0.0025209772037234
 10
0.2400925227786297
 20
-0.0707490130306527
  0
LWPOLYLINE
  5
7DE1B343D9DF0D2
330
7DE1B343D9DF17F
100
AcDbEntity
  8
TEXT
100
AcDbPolyline
 90
        2
 70
     0
 43
0.0006660908203125
 10
0.2400925227786297
 20
-0.0441053802181517
 10
0.2400925227786297
 20
-0.0707490130306527
  0
LWPOLYLINE
  5
7DE1B343D9DF0D6
330
7DE1B343D9DF17F
100
AcDbEntity
  8
TEXT
100
AcDbPolyline
 90
        5
 70
     0
 43
0.0001332181640625
 10
0.2800579719973795
 20
0.0524777887271601
 10
0.2667361555911307
 20
0.0524777887271601
 10
0.2667361555911307
 20
0.0158427936099739
 10
0.2301011604739409
 20
0.0158427936099739
 10
0.2301011604739409
 20
0.0025209772037234
  0
LWPOLYLINE
  5
7DE1B343D9DF0DD
330
7DE1B343D9DF17F
100
AcDbEntity
  8
TEXT
100
AcDbPolyline
 90
        2
 70
     0
 43
0.0006660908203125
 10
0.3266843294192545
 20
0.0824518756412229
 10
0.3533279622317555
 20
0.0824518756412229
  0
LWPOLYLINE
  5
7DE1B343D9DF0E1
330
7DE1B343D9DF17F
100
AcDbEntity
  8
TEXT
100
AcDbPolyline
 90
        2
 70
     0
 43
0.0006660908203125
 10
0.3266843294192545
 20
0.0424864264224749
 10
0.3533279622317555
 20
0.0424864264224749
  0
LINE
  5
7DE1B343D9DF0E5
330
7DE1B343D9DF17F
100
AcDbEntity
  8
TEXT
100
AcDbLine
 10
0.6234420990797805
 20
0.1314106204375816
 30
0.0
 11
0.7903477531087518
 21
0.1314106204375816
 31
0.0
  0
LINE
  5
7DE1B343D9DF0E6
330
7DE1B343D9DF17F
100
AcDbEntity
  8
TEXT
100
AcDbLine
 10
0.6890422353240816
 20
0.0956058988269537
 30
0.0
 11
0.6234420990797805
 21
0.0956058988269537
 31
0.0
  0
LINE
  5
7DE1B343D9DF0E7
330
7DE1B343D9DF17F
100
AcDbEntity
  8
TEXT
100
AcDbLine
 10
0.5361173095190289
 20
-0.070785717894164
 30
0.0
 11
0.6890422353240816
 21
-0.070785717894164
 31
0.0
  0
LINE
  5
7DE1B343D9DF0E8
330
7DE1B343D9DF17F
100
AcDbEntity
  8
TEXT
100
AcDbLine
 10
0.6939826092303612
 20
-0.0024287115607247
 30
0.0
 11
0.5361173095190271
 21
-0.0024287115607247
 31
0.0
  0
LINE
  5
7DE1B343D9DF0E9
330
7DE1B343D9DF17F
100
AcDbEntity
  8
TEXT
100
AcDbLine
 10
0.6182047689655324
 20
0.03151239620134
 30
0.0
 11
0.6939826092303612
 21
0.03151239620134
 31
0.0
  0
ARC
  5
7DE1B343D9DF0EA
330
7DE1B343D9DF17F
100
AcDbEntity
  8
TEXT
100
AcDbCircle
 10
0.6234420990797814
 20
0.1135082596322694
 30
0.0
 40
0.017902360805315
100
AcDbArc
 50
90.0
 51
270.0
  0
LINE
  5
7DE1B343D9DF0EB
330
7DE1B343D9DF17F
100
AcDbEntity
  8
TEXT
100
AcDbLine
 10
0.5361173095190271
 20
-0.0024287115607247
 30
0.0
 11
0.5361173095190289
 21
-0.070785717894164
 31
0.0
  0
LINE
  5
7DE1B343D9DF0EC
330
7DE1B343D9DF17F
100
AcDbEntity
  8
TEXT
100
AcDbLine
 10
0.7903477531087518
 20
0.1314106204375816
 30
0.0
 11
0.7903477531087518
 21
-0.0109933265561142
 31
0.0
  0
ARC
  5
7DE1B343D9DF0ED
330
7DE1B343D9DF17F
100
AcDbEntity
  8
TEXT
100
AcDbCircle
 10
0.6890422353240825
 20
0.0124100904663931
 30
0.0
 40
0.0831958083605586
100
AcDbArc
 50
270.0
 51
90.0
  0
ARC
  5
7DE1B343D9DF0EE
330
7DE1B343D9DF17F
100
AcDbEntity
  8
TEXT
100
AcDbCircle
 10
0.6939826092303621
 20
0.0145418423203094
 30
0.0
 40
0.0169705538810321
100
AcDbArc
 50
270.0
 51
90.0
  0
LWPOLYLINE
  5
7DE1B343D9DF0EF
330
7DE1B343D9DF17F
100
AcDbEntity
  8
TEXT
100
AcDbPolyline
 90
        2
 70
     0
 43
0.0006660908203125
 10
0.2001270735598781
 20
0.1690436822818495
 10
0.2001270735598781
 20
0.1956873150943506
  0
LWPOLYLINE
  5
7DE1B343D9DF0F3
330
7DE1B343D9DF17F
100
AcDbEntity
  8
TEXT
100
AcDbPolyline
 90
        2
 70
     0
 43
0.0006660908203125
 10
0.2400925227786297
 20
0.1690436822818495
 10
0.2400925227786297
 20
0.1956873150943506
  0
LINE
  5
7DE1B343D9DF0F7
330
7DE1B343D9DF17F
100
AcDbEntity
  8
TEXT
100
AcDbLine
 10
0.7939365218640447
 20
0.195687315094347
 30
0.0
 11
0.6182047689655324
 21
0.195687315094347
 31
0.0
  0
LINE
  5
7DE1B343D9DF0F8
330
7DE1B343D9DF17F
100
AcDbEntity
  8
TEXT
100
AcDbLine
 10
0.7939365218640447
 20
0.2300752326884852
 30
0.0
 11
0.7939365218640447
 21
0.195687315094347
 31
0.0
  0
LINE
  5
7DE1B343D9DF0F9
330
7DE1B343D9DF17F
100
AcDbEntity
  8
TEXT
100
AcDbLine
 10
0.9844084138838969
 20
0.0948153189812264
 30
0.0
 11
0.925778092851959
 21
0.195687315094347
 31
0.0
  0
LINE
  5
7DE1B343D9DF0FA
330
7DE1B343D9DF17F
100
AcDbEntity
  8
TEXT
100
AcDbLine
 10
1.043156976689762
 20
0.195687315094347
 30
0.0
 11
0.9844084138838969
 21
0.0948153189812264
 31
0.0
  0
LINE
  5
7DE1B343D9DF0FB
330
7DE1B343D9DF17F
100
AcDbEntity
  8
TEXT
100
AcDbLine
 10
1.140087602049503
 20
0.0116021202088352
 30
0.0
 11
1.140087602049503
 21
0.2636987928331576
 31
0.0
  0
LINE
  5
7DE1B343D9DF0FC
330
7DE1B343D9DF17F
100
AcDbEntity
  8
TEXT
100
AcDbLine
 10
1.172399456187163
 20
0.195687315094347
 30
0.0
 11
1.172399456187163
 21
-0.0051768916380612
 31
0.0
  0
LINE
  5
7DE1B343D9DF0FD
330
7DE1B343D9DF17F
100
AcDbEntity
  8
TEXT
100
AcDbLine
 10
1.172399456187163
 20
-0.0051768916380612
 30
0.0
 11
1.155405819302562
 21
-0.0051768916380612
 31
0.0
  0
LINE
  5
7DE1B343D9DF0FE
330
7DE1B343D9DF17F
100
AcDbEntity
  8
TEXT
100
AcDbLine
 10
1.141227175545698
 20
-0.070785717894164
 30
0.0
 11
1.239230509245133
 21
-0.070785717894164
 31
0.0
  0
LINE
  5
7DE1B343D9DF0FF
330
7DE1B343D9DF17F
100
AcDbEntity
  8
TEXT
100
AcDbLine
 10
0.9748081768869425
 20
-0.0508272117891511
 30
0.0
 11
1.072107882980387
 21
0.1135229991461171
 31
0.0
  0
ARC
  5
7DE1B343D9DF100
330
7DE1B343D9DF17F
100
AcDbEntity
  8
TEXT
100
AcDbCircle
 10
0.9407646169747286
 20
-0.0312379956204683
 30
0.0
 40
0.0392772371940762
100
AcDbArc
 50
270.1604552698595
 51
330.0831797321295
  0
LINE
  5
7DE1B343D9DF101
330
7DE1B343D9DF17F
100
AcDbEntity
  8
TEXT
100
AcDbLine
 10
0.8442343605888574
 20
-0.070785717894164
 30
0.0
 11
0.9408746116638518
 21
-0.0705150787958817
 31
0.0
  0
LWPOLYLINE
  5
7DE1B343D9DF102
330
7DE1B343D9DF17F
100
AcDbEntity
  8
TEXT
100
AcDbPolyline
 90
        6
 70
     1
 43
0.0
 10
0.886758164164007
 20
0.1314106204375816
 10
0.8564415699437988
 20
0.1314106204375816
 10
0.8564415699437988
 20
0.0082996223826872
 42
0.407328721240804
 10
0.8679852211052752
 20
-0.0035192922936989
 10
0.928606920150006
 20
-0.0035192922936989
 10
0.946072260557324
 20
0.0292929367497803
  0
LINE
  5
7DE1B343D9DF10A
330
7DE1B343D9DF17F
100
AcDbEntity
  8
TEXT
100
AcDbLine
 10
1.072107882980387
 20
0.1135229991461171
 30
0.0
 11
1.072107882980387
 21
-0.0192343756792393
 31
0.0
  0
ARC
  5
7DE1B343D9DF10B
330
7DE1B343D9DF17F
100
AcDbEntity
  8
TEXT
100
AcDbCircle
 10
1.15540581930256
 20
0.0102049146053642
 30
0.0
 40
0.0153818062434269
100
AcDbArc
 50
174.7883570302258
 51
270.0
  0
LWPOLYLINE
  5
7DE1B343D9DF10C
330
7DE1B343D9DF17F
100
AcDbEntity
  8
TEXT
100
AcDbPolyline
 90
        2
 70
     0
 43
0.0
 10
1.072107882980385
 20
-0.0192343756792357
 42
0.3318488747599744
 10
1.141227175545698
 20
-0.070785717894164
 42
-6.868794160588311
  0
LINE
  5
7DE1B343D9DF110
330
7DE1B343D9DF17F
100
AcDbEntity
  8
TEXT
100
AcDbLine
 10
1.296619578234394
 20
-0.070785717894164
 30
0.0
 11
1.363677625016234
 21
-0.070785717894164
 31
0.0
  0
LINE
  5
7DE1B343D9DF111
330
7DE1B343D9DF17F
100
AcDbEntity
  8
TEXT
100
AcDbLine
 10
1.296619578234394
 20
0.1238568312714716
 30
0.0
 11
1.296619578234394
 21
-0.070785717894164
 31
0.0
  0
LINE
  5
7DE1B343D9DF112
330
7DE1B343D9DF17F
100
AcDbEntity
  8
TEXT
100
AcDbLine
 10
1.239230509245133
 20
0.1314106204375816
 30
0.0
 11
1.28906578906828
 21
0.1314106204375816
 31
0.0
  0
LINE
  5
7DE1B343D9DF113
330
7DE1B343D9DF17F
100
AcDbEntity
  8
TEXT
100
AcDbLine
 10
1.239230509245133
 20
-0.070785717894164
 30
0.0
 11
1.239230509245133
 21
0.1314106204375816
 31
0.0
  0
LWPOLYLINE
  5
7DE1B343D9DF114
330
7DE1B343D9DF17F
100
AcDbEntity
  8
TEXT
100
AcDbPolyline
 90
        2
 70
     0
 43
0.0
 10
1.289065789068278
 20
0.1314106204375816
 42
-0.4142135623731017
 10
1.296619578234392
 20
0.1238568312714716
 42
-0.9999999999999998
  0
LINE
  5
7DE1B343D9DF118
330
7DE1B343D9DF17F
100
AcDbEntity
  8
TEXT
100
AcDbLine
 10
1.494875789845963
 20
0.1314106204375816
 30
0.0
 11
1.494875789845963
 21
0.056358214363375
 31
0.0
  0
LINE
  5
7DE1B343D9DF119
330
7DE1B343D9DF17F
100
AcDbEntity
  8
TEXT
100
AcDbLine
 10
1.363677625016234
 20
0.1314106204375816
 30
0.0
 11
1.417811221937184
 21
0.1314106204375816
 31
0.0
  0
LINE
  5
7DE1B343D9DF11A
330
7DE1B343D9DF17F
100
AcDbEntity
  8
TEXT
100
AcDbLine
 10
1.363677625016234
 20
-0.070785717894164
 30
0.0
 11
1.363677625016234
 21
0.1314106204375816
 31
0.0
  0
LWPOLYLINE
  5
7DE1B343D9DF11B
330
7DE1B343D9DF17F
100
AcDbEntity
  8
TEXT
100
AcDbPolyline
 90
        2
 70
     0
 43
0.0
 10
1.417811221937182
 20
0.1314106204375816
 42
-0.4142135623731017
 10
1.425365011103296
 20
0.1238568312714716
 42
-0.9999999999999998
  0
LWPOLYLINE
  5
7DE1B343D9DF11F
330
7DE1B343D9DF17F
100
AcDbEntity
  8
TEXT
100
AcDbPolyline
 90
        4
 70
     0
 43
0.0
 10
1.425365011103296
 20
0.1238568312714716
 10
1.425365011103296
 20
-0.070785717894164
 10
1.493843294391153
 20
-0.070785717894164
 10
1.493843294391153
 20
-0.0272947729437259
 42
-1.714843617202739
  0
LINE
  5
7DE1B343D9DF125
330
7DE1B343D9DF17F
100
AcDbEntity
  8
TEXT
100
AcDbLine
 10
0.8539791267080516
 20
0.195687315094347
 30
0.0
 11
0.8539791267080516
 21
0.2300752326884852
 31
0.0
  0
LINE
  5
7DE1B343D9DF126
330
7DE1B343D9DF17F
100
AcDbEntity
  8
TEXT
100
AcDbLine
 10
0.925778092851959
 20
0.195687315094347
 30
0.0
 11
0.8539791267080516
 21
0.195687315094347
 31
0.0
  0
LINE
  5
7DE1B343D9DF127
330
7DE1B343D9DF17F
100
AcDbEntity
  8
TEXT
100
AcDbLine
 10
1.073278889483138
 20
0.195687315094347
 30
0.0
 11
1.043156976689762
 21
0.195687315094347
 31
0.0
  0
LINE
  5
7DE1B343D9DF128
330
7DE1B343D9DF17F
100
AcDbEntity
  8
TEXT
100
AcDbLine
 10
1.073278889483138
 20
0.2636987928331576
 30
0.0
 11
1.073278889483138
 21
0.195687315094347
 31
0.0
  0
LINE
  5
7DE1B343D9DF129
330
7DE1B343D9DF17F
100
AcDbEntity
  8
TEXT
100
AcDbLine
 10
1.140087602049503
 20
0.2636987928331576
 30
0.0
 11
1.073278889483138
 21
0.2636987928331576
 31
0.0
  0
LWPOLYLINE
  5
7DE1B343D9DF12A
330
7DE1B343D9DF17F
100
AcDbEntity
  8
TEXT
100
AcDbPolyline
 90
        3
 70
     0
 43
0.0
 10
1.460499361647505
 20
0.1956873150943506
 10
1.342199202831461
 20
0.1956873150943506
 10
1.342199202831461
 20
0.1685198183334546
 42
-1.960274751411753
  0
LINE
  5
7DE1B343D9DF12F
330
7DE1B343D9DF17F
100
AcDbEntity
  8
TEXT
100
AcDbLine
 10
1.3064175121183
 20
0.195687315094347
 30
0.0
 11
1.172399456187163
 21
0.195687315094347
 31
0.0
  0
LWPOLYLINE
  5
7DE1B343D9DF130
330
7DE1B343D9DF17F
100
AcDbEntity
  8
TEXT
100
AcDbPolyline
 90
        2
 70
     0
 43
0.0
 10
1.3064175121183
 20
0.1956873150943506
 42
-0.3328679258950098
 10
1.342199202831461
 20
0.1685198183334546
 42
6.772930709997214
  0
LINE
  5
7DE1B343D9DF134
330
7DE1B343D9DF17F
100
AcDbEntity
  8
TEXT
100
AcDbLine
 10
1.496281052360672
 20
0.195687315094347
 30
0.0
 11
1.496281052360672
 21
0.1673647693247031
 31
0.0
  0
LWPOLYLINE
  5
7DE1B343D9DF135
330
7DE1B343D9DF17F
100
AcDbEntity
  8
TEXT
100
AcDbPolyline
 90
        2
 70
     0
 43
0.0
 10
1.460499361647505
 20
0.1956873150943506
 42
-0.3277054968067132
 10
1.49628105236067
 20
0.1673647693247067
 42
6.667889725900311
  0
LINE
  5
7DE1B343D9DF139
330
7DE1B343D9DF17F
100
AcDbEntity
  8
TEXT
100
AcDbLine
 10
1.710072900452772
 20
0.0904753365409197
 30
0.0
 11
1.666322129270871
 21
0.1727256125370649
 31
0.0
  0
LINE
  5
7DE1B343D9DF13A
330
7DE1B343D9DF17F
100
AcDbEntity
  8
TEXT
100
AcDbLine
 10
1.710072900452772
 20
0.195687315094347
 30
0.0
 11
1.710072900452772
 21
0.0904753365409197
 31
0.0
  0
LINE
  5
7DE1B343D9DF13B
330
7DE1B343D9DF17F
100
AcDbEntity
  8
TEXT
100
AcDbLine
 10
1.937756639391141
 20
0.1198219886828089
 30
0.0
 11
1.937756639391141
 21
0.2611515208619477
 31
0.0
  0
LINE
  5
7DE1B343D9DF13C
330
7DE1B343D9DF17F
100
AcDbEntity
  8
TEXT
100
AcDbLine
 10
1.984854797947126
 20
0.195687315094347
 30
0.0
 11
1.937756639391141
 21
0.1198219886828089
 31
0.0
  0
LINE
  5
7DE1B343D9DF13D
330
7DE1B343D9DF17F
100
AcDbEntity
  8
TEXT
100
AcDbLine
 10
1.995289514711049
 20
0.0857940721533734
 30
0.0
 11
2.059846630676754
 21
0.195687315094347
 31
0.0
  0
LINE
  5
7DE1B343D9DF13E
330
7DE1B343D9DF17F
100
AcDbEntity
  8
TEXT
100
AcDbLine
 10
1.873921648168368
 20
-0.070785717894164
 30
0.0
 11
1.938299832486989
 21
-0.070785717894164
 31
0.0
  0
LWPOLYLINE
  5
7DE1B343D9DF13F
330
7DE1B343D9DF17F
100
AcDbEntity
  8
TEXT
100
AcDbPolyline
 90
        2
 70
     0
 43
0.0
 10
1.71401257775781
 20
-0.0272947729437259
 42
-0.2901071551932486
 10
1.670936644890166
 20
-0.070785717894164
 42
-5.328517124445184
  0
ARC
  5
7DE1B343D9DF143
330
7DE1B343D9DF17F
100
AcDbEntity
  8
TEXT
100
AcDbCircle
 10
1.602082063233251
 20
0.1030512454375843
 30
0.0
 40
0.028359375
100
AcDbArc
 50
25.78218179591245
 51
90.0
  0
LINE
  5
7DE1B343D9DF144
330
7DE1B343D9DF17F
100
AcDbEntity
  8
TEXT
100
AcDbLine
 10
1.637883138537374
 20
0.0941356469754493
 30
0.0
 11
1.62761837812381
 21
0.1153861865481436
 31
0.0
  0
LINE
  5
7DE1B343D9DF145
330
7DE1B343D9DF17F
100
AcDbEntity
  8
TEXT
100
AcDbLine
 10
1.555595148753991
 20
0.0941356469754493
 30
0.0
 11
1.637883138537374
 21
0.0941356469754493
 31
0.0
  0
LWPOLYLINE
  5
7DE1B343D9DF146
330
7DE1B343D9DF17F
100
AcDbEntity
  8
TEXT
100
AcDbPolyline
 90
        4
 70
     1
 43
0.0
 10
1.650814179820273
 20
0.0321782600898613
 10
1.562153861160415
 20
0.0321782600898613
 42
0.9999999999999998
 10
1.562153861160415
 20
-0.0102202804139995
 10
1.650814179820273
 20
-0.0102202804139995
 42
1.0
  0
LWPOLYLINE
  5
7DE1B343D9DF14C
330
7DE1B343D9DF17F
100
AcDbEntity
  8
TEXT
100
AcDbPolyline
 90
        2
 70
     0
 43
0.0
 10
1.536919227258789
 20
-0.070785717894164
 10
1.670936644890166
 20
-0.070785717894164
 42
0.9999999999999998
  0
LINE
  5
7DE1B343D9DF150
330
7DE1B343D9DF17F
100
AcDbEntity
  8
TEXT
100
AcDbLine
 10
1.797273666875805
 20
0.1314106204375816
 30
0.0
 11
1.873921648168363
 21
0.1314106204375816
 31
0.0
  0
LINE
  5
7DE1B343D9DF151
330
7DE1B343D9DF17F
100
AcDbEntity
  8
TEXT
100
AcDbLine
 10
1.873921648168363
 20
0.1314106204375816
 30
0.0
 11
1.873921648168368
 21
-0.070785717894164
 31
0.0
  0
ARC
  5
7DE1B343D9DF152
330
7DE1B343D9DF17F
100
AcDbEntity
  8
TEXT
100
AcDbCircle
 10
1.797273666875803
 20
0.1065047451549188
 30
0.0
 40
0.0249058752826653
100
AcDbArc
 50
89.99971217465335
 51
179.9999999999985
  0
LINE
  5
7DE1B343D9DF153
330
7DE1B343D9DF17F
100
AcDbEntity
  8
TEXT
100
AcDbLine
 10
1.772367791593146
 20
-0.070785717894164
 30
0.0
 11
1.772367791593141
 21
0.1065047875373044
 31
0.0
  0
LWPOLYLINE
  5
7DE1B343D9DF154
330
7DE1B343D9DF17F
100
AcDbEntity
  8
TEXT
100
AcDbPolyline
 90
        2
 70
     0
 43
0.0
 10
1.71401257775781
 20
-0.070785717894164
 10
1.772367791593144
 20
-0.070785717894164
  0
LWPOLYLINE
  5
7DE1B343D9DF158
330
7DE1B343D9DF17F
100
AcDbEntity
  8
TEXT
100
AcDbPolyline
 90
        2
 70
     0
 43
0.0
 10
1.71401257775781
 20
-0.0272947729437259
 10
1.71401257775781
 20
-0.070785717894164
  0
LINE
  5
7DE1B343D9DF15C
330
7DE1B343D9DF17F
100
AcDbEntity
  8
TEXT
100
AcDbLine
 10
2.090781738074659
 20
-0.070785717894164
 30
0.0
 11
1.995289514711049
 21
0.0857940721533734
 31
0.0
  0
LINE
  5
7DE1B343D9DF15D
330
7DE1B343D9DF17F
100
AcDbEntity
  8
TEXT
100
AcDbLine
 10
2.014203365698453
 20
-0.070785717894164
 30
0.0
 11
2.090781738074659
 21
-0.070785717894164
 31
0.0
  0
LINE
  5
7DE1B343D9DF15E
330
7DE1B343D9DF17F
100
AcDbEntity
  8
TEXT
100
AcDbLine
 10
1.938299832486989
 20
0.0607938505820163
 30
0.0
 11
2.014203365698453
 21
-0.070785717894164
 31
0.0
  0
LINE
  5
7DE1B343D9DF15F
330
7DE1B343D9DF17F
100
AcDbEntity
  8
TEXT
100
AcDbLine
 10
1.938299832486989
 20
-0.070785717894164
 30
0.0
 11
1.938299832486989
 21
0.0607938505820163
 31
0.0
  0
LINE
  5
7DE1B343D9DF160
330
7DE1B343D9DF17F
100
AcDbEntity
  8
TEXT
100
AcDbLine
 10
1.937756639391141
 20
0.2611515208619477
 30
0.0
 11
1.869441760841868
 21
0.2611515208619477
 31
0.0
  0
ARC
  5
7DE1B343D9DF161
330
7DE1B343D9DF17F
100
AcDbEntity
  8
TEXT
100
AcDbCircle
 10
1.629086021800662
 20
0.1541037479734446
 30
0.0
 40
0.0416329381542859
100
AcDbArc
 50
26.56974201007528
 51
87.20939649401342
  0
LINE
  5
7DE1B343D9DF162
330
7DE1B343D9DF17F
100
AcDbEntity
  8
TEXT
100
AcDbLine
 10
1.773969806752273
 20
0.195687315094347
 30
0.0
 11
1.710072900452772
 21
0.195687315094347
 31
0.0
  0
LINE
  5
7DE1B343D9DF163
330
7DE1B343D9DF17F
100
AcDbEntity
  8
TEXT
100
AcDbLine
 10
1.773969806752273
 20
0.1681396652334723
 30
0.0
 11
1.773969806752273
 21
0.195687315094347
 31
0.0
  0
ARC
  5
7DE1B343D9DF164
330
7DE1B343D9DF17F
100
AcDbEntity
  8
TEXT
100
AcDbCircle
 10
1.805162623815381
 20
0.1644415878120822
 30
0.0
 40
0.0314112657011332
100
AcDbArc
 50
95.88484768694724
 51
173.2388340632136
  0
LINE
  5
7DE1B343D9DF165
330
7DE1B343D9DF17F
100
AcDbEntity
  8
TEXT
100
AcDbLine
 10
1.869441760841863
 20
0.195687315094347
 30
0.0
 11
1.801942043192346
 21
0.195687315094347
 31
0.0
  0
LINE
  5
7DE1B343D9DF166
330
7DE1B343D9DF17F
100
AcDbEntity
  8
TEXT
100
AcDbLine
 10
1.869441760841868
 20
0.2611515208619477
 30
0.0
 11
1.869441760841863
 21
0.195687315094347
 31
0.0
  0
LINE
  5
7DE1B343D9DF167
330
7DE1B343D9DF17F
100
AcDbEntity
  8
TEXT
100
AcDbLine
 10
2.059846630676754
 20
0.195687315094347
 30
0.0
 11
1.984854797947128
 21
0.195687315094347
 31
0.0
  0
INSERT
  5
7DE1B343D9DF19A
330
7DE1B343D9DF17F
100
AcDbEntity
  8
ASHADE
 62
     1
100
AcDbBlockReference
  2
AVE_RENDER
 10
0.0
 20
0.0
 30
0.0
1001
AVE_RENDER
1002
{
1070
     6
1000
Pref
1070
    30
1070
    20
1070
     1
1070
     0
1000

1070
    10
1070
     1
1070
    30
1040
1.0
1070
     1
1040
0.3
1040
0.7
1040
0.0
1040
10.0
1010
-1.0
1020
-1.0
1030
-1.0
1040
0.3
1070
    49
1070
     0
1070
     0
1010
1.0
1020
1.0
1030
1.0
1040
45.0
1070
     1
1070
     0
1000
WCS
1040
0.0
1002
}
  0
INSERT
  5
7DE1B343D9DF19B
330
7DE1B343D9DF17F
100
AcDbEntity
  8
ASHADE
 62
     3
100
AcDbBlockReference
  2
AVE_RENDER
 10
0.0
 20
0.0
 30
0.0
1001
AVE_RENDER
1002
{
1070
     0
1000
Full Opt
1070
     0
1070
     1
1070
     1
1070
     1
1070
     0
1070
     0
1070
     0
1070
     1
1070
     1
1040
0.0001
1040
0.0001
1002
}
  0
INSERT
  5
7DE1B343D9DF19C
330
7DE1B343D9DF17F
100
AcDbEntity
  8
ASHADE
 62
     4
100
AcDbBlockReference
  2
AVE_RENDER
 10
0.0
 20
0.0
 30
0.0
1001
AVE_RENDER
1002
{
1070
     0
1000
Quick Opt
1070
     0
1070
     1
1070
     1
1070
     1
1070
     0
1070
     0
1070
     1
1002
}
  0
INSERT
  5
7DE1B343D9DF19D
330
7DE1B343D9DF17F
100
AcDbEntity
  8
ASHADE
 62
     5
100
AcDbBlockReference
  2
AVE_RENDER
 10
0.0
 20
0.0
 30
0.0
1001
AVE_RENDER
1002
{
1070
     1
1000
Scanl Opt
1070
     2
1070
     0
1070
     2
1040
2.0
1040
4.0
1070
     0
1070
     1
1070
     0
1040
0.03
1002
}
  0
INSERT
  5
7DE1B343D9DF19E
330
7DE1B343D9DF17F
100
AcDbEntity
  8
ASHADE
 62
     6
100
AcDbBlockReference
  2
AVE_RENDER
 10
0.0
 20
0.0
 30
0.0
1001
AVE_RENDER
1002
{
1070
     2
1000
Raytr Opt
1070
     2
1070
     0
1070
     2
1040
2.0
1040
4.0
1070
     0
1070
     1
1070
     1
1040
0.03
1070
     3
1040
0.03
1002
}
  0
INSERT
  5
7DE1B343D9DF19F
330
7DE1B343D9DF17F
100
AcDbEntity
  8
ASHADE
 62
     7
100
AcDbBlockReference
  2
AVE_RENDER
 10
0.0
 20
0.0
 30
0.0
1001
AVE_RENDER
1002
{
1070
     0
1000
RFile Opt
1070
     5
1070
   640
1070
   480
1070
 10000
1070
     3
1070
    32
1070
    24
1070
     0
1070
     0
1070
     0
1070
     1
1070
     0
1070
     0
1070
     0
1002
}
  0
INSERT
  5
7DE1B343D9DF1A0
330
7DE1B343D9DF17F
100
AcDbEntity
  8
ASHADE
 62
     8
100
AcDbBlockReference
  2
AVE_RENDER
 10
0.0
 20
0.0
 30
0.0
1001
AVE_RENDER
1002
{
1070
     0
1000
Fog Opt
1070
     0
1070
     0
1040
0.0
1040
1.0
1040
0.0
1040
1.0
1010
0.5
1020
0.5
1030
0.5
1002
}
  0
INSERT
  5
7DE1B343D9DF1A1
330
7DE1B343D9DF17F
100
AcDbEntity
  8
ASHADE
 62
     9
100
AcDbBlockReference
  2
AVE_RENDER
 10
0.0
 20
0.0
 30
0.0
1001
AVE_RENDER
1002
{
1070
     0
1000
BG Opt
1070
     0
1070
     1
1010
0.0
1020
0.0
1030
0.0
1010
1.0
1020
0.0
1030
0.0
1010
0.0
1020
1.0
1030
0.0
1010
0.0
1020
0.0
1030
1.0
1040
0.5
1040
0.33
1040
0.0
1000

1070
     1
1000

1070
     1
1070
     1
1040
1.0
1040
1.0
1040
0.0
1040
0.0
1070
     0
1002
}
  0
INSERT
  5
7DE1B343D9DF1A8
330
7DE1B343D9DF17F
100
AcDbEntity
  8
ASHADE
 62
     1
100
AcDbBlockReference
  2
AVE_GLOBAL
 10
0.0
 20
0.0
 30
0.0
1001
AVE_MATERIAL
1002
{
1000
*GLOBAL*
1000
1
1000
Global finish.
1002
{
1002
}
1002
{
1070
    63
1002
{
1002
{
1010
-1.0
1020
-1.0
1030
-1.0
1002
}
1040
0.1000000014901161
1000

1040
0.0
1002
{
1002
}
1040
0.0
1002
{
1002
}
1040
0.0
1002
}
1002
{
1002
{
1010
-1.0
1020
-1.0
1030
-1.0
1002
}
1040
0.6999999880790711
1000

1040
0.0
1002
{
1002
}
1040
0.0
1002
{
1002
}
1040
0.0
1002
}
1002
{
1002
{
1010
-1.0
1020
-1.0
1030
-1.0
1002
}
1040
0.2000000029802322
1000

1040
0.0
1002
{
1002
}
1040
0.0
1002
{
1002
}
1040
0.0
1002
}
1002
{
1070
     0
1002
{
1070
     1
1002
{
1040
1.0
1040
1.0
1000

1040
0.0
1002
{
1002
}
1040
0.0
1002
{
1002
}
1040
0.0
1002
}
1002
}
1040
1.0
1040
0.0
1040
0.0
1002
}
1002
{
1040
1.0
1040
1.0
1000

1040
0.0
1002
{
1002
}
1040
0.0
1002
{
1002
}
1040
0.0
1002
}
1002
{
1040
0.5
1040
1.0
1000

1040
0.0
1002
{
1002
}
1040
0.0
1002
{
1002
}
1040
0.0
1002
}
1002
{
1070
     0
1040
0.0
1002
{
1002
}
1040
1.0
1002
{
1002
}
1040
0.0
1002
}
1002
{
1040
0.0
1002
{
1002
{
1010
0.0
1020
0.0
1030
0.0
1002
}
1040
1.0
1000

1040
0.0
1002
{
1002
}
1040
0.0
1002
{
1002
}
1040
0.0
1002
}
1002
}
1002
{
1002
{
1070
     1
1002
{
1040
0.0
1040
1.0
1000

1040
0.0
1002
{
1002
}
1040
0.0
1002
{
1002
}
1040
0.0
1002
}
1002
}
1040
0.0
1002
{
1002
}
1010
1.0
1020
0.0
1030
0.0
1010
0.0
1020
1.0
1030
0.0
1010
0.0
1020
0.0
1030
1.0
1070
     0
1002
}
1002
{
1002
{
1040
1.0
1040
1.0
1002
{
1070
     1
1002
{
1040
1.0
1040
1.0
1000

1040
0.0
1002
{
1002
}
1040
0.0
1002
{
1002
}
1040
0.0
1002
}
1002
}
1002
}
1070
     0
1040
0.0
1002
{
1002
}
1002
}
1002
{
1002
}
1002
}
1002
{
1071
        3
1070
     3
1070
     0
1002
{
1070
     2
1070
     0
1070
     0
1040
0.0
1002
}
1070
     0
1070
     2
1002
{
1002
}
1002
}
1002
{
1040
8030.0
1040
190.3000030517578
1040
0.3050000071525574
1040
228.0
1040
545.0
1040
14.0
1040
17.39999961853027
1040
0.4560000002384186
1002
}
1002
}
  0
ENDSEC
  0
SECTION
  2
OBJECTS
  0
DICTIONARY
  5
7DE1B343D9DF173
330
0
100
AcDbDictionary
  3
ACAD_GROUP
350
7DE1B343D9DF174
  3
ACAD_LAYOUT
350
7DE1B343D9DF1B4
  3
ACAD_MLINESTYLE
350
7DE1B343D9DF175
  3
ACAD_PLOTSETTINGS
350
7DE1B343D9DF1B5
  3
ACAD_PLOTSTYLENAME
350
7DE1B343D9DF1B2
  3
ACDBHEADERROUNDTRIPXREC
350
7DE1B343D9DF1BF
  3
ACDBVARIABLEDICTIONARY
350
7DE1B343D9DF1BC
  0
DICTIONARY
  5
7DE1B343D9DF1E1
330
7DE1B343D9DF17F
100
AcDbDictionary
280
     1
  3
ACAD_LAYOUTSELFREF
360
7DE1B343D9DF1E2
  0
DICTIONARY
  5
7DE1B343D9DF1DF
330
7DE1B343D9DF17C
100
AcDbDictionary
280
     1
  3
ACAD_LAYOUTSELFREF
360
7DE1B343D9DF1E0
  0
DICTIONARY
  5
7DE1B343D9DF174
102
{ACAD_REACTORS
330
7DE1B343D9DF173
102
}
330
7DE1B343D9DF173
100
AcDbDictionary
  0
DICTIONARY
  5
7DE1B343D9DF1B4
102
{ACAD_REACTORS
330
7DE1B343D9DF173
102
}
330
7DE1B343D9DF173
100
AcDbDictionary
  0
DICTIONARY
  5
7DE1B343D9DF175
102
{ACAD_REACTORS
330
7DE1B343D9DF173
102
}
330
7DE1B343D9DF173
100
AcDbDictionary
  3
STANDARD
350
7DE1B343D9DF182
  0
DICTIONARY
  5
7DE1B343D9DF1B5
102
{ACAD_REACTORS
330
7DE1B343D9DF173
102
}
330
7DE1B343D9DF173
100
AcDbDictionary
  0
ACDBDICTIONARYWDFLT
  5
7DE1B343D9DF1B2
102
{ACAD_REACTORS
330
7DE1B343D9DF173
102
}
330
7DE1B343D9DF173
100
AcDbDictionary
281
     1
  3
Normal
350
7DE1B343D9DF1B3
100
AcDbDictionaryWithDefault
340
7DE1B343D9DF1B3
  0
DICTIONARY
  5
7DE1B343D9DF1BF
102
{ACAD_REACTORS
330
7DE1B343D9DF173
102
}
330
7DE1B343D9DF173
100
AcDbDictionary
  3
CEPSNTYPE
350
7DE1B343D9DF1C9
  3
FINGERPRINTGUID
350
7DE1B343D9DF1CA
  3
HYPERLINKBASE
350
7DE1B343D9DF1C2
  3
INSUNITS
350
7DE1B343D9DF1C8
  3
LAYOUTDICT
350
7DE1B343D9DF1C4
  3
LWETCUNION
350
7DE1B343D9DF1C7
  3
PLOTSETDICT
350
7DE1B343D9DF1C5
  3
PLOTSTYLNAMDICT
350
7DE1B343D9DF1C6
  3
PSVPSCALE
350
7DE1B343D9DF1CC
  3
PUCSBASE
350
7DE1B343D9DF1CF
  3
PUCSORGBACK
350
7DE1B343D9DF1D5
  3
PUCSORGBOTTOM
350
7DE1B343D9DF1D1
  3
PUCSORGFRONT
350
7DE1B343D9DF1D4
  3
PUCSORGLEFT
350
7DE1B343D9DF1D2
  3
PUCSORGRIGHT
350
7DE1B343D9DF1D3
  3
PUCSORGTOP
350
7DE1B343D9DF1D0
  3
PUCSORTHOREF
350
7DE1B343D9DF1CD
  3
PUCSORTHOVIEW
350
7DE1B343D9DF1CE
  3
STYLESHEET
350
7DE1B343D9DF1C3
  3
TSTACKALIGN
350
7DE1B343D9DF1C0
  3
TSTACKSIZE
350
7DE1B343D9DF1C1
  3
UCSBASE
350
7DE1B343D9DF1D8
  3
UCSORGBACK
350
7DE1B343D9DF1DE
  3
UCSORGBOTTOM
350
7DE1B343D9DF1DA
  3
UCSORGFRONT
350
7DE1B343D9DF1DD
  3
UCSORGLEFT
350
7DE1B343D9DF1DB
  3
UCSORGRIGHT
350
7DE1B343D9DF1DC
  3
UCSORGTOP
350
7DE1B343D9DF1D9
  3
UCSORTHOREF
350
7DE1B343D9DF1D6
  3
UCSORTHOVIEW
350
7DE1B343D9DF1D7
  3
VERSIONGUID
350
7DE1B343D9DF1CB
  0
DICTIONARY
  5
7DE1B343D9DF1BC
102
{ACAD_REACTORS
330
7DE1B343D9DF173
102
}
330
7DE1B343D9DF173
100
AcDbDictionary
  3
DIMASSOC
350
7DE1B343D9DF1BD
  0
XRECORD
  5
7DE1B343D9DF1E2
102
{ACAD_REACTORS
330
7DE1B343D9DF1E1
102
}
330
7DE1B343D9DF1E1
100
AcDbXrecord
340
7DE1B343D9DF17F
  0
XRECORD
  5
7DE1B343D9DF1E0
102
{ACAD_REACTORS
330
7DE1B343D9DF1DF
102
}
330
7DE1B343D9DF1DF
100
AcDbXrecord
340
7DE1B343D9DF17C
  0
MLINESTYLE
  5
7DE1B343D9DF182
102
{ACAD_REACTORS
330
7DE1B343D9DF175
102
}
330
7DE1B343D9DF175
100
AcDbMlineStyle
  2
STANDARD
 70
     0
  3

 62
     0
 51
90.0
 52
90.0
 71
     2
 49
0.5
 62
   256
  6
BYLAYER
 49
-0.5
 62
   256
  6
BYLAYER
  0
ACDBPLACEHOLDER
  5
7DE1B343D9DF1B3
102
{ACAD_REACTORS
330
7DE1B343D9DF1B2
102
}
330
7DE1B343D9DF1B2
100
AcDbPlaceHolder
280
     0
  0
XRECORD
  5
7DE1B343D9DF1C9
102
{ACAD_REACTORS
330
7DE1B343D9DF1BF
102
}
330
7DE1B343D9DF1BF
100
AcDbXrecord
 90
        0
  0
XRECORD
  5
7DE1B343D9DF1CA
102
{ACAD_REACTORS
330
7DE1B343D9DF1BF
102
}
330
7DE1B343D9DF1BF
100
AcDbXrecord
  1
{4FC5FFD0-8DB5-11D6-88E6-0090279574E7}
  0
XRECORD
  5
7DE1B343D9DF1C2
102
{ACAD_REACTORS
330
7DE1B343D9DF1BF
102
}
330
7DE1B343D9DF1BF
100
AcDbXrecord
  1

  0
XRECORD
  5
7DE1B343D9DF1C8
102
{ACAD_REACTORS
330
7DE1B343D9DF1BF
102
}
330
7DE1B343D9DF1BF
100
AcDbXrecord
 90
        0
  0
XRECORD
  5
7DE1B343D9DF1C4
102
{ACAD_REACTORS
330
7DE1B343D9DF1BF
102
}
330
7DE1B343D9DF1BF
100
AcDbXrecord
340
7DE1B343D9DF1B4
  0
XRECORD
  5
7DE1B343D9DF1C7
102
{ACAD_REACTORS
330
7DE1B343D9DF1BF
102
}
330
7DE1B343D9DF1BF
100
AcDbXrecord
 90
    14877
  0
XRECORD
  5
7DE1B343D9DF1C5
102
{ACAD_REACTORS
330
7DE1B343D9DF1BF
102
}
330
7DE1B343D9DF1BF
100
AcDbXrecord
340
7DE1B343D9DF1B5
  0
XRECORD
  5
7DE1B343D9DF1C6
102
{ACAD_REACTORS
330
7DE1B343D9DF1BF
102
}
330
7DE1B343D9DF1BF
100
AcDbXrecord
340
7DE1B343D9DF1B2
  0
XRECORD
  5
7DE1B343D9DF1CC
102
{ACAD_REACTORS
330
7DE1B343D9DF1BF
102
}
330
7DE1B343D9DF1BF
100
AcDbXrecord
 40
0.0
  0
XRECORD
  5
7DE1B343D9DF1CF
102
{ACAD_REACTORS
330
7DE1B343D9DF1BF
102
}
330
7DE1B343D9DF1BF
100
AcDbXrecord
340
0
  0
XRECORD
  5
7DE1B343D9DF1D5
102
{ACAD_REACTORS
330
7DE1B343D9DF1BF
102
}
330
7DE1B343D9DF1BF
100
AcDbXrecord
 10
0.0
 20
0.0
 30
0.0
  0
XRECORD
  5
7DE1B343D9DF1D1
102
{ACAD_REACTORS
330
7DE1B343D9DF1BF
102
}
330
7DE1B343D9DF1BF
100
AcDbXrecord
 10
0.0
 20
0.0
 30
0.0
  0
XRECORD
  5
7DE1B343D9DF1D4
102
{ACAD_REACTORS
330
7DE1B343D9DF1BF
102
}
330
7DE1B343D9DF1BF
100
AcDbXrecord
 10
0.0
 20
0.0
 30
0.0
  0
XRECORD
  5
7DE1B343D9DF1D2
102
{ACAD_REACTORS
330
7DE1B343D9DF1BF
102
}
330
7DE1B343D9DF1BF
100
AcDbXrecord
 10
0.0
 20
0.0
 30
0.0
  0
XRECORD
  5
7DE1B343D9DF1D3
102
{ACAD_REACTORS
330
7DE1B343D9DF1BF
102
}
330
7DE1B343D9DF1BF
100
AcDbXrecord
 10
0.0
 20
0.0
 30
0.0
  0
XRECORD
  5
7DE1B343D9DF1D0
102
{ACAD_REACTORS
330
7DE1B343D9DF1BF
102
}
330
7DE1B343D9DF1BF
100
AcDbXrecord
 10
0.0
 20
0.0
 30
0.0
  0
XRECORD
  5
7DE1B343D9DF1CD
102
{ACAD_REACTORS
330
7DE1B343D9DF1BF
102
}
330
7DE1B343D9DF1BF
100
AcDbXrecord
340
0
  0
XRECORD
  5
7DE1B343D9DF1CE
102
{ACAD_REACTORS
330
7DE1B343D9DF1BF
102
}
330
7DE1B343D9DF1BF
100
AcDbXrecord
 70
     0
  0
XRECORD
  5
7DE1B343D9DF1C3
102
{ACAD_REACTORS
330
7DE1B343D9DF1BF
102
}
330
7DE1B343D9DF1BF
100
AcDbXrecord
  1

  0
XRECORD
  5
7DE1B343D9DF1C0
102
{ACAD_REACTORS
330
7DE1B343D9DF1BF
102
}
330
7DE1B343D9DF1BF
100
AcDbXrecord
 90
        1
  0
XRECORD
  5
7DE1B343D9DF1C1
102
{ACAD_REACTORS
330
7DE1B343D9DF1BF
102
}
330
7DE1B343D9DF1BF
100
AcDbXrecord
 90
       70
  0
XRECORD
  5
7DE1B343D9DF1D8
102
{ACAD_REACTORS
330
7DE1B343D9DF1BF
102
}
330
7DE1B343D9DF1BF
100
AcDbXrecord
340
0
  0
XRECORD
  5
7DE1B343D9DF1DE
102
{ACAD_REACTORS
330
7DE1B343D9DF1BF
102
}
330
7DE1B343D9DF1BF
100
AcDbXrecord
 10
0.0
 20
0.0
 30
0.0
  0
XRECORD
  5
7DE1B343D9DF1DA
102
{ACAD_REACTORS
330
7DE1B343D9DF1BF
102
}
330
7DE1B343D9DF1BF
100
AcDbXrecord
 10
0.0
 20
0.0
 30
0.0
  0
XRECORD
  5
7DE1B343D9DF1DD
102
{ACAD_REACTORS
330
7DE1B343D9DF1BF
102
}
330
7DE1B343D9DF1BF
100
AcDbXrecord
 10
0.0
 20
0.0
 30
0.0
  0
XRECORD
  5
7DE1B343D9DF1DB
102
{ACAD_REACTORS
330
7DE1B343D9DF1BF
102
}
330
7DE1B343D9DF1BF
100
AcDbXrecord
 10
0.0
 20
0.0
 30
0.0
  0
XRECORD
  5
7DE1B343D9DF1DC
102
{ACAD_REACTORS
330
7DE1B343D9DF1BF
102
}
330
7DE1B343D9DF1BF
100
AcDbXrecord
 10
0.0
 20
0.0
 30
0.0
  0
XRECORD
  5
7DE1B343D9DF1D9
102
{ACAD_REACTORS
330
7DE1B343D9DF1BF
102
}
330
7DE1B343D9DF1BF
100
AcDbXrecord
 10
0.0
 20
0.0
 30
0.0
  0
XRECORD
  5
7DE1B343D9DF1D6
102
{ACAD_REACTORS
330
7DE1B343D9DF1BF
102
}
330
7DE1B343D9DF1BF
100
AcDbXrecord
340
0
  0
XRECORD
  5
7DE1B343D9DF1D7
102
{ACAD_REACTORS
330
7DE1B343D9DF1BF
102
}
330
7DE1B343D9DF1BF
100
AcDbXrecord
 70
     0
  0
XRECORD
  5
7DE1B343D9DF1CB
102
{ACAD_REACTORS
330
7DE1B343D9DF1BF
102
}
330
7DE1B343D9DF1BF
100
AcDbXrecord
  1
{4FC5FFD2-8DB5-11D6-88E6-0090279574E7}
  0
DICTIONARYVAR
  5
7DE1B343D9DF1BD
102
{ACAD_REACTORS
330
7DE1B343D9DF1BC
102
}
330
7DE1B343D9DF1BC
100
DictionaryVariables
280
     0
  1
1
  0
ENDSEC
  0
EOF
