  0
SECTION
  2
HEADER
  9
$ACADVER
  1
AC1014
  9
$ACADMAINTVER
 70
     9
  9
$DWGCODEPAGE
  3
ANSI_1252
  9
$INSBASE
 10
1.6471298660277
 20
1.291750175606888
 30
0.0
  9
$EXTMIN
 10
-0.0200921451847183
 20
0.1481216102821572
 30
0.0
  9
$EXTMAX
 10
3.465127176562409
 20
1.664869342291262
 30
0.0
  9
$LIMMIN
 10
0.0
 20
0.0
  9
$LIMMAX
 10
18.0
 20
12.0
  9
$ORTHOMODE
 70
     1
  9
$REGENMODE
 70
     1
  9
$FILLMODE
 70
     1
  9
$QTEXTMODE
 70
     0
  9
$MIRRTEXT
 70
     0
  9
$DRAGMODE
 70
     2
  9
$LTSCALE
 40
1.0
  9
$OSMODE
 70
    39
  9
$ATTMODE
 70
     1
  9
$TEXTSIZE
 40
0.125
  9
$TRACEWID
 40
0.05
  9
$TEXTSTYLE
  7
ROMANS
  9
$CLAYER
  8
0
  9
$CELTYPE
  6
BYLAYER
  9
$CECOLOR
 62
   256
  9
$CELTSCALE
 40
1.0
  9
$DELOBJ
 70
     1
  9
$DISPSILH
 70
     1
  9
$DIMSCALE
 40
1.0
  9
$DIMASZ
 40
0.125
  9
$DIMEXO
 40
0.125
  9
$DIMDLI
 40
0.375
  9
$DIMRND
 40
0.0
  9
$DIMDLE
 40
0.0
  9
$DIMEXE
 40
0.125
  9
$DIMTP
 40
0.0
  9
$DIMTM
 40
0.0
  9
$DIMTXT
 40
0.125
  9
$DIMCEN
 40
-0.125
  9
$DIMTSZ
 40
0.0
  9
$DIMTOL
 70
     0
  9
$DIMLIM
 70
     0
  9
$DIMTIH
 70
     1
  9
$DIMTOH
 70
     1
  9
$DIMSE1
 70
     0
  9
$DIMSE2
 70
     0
  9
$DIMTAD
 70
     0
  9
$DIMZIN
 70
     4
  9
$DIMBLK
  1

  9
$DIMASO
 70
     1
  9
$DIMSHO
 70
     1
  9
$DIMPOST
  1

  9
$DIMAPOST
  1

  9
$DIMALT
 70
     0
  9
$DIMALTD
 70
     2
  9
$DIMALTF
 40
25.4
  9
$DIMLFAC
 40
1.0
  9
$DIMTOFL
 70
     0
  9
$DIMTVP
 40
0.0
  9
$DIMTIX
 70
     1
  9
$DIMSOXD
 70
     0
  9
$DIMSAH
 70
     0
  9
$DIMBLK1
  1

  9
$DIMBLK2
  1

  9
$DIMSTYLE
  2
STANDARD
  9
$DIMCLRD
 70
     0
  9
$DIMCLRE
 70
     0
  9
$DIMCLRT
 70
     0
  9
$DIMTFAC
 40
1.0
  9
$DIMGAP
 40
0.09
  9
$DIMJUST
 70
     0
  9
$DIMSD1
 70
     0
  9
$DIMSD2
 70
     0
  9
$DIMTOLJ
 70
     1
  9
$DIMTZIN
 70
     4
  9
$DIMALTZ
 70
     0
  9
$DIMALTTZ
 70
     0
  9
$DIMFIT
 70
     3
  9
$DIMUPT
 70
     0
  9
$DIMUNIT
 70
     2
  9
$DIMDEC
 70
     3
  9
$DIMTDEC
 70
     3
  9
$DIMALTU
 70
     2
  9
$DIMALTTD
 70
     2
  9
$DIMTXSTY
  7
ROMANS
  9
$DIMAUNIT
 70
     0
  9
$LUNITS
 70
     2
  9
$LUPREC
 70
     3
  9
$SKETCHINC
 40
0.1
  9
$FILLETRAD
 40
0.03125
  9
$AUNITS
 70
     0
  9
$AUPREC
 70
     0
  9
$MENU
  1
ACAD
  9
$ELEVATION
 40
0.0
  9
$PELEVATION
 40
0.0
  9
$THICKNESS
 40
0.0
  9
$LIMCHECK
 70
     0
  9
$BLIPMODE
 70
     0
  9
$CHAMFERA
 40
0.0
  9
$CHAMFERB
 40
0.0
  9
$CHAMFERC
 40
0.0
  9
$CHAMFERD
 40
0.0
  9
$SKPOLY
 70
     0
  9
$TDCREATE
 40
2448994.478089467
  9
$TDUPDATE
 40
2452458.301940740
  9
$TDINDWG
 40
0.0011007755
  9
$TDUSRTIMER
 40
0.0011007755
  9
$USRTIMER
 70
     1
  9
$ANGBASE
 50
0.0
  9
$ANGDIR
 70
     0
  9
$PDMODE
 70
     0
  9
$PDSIZE
 40
0.0
  9
$PLINEWID
 40
0.0
  9
$COORDS
 70
     2
  9
$SPLFRAME
 70
     0
  9
$SPLINETYPE
 70
     6
  9
$SPLINESEGS
 70
     8
  9
$ATTDIA
 70
     0
  9
$ATTREQ
 70
     1
  9
$HANDLING
 70
 22529
  9
$HANDSEED
  5
7DE1B343D9DEDFC
  9
$SURFTAB1
 70
     6
  9
$SURFTAB2
 70
     6
  9
$SURFTYPE
 70
     6
  9
$SURFU
 70
     6
  9
$SURFV
 70
     6
  9
$UCSNAME
  2

  9
$UCSORG
 10
0.0
 20
0.0
 30
0.0
  9
$UCSXDIR
 10
1.0
 20
0.0
 30
0.0
  9
$UCSYDIR
 10
0.0
 20
1.0
 30
0.0
  9
$PUCSNAME
  2

  9
$PUCSORG
 10
0.0
 20
0.0
 30
0.0
  9
$PUCSXDIR
 10
1.0
 20
0.0
 30
0.0
  9
$PUCSYDIR
 10
0.0
 20
1.0
 30
0.0
  9
$USERI1
 70
     0
  9
$USERI2
 70
     0
  9
$USERI3
 70
     0
  9
$USERI4
 70
     0
  9
$USERI5
 70
     0
  9
$USERR1
 40
0.0
  9
$USERR2
 40
0.0
  9
$USERR3
 40
0.0
  9
$USERR4
 40
0.0
  9
$USERR5
 40
0.0
  9
$WORLDVIEW
 70
     1
  9
$SHADEDGE
 70
     3
  9
$SHADEDIF
 70
    70
  9
$TILEMODE
 70
     1
  9
$MAXACTVP
 70
    16
  9
$PINSBASE
 10
0.9284507161211084
 20
50.00000000000001
 30
2.080586977627409
  9
$PLIMCHECK
 70
     0
  9
$PEXTMIN
 10
1.000000000000000E+20
 20
1.000000000000000E+20
 30
1.000000000000000E+20
  9
$PEXTMAX
 10
-1.000000000000000E+20
 20
-1.000000000000000E+20
 30
-1.000000000000000E+20
  9
$PLIMMIN
 10
0.0
 20
0.0
  9
$PLIMMAX
 10
12.0
 20
9.0
  9
$UNITMODE
 70
     0
  9
$VISRETAIN
 70
     0
  9
$PLINEGEN
 70
     1
  9
$PSLTSCALE
 70
     0
  9
$TREEDEPTH
 70
  3020
  9
$PICKSTYLE
 70
     1
  9
$CMLSTYLE
  2
STANDARD
  9
$CMLJUST
 70
     0
  9
$CMLSCALE
 40
1.0
  9
$PROXYGRAPHICS
 70
     1
  9
$MEASUREMENT
 70
     0
  0
ENDSEC
  0
SECTION
  2
CLASSES
  0
CLASS
  1
LWPOLYLINE
  2
AcDbPolyline
  3
AutoCAD 2000
 90
        0
280
     0
281
     1
  0
CLASS
  1
ACDBDICTIONARYWDFLT
  2
AcDbDictionaryWithDefault
  3
AutoCAD 2000
 90
        0
280
     0
281
     0
  0
CLASS
  1
ACDBPLACEHOLDER
  2
AcDbPlaceHolder
  3
AutoCAD 2000
 90
        0
280
     0
281
     0
  0
CLASS
  1
LAYOUT
  2
AcDbLayout
  3
AutoCAD 2000
 90
        0
280
     0
281
     0
  0
CLASS
  1
DICTIONARYVAR
  2
AcDbDictionaryVar
  3
AutoCAD 2000
 90
        0
280
     0
281
     0
  0
CLASS
  1
LONG_TRANSACTION
  2
AcDbLongTransaction
  3
AutoCAD 2000
 90
        0
280
     0
281
     0
  0
CLASS
  1
LWPOLYLINE
  2
AcDbPolyline
  3
AutoCAD 2000
 90
        0
280
     0
281
     1
  0
CLASS
  1
HATCH
  2
AcDbHatch
  3
AutoCAD 2000
 90
        0
280
     0
281
     1
  0
CLASS
  1
XRECORD
  2
AcDbXrecord
  3
AutoCAD 2000
 90
        0
280
     0
281
     0
  0
ENDSEC
  0
SECTION
  2
TABLES
  0
TABLE
  2
VPORT
  5
7DE1B343D9DED88
330
0
100
AcDbSymbolTable
 70
     2
  0
VPORT
  5
7DE1B343D9DEDD7
330
7DE1B343D9DED88
100
AcDbSymbolTableRecord
100
AcDbViewportTableRecord
  2
*ACTIVE
 70
     0
 10
0.0
 20
0.0
 11
1.0
 21
1.0
 12
4.698772593069214
 22
0.9064636450568954
 13
0.0
 23
0.0
 14
0.015625
 24
0.015625
 15
0.0
 25
0.0
 16
0.0
 26
0.0
 36
1.0
 17
0.0
 27
0.0
 37
0.0
 40
2.282495062637144
 41
4.320930232558139
 42
50.0
 43
0.0
 44
0.0
 50
0.0
 51
0.0
 71
     0
 72
  2000
 73
     1
 74
     0
 75
     0
 76
     0
 77
     0
 78
     0
  0
ENDTAB
  0
TABLE
  2
LTYPE
  5
7DE1B343D9DED85
330
0
100
AcDbSymbolTable
 70
     1
  0
LTYPE
  5
7DE1B343D9DED92
330
7DE1B343D9DED85
100
AcDbSymbolTableRecord
100
AcDbLinetypeTableRecord
  2
BYBLOCK
 70
     0
  3

 72
    65
 73
     0
 40
0.0
  0
LTYPE
  5
7DE1B343D9DED93
330
7DE1B343D9DED85
100
AcDbSymbolTableRecord
100
AcDbLinetypeTableRecord
  2
BYLAYER
 70
     0
  3

 72
    65
 73
     0
 40
0.0
  0
LTYPE
  5
7DE1B343D9DED94
330
7DE1B343D9DED85
100
AcDbSymbolTableRecord
100
AcDbLinetypeTableRecord
  2
CONTINUOUS
 70
     0
  3
Solid line
 72
    65
 73
     0
 40
0.0
  0
ENDTAB
  0
TABLE
  2
LAYER
  5
7DE1B343D9DED82
330
0
100
AcDbSymbolTable
 70
     3
  0
LAYER
  5
7DE1B343D9DED8F
330
7DE1B343D9DED82
100
AcDbSymbolTableRecord
100
AcDbLayerTableRecord
  2
0
 70
     0
 62
     7
  6
CONTINUOUS
  0
LAYER
  5
7DE1B343D9DED9F
330
7DE1B343D9DED82
100
AcDbSymbolTableRecord
100
AcDbLayerTableRecord
  2
TEXT
 70
     0
 62
     3
  6
CONTINUOUS
  0
LAYER
  5
7DE1B343D9DEDAF
330
7DE1B343D9DED82
100
AcDbSymbolTableRecord
100
AcDbLayerTableRecord
  2
ASHADE
 70
     4
 62
     7
  6
CONTINUOUS
  0
ENDTAB
  0
TABLE
  2
STYLE
  5
7DE1B343D9DED83
330
0
100
AcDbSymbolTable
 70
     4
  0
STYLE
  5
7DE1B343D9DED90
330
7DE1B343D9DED83
100
AcDbSymbolTableRecord
100
AcDbTextStyleTableRecord
  2
STANDARD
 70
     0
 40
0.0
 41
1.0
 50
0.0
 71
     0
 42
0.3125
  3
txt
  4

  0
STYLE
  5
7DE1B343D9DED9C
330
7DE1B343D9DED83
100
AcDbSymbolTableRecord
100
AcDbTextStyleTableRecord
  2
ITALICC
 70
     0
 40
0.0
 41
1.0
 50
0.0
 71
     0
 42
0.125
  3
italicc
  4

  0
STYLE
  5
7DE1B343D9DEDAC
330
7DE1B343D9DED83
100
AcDbSymbolTableRecord
100
AcDbTextStyleTableRecord
  2
ASHADE
 70
     0
 40
0.2
 41
1.0
 50
0.0
 71
     0
 42
0.3125
  3
simplex
  4

  0
STYLE
  5
7DE1B343D9DEDC7
330
7DE1B343D9DED83
100
AcDbSymbolTableRecord
100
AcDbTextStyleTableRecord
  2
ROMANS
 70
     0
 40
0.0
 41
1.0
 50
0.0
 71
     0
 42
0.125
  3
romans.shx
  4

  0
ENDTAB
  0
TABLE
  2
VIEW
  5
7DE1B343D9DED86
330
0
100
AcDbSymbolTable
 70
     0
  0
ENDTAB
  0
TABLE
  2
UCS
  5
7DE1B343D9DED87
330
0
100
AcDbSymbolTable
 70
     0
  0
ENDTAB
  0
TABLE
  2
APPID
  5
7DE1B343D9DED89
330
0
100
AcDbSymbolTable
 70
     6
  0
APPID
  5
7DE1B343D9DED91
330
7DE1B343D9DED89
100
AcDbSymbolTableRecord
100
AcDbRegAppTableRecord
  2
ACAD
 70
     0
  0
APPID
  5
7DE1B343D9DEDAD
330
7DE1B343D9DED89
100
AcDbSymbolTableRecord
100
AcDbRegAppTableRecord
  2
AVE_RENDER
 70
     0
  0
APPID
  5
7DE1B343D9DEDAE
330
7DE1B343D9DED89
100
AcDbSymbolTableRecord
100
AcDbRegAppTableRecord
  2
AVE_ENTITY_MATERIAL
 70
     0
  0
APPID
  5
7DE1B343D9DEDBB
330
7DE1B343D9DED89
100
AcDbSymbolTableRecord
100
AcDbRegAppTableRecord
  2
AVE_FINISH
 70
     0
  0
APPID
  5
7DE1B343D9DEDBC
330
7DE1B343D9DED89
100
AcDbSymbolTableRecord
100
AcDbRegAppTableRecord
  2
AVE_MATERIAL
 70
     0
  0
APPID
  5
7DE1B343D9DEDBD
330
7DE1B343D9DED89
100
AcDbSymbolTableRecord
100
AcDbRegAppTableRecord
  2
AVE_GLOBAL
 70
     0
  0
ENDTAB
  0
TABLE
  2
DIMSTYLE
  5
7DE1B343D9DED8A
330
0
100
AcDbSymbolTable
 70
     1
  0
DIMSTYLE
105
7DE1B343D9DEDA4
330
7DE1B343D9DED8A
100
AcDbSymbolTableRecord
100
AcDbDimStyleTableRecord
  2
STANDARD
 70
     0
  3

  4

  5

  6

  7

 40
1.0
 41
0.125
 42
0.125
 43
0.375
 44
0.125
 45
0.0
 46
0.0
 47
0.0
 48
0.0
140
0.125
141
-0.125
142
0.0
143
25.4
144
1.0
145
0.0
146
1.0
147
0.09
 71
     0
 72
     0
 73
     1
 74
     1
 75
     0
 76
     0
 77
     0
 78
     4
170
     0
171
     2
172
     0
173
     0
174
     1
175
     0
176
     0
177
     0
178
     0
270
     2
271
     3
272
     3
273
     2
274
     2
340
7DE1B343D9DEDC7
275
     0
280
     0
281
     0
282
     0
283
     1
284
     4
285
     0
286
     0
287
     3
288
     0
  0
ENDTAB
  0
TABLE
  2
BLOCK_RECORD
  5
7DE1B343D9DED81
330
0
100
AcDbSymbolTable
 70
     2
  0
BLOCK_RECORD
  5
7DE1B343D9DED98
102
{ACAD_XDICTIONARY
360
7DE1B343D9DEDFA
102
}
330
7DE1B343D9DED81
100
AcDbSymbolTableRecord
100
AcDbBlockTableRecord
  2
*MODEL_SPACE
  0
BLOCK_RECORD
  5
7DE1B343D9DED95
102
{ACAD_XDICTIONARY
360
7DE1B343D9DEDF8
102
}
330
7DE1B343D9DED81
100
AcDbSymbolTableRecord
100
AcDbBlockTableRecord
  2
*PAPER_SPACE
  0
BLOCK_RECORD
  5
7DE1B343D9DEDB0
330
7DE1B343D9DED81
100
AcDbSymbolTableRecord
100
AcDbBlockTableRecord
  2
AVE_RENDER
  0
BLOCK_RECORD
  5
7DE1B343D9DEDBE
330
7DE1B343D9DED81
100
AcDbSymbolTableRecord
100
AcDbBlockTableRecord
  2
AVE_GLOBAL
  0
ENDTAB
  0
ENDSEC
  0
SECTION
  2
BLOCKS
  0
BLOCK
  5
7DE1B343D9DEDA2
330
7DE1B343D9DED98
100
AcDbEntity
  8
0
100
AcDbBlockBegin
  2
*MODEL_SPACE
 70
     0
 10
0.0
 20
0.0
 30
0.0
  3
*MODEL_SPACE
  1

  0
ENDBLK
  5
7DE1B343D9DEDA3
330
7DE1B343D9DED98
100
AcDbEntity
  8
0
100
AcDbBlockEnd
  0
BLOCK
  5
7DE1B343D9DEDA0
330
7DE1B343D9DED95
100
AcDbEntity
 67
     1
  8
0
100
AcDbBlockBegin
  2
*PAPER_SPACE
 70
     0
 10
0.0
 20
0.0
 30
0.0
  3
*PAPER_SPACE
  1

  0
ENDBLK
  5
7DE1B343D9DEDA1
330
7DE1B343D9DED95
100
AcDbEntity
 67
     1
  8
0
100
AcDbBlockEnd
  0
BLOCK
  5
7DE1B343D9DEDB1
330
7DE1B343D9DEDB0
100
AcDbEntity
  8
0
100
AcDbBlockBegin
  2
AVE_RENDER
 70
     0
 10
0.0
 20
0.0
 30
0.0
  3
AVE_RENDER
  1
AVE_RENDER
  0
ENDBLK
  5
7DE1B343D9DEDB2
330
7DE1B343D9DEDB0
100
AcDbEntity
  8
0
100
AcDbBlockEnd
  0
BLOCK
  5
7DE1B343D9DEDBF
330
7DE1B343D9DEDBE
100
AcDbEntity
  8
0
100
AcDbBlockBegin
  2
AVE_GLOBAL
 70
     0
 10
0.0
 20
0.0
 30
0.0
  3
AVE_GLOBAL
  1
AVE_GLOBAL
  0
ENDBLK
  5
7DE1B343D9DEDC0
330
7DE1B343D9DEDBE
100
AcDbEntity
  8
0
100
AcDbBlockEnd
  0
ENDSEC
  0
SECTION
  2
ENTITIES
  0
LWPOLYLINE
  5
7DE1B343D9DD7E2
330
7DE1B343D9DED98
100
AcDbEntity
  8
0
100
AcDbPolyline
 90
       24
 70
     1
 43
0.0
 10
0.6035144340424248
 20
0.9607272066675317
 10
0.6587628463058972
 20
0.9607272066675317
 42
0.2679491924311224
 10
0.6858261401741608
 20
0.9763522066675317
 10
0.7128894340424248
 20
1.023227206667531
 10
0.6503894340424248
 20
1.023227206667531
 10
0.6503894340424248
 20
1.598227206667531
 10
2.795389434042425
 20
1.598227206667531
 10
2.795389434042425
 20
1.023227206667531
 10
2.732889434042425
 20
1.023227206667531
 10
2.759952727910688
 20
0.9763522066675317
 42
0.2679491924311224
 10
2.787016021778952
 20
0.9607272066675317
 10
2.842264434042425
 20
0.9607272066675317
 10
2.842264434042425
 20
1.598227206667531
 10
3.160389434042424
 20
1.598227206667531
 10
3.160389434042424
 20
0.9419772066675315
 42
1.0
 10
3.222889434042424
 20
0.9419772066675315
 10
3.222889434042425
 20
1.640727206667532
 42
0.4142135623730951
 10
3.202889434042424
 20
1.660727206667531
 10
0.2428894340424246
 20
1.660727206667531
 42
0.4142135623730951
 10
0.2228894340424246
 20
1.640727206667532
 10
0.2228894340424246
 20
0.9419772066675315
 42
1.0
 10
0.2853894340424245
 20
0.9419772066675315
 10
0.2853894340424245
 20
1.598227206667531
 10
0.6035144340424248
 20
1.598227206667531
  0
TEXT
  5
7DE1B343D9DEC43
330
7DE1B343D9DED98
100
AcDbEntity
  8
TEXT
100
AcDbText
 10
0.9699132435662352
 20
0.6061402143647388
 30
0.0
 40
0.125
  1
PART #110226
  7
ITALICC
 72
     1
 11
1.722889434042425
 21
0.6061402143647388
 31
0.0
100
AcDbText
  0
TEXT
  5
7DE1B343D9DEC44
330
7DE1B343D9DED98
100
AcDbEntity
  8
TEXT
100
AcDbText
 10
2.136194592292745
 20
0.1592175716923636
 30
0.0
 40
0.0522247191011236
  1
Phone  1-800-328-2495
 41
1.272321428571429
 72
     5
 11
3.465127176562409
 21
0.1592175716923636
 31
0.0
100
AcDbText
  0
TEXT
  5
7DE1B343D9DEC45
330
7DE1B343D9DED98
100
AcDbEntity
  8
TEXT
100
AcDbText
 10
2.136194592292745
 20
0.4389928525912401
 30
0.0
 40
0.0522247191011236
  1
Stylmark  Incorporated
 41
1.221428571428573
 72
     5
 11
3.465127176562409
 21
0.4389928525912401
 31
0.0
100
AcDbText
  0
TEXT
  5
7DE1B343D9DEC46
330
7DE1B343D9DED98
100
AcDbEntity
  8
TEXT
100
AcDbText
 10
2.136194592292745
 20
0.3457344256249479
 30
0.0
 40
0.0522247191011236
  1
6536 Main St. N.E. * P.O. Box 32008
 41
0.8388932496075366
 72
     5
 11
3.465127176562409
 21
0.3457344256249479
 31
0.0
100
AcDbText
  0
TEXT
  5
7DE1B343D9DEC47
330
7DE1B343D9DED98
100
AcDbEntity
  8
TEXT
100
AcDbText
 10
2.136194592292745
 20
0.2524759986586558
 30
0.0
 40
0.0522247191011236
  1
Minneapolis, MN 55432-0008
 41
1.11444212721585
 72
     5
 11
3.465127176562409
 21
0.2524759986586558
 31
0.0
100
AcDbText
  0
LWPOLYLINE
  5
7DE1B343D9DEC48
330
7DE1B343D9DED98
100
AcDbEntity
  8
TEXT
100
AcDbPolyline
 90
        3
 70
     0
 43
0.0006660908203125
 10
-0.019759099774562
 20
0.2728623343297984
 10
-0.019759099774562
 20
0.1596268948766708
 10
0.0934763396785603
 20
0.1596268948766708
  0
LWPOLYLINE
  5
7DE1B343D9DEC4D
330
7DE1B343D9DED98
100
AcDbEntity
  8
TEXT
100
AcDbPolyline
 90
        3
 70
     0
 43
0.0006660908203125
 10
0.0068845330379355
 20
0.2728623343297984
 10
0.0068845330379355
 20
0.1862705276891718
 10
0.0934763396785603
 20
0.1862705276891718
  0
LWPOLYLINE
  5
7DE1B343D9DEC52
330
7DE1B343D9DED98
100
AcDbEntity
  8
TEXT
100
AcDbPolyline
 90
        2
 70
     0
 43
0.0001332181640625
 10
0.0535108904598123
 20
0.2828536966344837
 10
-0.019759099774562
 20
0.2728623343297984
  0
LWPOLYLINE
  5
7DE1B343D9DEC56
330
7DE1B343D9DED98
100
AcDbEntity
  8
TEXT
100
AcDbPolyline
 90
        2
 70
     0
 43
0.0001332181640625
 10
0.0068845330379355
 20
0.2728623343297984
 10
0.0668327068660628
 20
0.2828536966344837
  0
LWPOLYLINE
  5
7DE1B343D9DEC5A
330
7DE1B343D9DED98
100
AcDbEntity
  8
TEXT
100
AcDbPolyline
 90
        2
 70
     0
 43
0.0001332181640625
 10
0.0068845330379355
 20
0.1862705276891718
 10
0.0668327068660628
 20
0.2462187015172974
  0
LWPOLYLINE
  5
7DE1B343D9DEC5E
330
7DE1B343D9DED98
100
AcDbEntity
  8
TEXT
100
AcDbPolyline
 90
        3
 70
     0
 43
0.0006660908203125
 10
0.0934763396785603
 20
0.4260632230016741
 10
-0.019759099774562
 20
0.4260632230016741
 10
-0.019759099774562
 20
0.3128277835485465
  0
LWPOLYLINE
  5
7DE1B343D9DEC63
330
7DE1B343D9DED98
100
AcDbEntity
  8
TEXT
100
AcDbPolyline
 90
        3
 70
     0
 43
0.0006660908203125
 10
0.0934763396785603
 20
0.399419590189173
 10
0.0068845330379355
 20
0.399419590189173
 10
0.0068845330379355
 20
0.3128277835485465
  0
LWPOLYLINE
  5
7DE1B343D9DEC68
330
7DE1B343D9DED98
100
AcDbEntity
  8
TEXT
100
AcDbPolyline
 90
        2
 70
     0
 43
0.0001332181640625
 10
0.0068845330379355
 20
0.399419590189173
 10
0.066832706866061
 20
0.3394714163610475
  0
LWPOLYLINE
  5
7DE1B343D9DEC6C
330
7DE1B343D9DED98
100
AcDbEntity
  8
TEXT
100
AcDbPolyline
 90
        2
 70
     0
 43
0.0001332181640625
 10
0.0068845330379355
 20
0.3128277835485465
 10
0.066832706866061
 20
0.3028364212438577
  0
LWPOLYLINE
  5
7DE1B343D9DEC70
330
7DE1B343D9DED98
100
AcDbEntity
  8
TEXT
100
AcDbPolyline
 90
        2
 70
     0
 43
0.0001332181640625
 10
-0.019759099774562
 20
0.3128277835485465
 10
0.0535108904598123
 20
0.3028364212438577
  0
LWPOLYLINE
  5
7DE1B343D9DEC74
330
7DE1B343D9DED98
100
AcDbEntity
  8
TEXT
100
AcDbPolyline
 90
        2
 70
     0
 43
0.0006660908203125
 10
0.0068845330379355
 20
0.2728623343297984
 10
-0.019759099774562
 20
0.2728623343297984
  0
LWPOLYLINE
  5
7DE1B343D9DEC78
330
7DE1B343D9DED98
100
AcDbEntity
  8
TEXT
100
AcDbPolyline
 90
        2
 70
     0
 43
0.0006660908203125
 10
0.0068845330379355
 20
0.3128277835485465
 10
-0.019759099774562
 20
0.3128277835485465
  0
LINE
  5
7DE1B343D9DEC7C
330
7DE1B343D9DED98
100
AcDbEntity
  8
TEXT
100
AcDbLine
 10
1.495431329351935
 20
0.3617865283449051
 30
0.0
 11
1.388225055964646
 21
0.3617865283449051
 31
0.0
  0
LINE
  5
7DE1B343D9DEC7D
330
7DE1B343D9DED98
100
AcDbEntity
  8
TEXT
100
AcDbLine
 10
1.524462227696413
 20
0.4260632230016706
 30
0.0
 11
1.389630318479354
 21
0.4260632230016706
 31
0.0
  0
ARC
  5
7DE1B343D9DEC7E
330
7DE1B343D9DED98
100
AcDbEntity
  8
TEXT
100
AcDbCircle
 10
1.448944414872671
 20
0.2568259737386542
 30
0.0
 40
0.0676855811441166
100
AcDbArc
 50
90.0
 51
153.7768192527749
  0
LWPOLYLINE
  5
7DE1B343D9DEC7F
330
7DE1B343D9DED98
100
AcDbEntity
  8
TEXT
100
AcDbPolyline
 90
        2
 70
     0
 43
0.0
 10
1.387192560509836
 20
0.2030811349635977
 42
0.2901071551932823
 10
1.430268493377471
 20
0.1595901900131595
 42
5.328517124445801
  0
ARC
  5
7DE1B343D9DEC83
330
7DE1B343D9DED98
100
AcDbEntity
  8
TEXT
100
AcDbCircle
 10
0.743813037201186
 20
0.2193825813512094
 30
0.0
 40
0.0601160179737537
100
AcDbArc
 50
180.0000000000003
 51
264.0521544866073
  0
LINE
  5
7DE1B343D9DEC84
330
7DE1B343D9DED98
100
AcDbEntity
  8
TEXT
100
AcDbLine
 10
0.7473283928267338
 20
0.4604511405958088
 30
0.0
 11
0.6872857879827268
 21
0.4604511405958088
 31
0.0
  0
ARC
  5
7DE1B343D9DEC85
330
7DE1B343D9DED98
100
AcDbEntity
  8
TEXT
100
AcDbCircle
 10
0.5115540350842154
 20
0.3439757635551688
 30
0.0
 40
0.0820874594465043
100
AcDbArc
 50
90.0
 51
270.0
  0
LWPOLYLINE
  5
7DE1B343D9DEC86
330
7DE1B343D9DED98
100
AcDbEntity
  8
TEXT
100
AcDbPolyline
 90
        2
 70
     0
 43
0.0001332181640625
 10
0.1034677019832508
 20
0.3527932327672945
 10
0.0934763396785603
 20
0.4260632230016741
  0
LWPOLYLINE
  5
7DE1B343D9DEC8A
330
7DE1B343D9DED98
100
AcDbEntity
  8
TEXT
100
AcDbPolyline
 90
        2
 70
     0
 43
0.0001332181640625
 10
0.0934763396785603
 20
0.399419590189173
 10
0.1034677019832508
 20
0.3394714163610475
  0
LWPOLYLINE
  5
7DE1B343D9DEC8E
330
7DE1B343D9DED98
100
AcDbEntity
  8
TEXT
100
AcDbPolyline
 90
        3
 70
     0
 43
0.0006660908203125
 10
0.2466772283504377
 20
0.3128277835485465
 10
0.2466772283504377
 20
0.4260632230016741
 10
0.1334417888973118
 20
0.4260632230016741
  0
LWPOLYLINE
  5
7DE1B343D9DEC93
330
7DE1B343D9DED98
100
AcDbEntity
  8
TEXT
100
AcDbPolyline
 90
        3
 70
     0
 43
0.0006660908203125
 10
0.2200335955379367
 20
0.3128277835485465
 10
0.2200335955379367
 20
0.399419590189173
 10
0.1334417888973118
 20
0.399419590189173
  0
LWPOLYLINE
  5
7DE1B343D9DEC98
330
7DE1B343D9DED98
100
AcDbEntity
  8
TEXT
100
AcDbPolyline
 90
        2
 70
     0
 43
0.0001332181640625
 10
0.2200335955379367
 20
0.399419590189173
 10
0.1600854217098129
 20
0.3394714163610475
  0
LWPOLYLINE
  5
7DE1B343D9DEC9C
330
7DE1B343D9DED98
100
AcDbEntity
  8
TEXT
100
AcDbPolyline
 90
        2
 70
     0
 43
0.0001332181640625
 10
0.1334417888973118
 20
0.399419590189173
 10
0.1234504265926231
 20
0.3394714163610475
  0
LWPOLYLINE
  5
7DE1B343D9DECA0
330
7DE1B343D9DED98
100
AcDbEntity
  8
TEXT
100
AcDbPolyline
 90
        2
 70
     0
 43
0.0001332181640625
 10
0.1334417888973118
 20
0.4260632230016741
 10
0.1234504265926231
 20
0.3527932327672945
  0
LWPOLYLINE
  5
7DE1B343D9DECA4
330
7DE1B343D9DED98
100
AcDbEntity
  8
TEXT
100
AcDbPolyline
 90
        2
 70
     0
 43
0.0001332181640625
 10
0.1734072381160616
 20
0.3028364212438577
 10
0.2466772283504377
 20
0.3128277835485465
  0
LWPOLYLINE
  5
7DE1B343D9DECA8
330
7DE1B343D9DED98
100
AcDbEntity
  8
TEXT
100
AcDbPolyline
 90
        2
 70
     0
 43
0.0001332181640625
 10
0.2200335955379367
 20
0.3128277835485465
 10
0.1600854217098129
 20
0.3028364212438577
  0
LWPOLYLINE
  5
7DE1B343D9DECAC
330
7DE1B343D9DED98
100
AcDbEntity
  8
TEXT
100
AcDbPolyline
 90
        2
 70
     0
 43
0.0001332181640625
 10
0.2466772283504377
 20
0.2728623343297984
 10
0.1734072381160616
 20
0.2828536966344837
  0
LWPOLYLINE
  5
7DE1B343D9DECB0
330
7DE1B343D9DED98
100
AcDbEntity
  8
TEXT
100
AcDbPolyline
 90
        2
 70
     0
 43
0.0001332181640625
 10
0.2200335955379367
 20
0.2728623343297984
 10
0.1600854217098129
 20
0.2828536966344837
  0
LWPOLYLINE
  5
7DE1B343D9DECB4
330
7DE1B343D9DED98
100
AcDbEntity
  8
TEXT
100
AcDbPolyline
 90
        2
 70
     0
 43
0.0001332181640625
 10
0.2200335955379367
 20
0.1862705276891718
 10
0.1600854217098129
 20
0.2462187015172974
  0
LWPOLYLINE
  5
7DE1B343D9DECB8
330
7DE1B343D9DED98
100
AcDbEntity
  8
TEXT
100
AcDbPolyline
 90
        3
 70
     0
 43
0.0006660908203125
 10
0.1334417888973118
 20
0.1862705276891718
 10
0.2200335955379367
 20
0.1862705276891718
 10
0.2200335955379367
 20
0.2728623343297984
  0
LWPOLYLINE
  5
7DE1B343D9DECBD
330
7DE1B343D9DED98
100
AcDbEntity
  8
TEXT
100
AcDbPolyline
 90
        3
 70
     0
 43
0.0006660908203125
 10
0.1334417888973118
 20
0.1596268948766708
 10
0.2466772283504377
 20
0.1596268948766708
 10
0.2466772283504377
 20
0.2728623343297984
  0
LWPOLYLINE
  5
7DE1B343D9DECC2
330
7DE1B343D9DED98
100
AcDbEntity
  8
TEXT
100
AcDbPolyline
 90
        5
 70
     0
 43
0.0001332181640625
 10
0.1034677019832508
 20
0.2328968851110469
 10
0.1034677019832508
 20
0.2462187015172974
 10
0.0668327068660628
 20
0.2462187015172974
 10
0.0668327068660628
 20
0.2828536966344837
 10
0.0535108904598123
 20
0.2828536966344837
  0
LWPOLYLINE
  5
7DE1B343D9DECC9
330
7DE1B343D9DED98
100
AcDbEntity
  8
TEXT
100
AcDbPolyline
 90
        2
 70
     0
 43
0.0006660908203125
 10
0.0934763396785603
 20
0.1862705276891718
 10
0.0934763396785603
 20
0.1596268948766708
  0
LWPOLYLINE
  5
7DE1B343D9DECCD
330
7DE1B343D9DED98
100
AcDbEntity
  8
TEXT
100
AcDbPolyline
 90
        2
 70
     0
 43
0.0001332181640625
 10
0.0934763396785603
 20
0.1862705276891718
 10
0.1034677019832508
 20
0.2462187015172974
  0
LWPOLYLINE
  5
7DE1B343D9DECD1
330
7DE1B343D9DED98
100
AcDbEntity
  8
TEXT
100
AcDbPolyline
 90
        2
 70
     0
 43
0.0001332181640625
 10
0.0934763396785603
 20
0.1596268948766708
 10
0.1034677019832508
 20
0.2328968851110469
  0
LWPOLYLINE
  5
7DE1B343D9DECD5
330
7DE1B343D9DED98
100
AcDbEntity
  8
TEXT
100
AcDbPolyline
 90
        5
 70
     0
 43
0.0001332181640625
 10
0.0535108904598123
 20
0.3028364212438577
 10
0.066832706866061
 20
0.3028364212438577
 10
0.066832706866061
 20
0.3394714163610475
 10
0.1034677019832508
 20
0.3394714163610475
 10
0.1034677019832508
 20
0.3527932327672945
  0
LWPOLYLINE
  5
7DE1B343D9DECDC
330
7DE1B343D9DED98
100
AcDbEntity
  8
TEXT
100
AcDbPolyline
 90
        5
 70
     0
 43
0.0001332181640625
 10
0.1234504265926231
 20
0.3527932327672945
 10
0.1234504265926231
 20
0.3394714163610475
 10
0.1600854217098129
 20
0.3394714163610475
 10
0.1600854217098129
 20
0.3028364212438577
 10
0.1734072381160616
 20
0.3028364212438577
  0
LWPOLYLINE
  5
7DE1B343D9DECE3
330
7DE1B343D9DED98
100
AcDbEntity
  8
TEXT
100
AcDbPolyline
 90
        2
 70
     0
 43
0.0001332181640625
 10
0.1334417888973118
 20
0.1862705276891718
 10
0.1234504265926231
 20
0.2462187015172974
  0
LWPOLYLINE
  5
7DE1B343D9DECE7
330
7DE1B343D9DED98
100
AcDbEntity
  8
TEXT
100
AcDbPolyline
 90
        2
 70
     0
 43
0.0001332181640625
 10
0.1234504265926231
 20
0.2328968851110469
 10
0.1334417888973118
 20
0.1596268948766708
  0
LWPOLYLINE
  5
7DE1B343D9DECEB
330
7DE1B343D9DED98
100
AcDbEntity
  8
TEXT
100
AcDbPolyline
 90
        2
 70
     0
 43
0.0006660908203125
 10
0.1334417888973118
 20
0.1862705276891718
 10
0.1334417888973118
 20
0.1596268948766708
  0
LWPOLYLINE
  5
7DE1B343D9DECEF
330
7DE1B343D9DED98
100
AcDbEntity
  8
TEXT
100
AcDbPolyline
 90
        5
 70
     0
 43
0.0001332181640625
 10
0.1734072381160616
 20
0.2828536966344837
 10
0.1600854217098129
 20
0.2828536966344837
 10
0.1600854217098129
 20
0.2462187015172974
 10
0.1234504265926231
 20
0.2462187015172974
 10
0.1234504265926231
 20
0.2328968851110469
  0
LWPOLYLINE
  5
7DE1B343D9DECF6
330
7DE1B343D9DED98
100
AcDbEntity
  8
TEXT
100
AcDbPolyline
 90
        2
 70
     0
 43
0.0006660908203125
 10
0.2200335955379367
 20
0.3128277835485465
 10
0.2466772283504377
 20
0.3128277835485465
  0
LWPOLYLINE
  5
7DE1B343D9DECFA
330
7DE1B343D9DED98
100
AcDbEntity
  8
TEXT
100
AcDbPolyline
 90
        2
 70
     0
 43
0.0006660908203125
 10
0.2200335955379367
 20
0.2728623343297984
 10
0.2466772283504377
 20
0.2728623343297984
  0
LINE
  5
7DE1B343D9DECFE
330
7DE1B343D9DED98
100
AcDbEntity
  8
TEXT
100
AcDbLine
 10
0.5167913651984626
 20
0.3617865283449051
 30
0.0
 11
0.6836970192274339
 21
0.3617865283449051
 31
0.0
  0
LINE
  5
7DE1B343D9DECFF
330
7DE1B343D9DED98
100
AcDbEntity
  8
TEXT
100
AcDbLine
 10
0.5823915014427637
 20
0.3259818067342772
 30
0.0
 11
0.5167913651984626
 21
0.3259818067342772
 31
0.0
  0
LINE
  5
7DE1B343D9DED00
330
7DE1B343D9DED98
100
AcDbEntity
  8
TEXT
100
AcDbLine
 10
0.429466575637711
 20
0.1595901900131595
 30
0.0
 11
0.5823915014427637
 21
0.1595901900131595
 31
0.0
  0
LINE
  5
7DE1B343D9DED01
330
7DE1B343D9DED98
100
AcDbEntity
  8
TEXT
100
AcDbLine
 10
0.5873318753490433
 20
0.2279471963465989
 30
0.0
 11
0.4294665756377092
 21
0.2279471963465989
 31
0.0
  0
LINE
  5
7DE1B343D9DED02
330
7DE1B343D9DED98
100
AcDbEntity
  8
TEXT
100
AcDbLine
 10
0.5115540350842145
 20
0.2618883041086635
 30
0.0
 11
0.5873318753490433
 21
0.2618883041086635
 31
0.0
  0
ARC
  5
7DE1B343D9DED03
330
7DE1B343D9DED98
100
AcDbEntity
  8
TEXT
100
AcDbCircle
 10
0.5167913651984635
 20
0.3438841675395929
 30
0.0
 40
0.017902360805315
100
AcDbArc
 50
90.0
 51
270.0
  0
LINE
  5
7DE1B343D9DED04
330
7DE1B343D9DED98
100
AcDbEntity
  8
TEXT
100
AcDbLine
 10
0.4294665756377092
 20
0.2279471963465989
 30
0.0
 11
0.429466575637711
 21
0.1595901900131595
 31
0.0
  0
LINE
  5
7DE1B343D9DED05
330
7DE1B343D9DED98
100
AcDbEntity
  8
TEXT
100
AcDbLine
 10
0.6836970192274339
 20
0.3617865283449051
 30
0.0
 11
0.6836970192274339
 21
0.2193825813512094
 31
0.0
  0
ARC
  5
7DE1B343D9DED06
330
7DE1B343D9DED98
100
AcDbEntity
  8
TEXT
100
AcDbCircle
 10
0.5823915014427646
 20
0.2427859983737166
 30
0.0
 40
0.0831958083605586
100
AcDbArc
 50
270.0
 51
90.0
  0
ARC
  5
7DE1B343D9DED07
330
7DE1B343D9DED98
100
AcDbEntity
  8
TEXT
100
AcDbCircle
 10
0.5873318753490442
 20
0.244917750227633
 30
0.0
 40
0.0169705538810321
100
AcDbArc
 50
270.0
 51
90.0
  0
LWPOLYLINE
  5
7DE1B343D9DED08
330
7DE1B343D9DED98
100
AcDbEntity
  8
TEXT
100
AcDbPolyline
 90
        2
 70
     0
 43
0.0006660908203125
 10
0.0934763396785603
 20
0.399419590189173
 10
0.0934763396785603
 20
0.4260632230016741
  0
LWPOLYLINE
  5
7DE1B343D9DED0C
330
7DE1B343D9DED98
100
AcDbEntity
  8
TEXT
100
AcDbPolyline
 90
        2
 70
     0
 43
0.0006660908203125
 10
0.1334417888973118
 20
0.399419590189173
 10
0.1334417888973118
 20
0.4260632230016741
  0
LINE
  5
7DE1B343D9DED10
330
7DE1B343D9DED98
100
AcDbEntity
  8
TEXT
100
AcDbLine
 10
0.6872857879827268
 20
0.4260632230016706
 30
0.0
 11
0.5115540350842145
 21
0.4260632230016706
 31
0.0
  0
LINE
  5
7DE1B343D9DED11
330
7DE1B343D9DED98
100
AcDbEntity
  8
TEXT
100
AcDbLine
 10
0.6872857879827268
 20
0.4604511405958088
 30
0.0
 11
0.6872857879827268
 21
0.4260632230016706
 31
0.0
  0
LINE
  5
7DE1B343D9DED12
330
7DE1B343D9DED98
100
AcDbEntity
  8
TEXT
100
AcDbLine
 10
0.8777576800025791
 20
0.32519122688855
 30
0.0
 11
0.8191273589706412
 21
0.4260632230016706
 31
0.0
  0
LINE
  5
7DE1B343D9DED13
330
7DE1B343D9DED98
100
AcDbEntity
  8
TEXT
100
AcDbLine
 10
0.9365062428084446
 20
0.4260632230016706
 30
0.0
 11
0.8777576800025791
 21
0.32519122688855
 31
0.0
  0
LINE
  5
7DE1B343D9DED14
330
7DE1B343D9DED98
100
AcDbEntity
  8
TEXT
100
AcDbLine
 10
1.033436868168185
 20
0.2419780281161588
 30
0.0
 11
1.033436868168185
 21
0.4940747007404811
 31
0.0
  0
LINE
  5
7DE1B343D9DED15
330
7DE1B343D9DED98
100
AcDbEntity
  8
TEXT
100
AcDbLine
 10
1.065748722305845
 20
0.4260632230016706
 30
0.0
 11
1.065748722305845
 21
0.2251990162692623
 31
0.0
  0
LINE
  5
7DE1B343D9DED16
330
7DE1B343D9DED98
100
AcDbEntity
  8
TEXT
100
AcDbLine
 10
1.065748722305845
 20
0.2251990162692623
 30
0.0
 11
1.048755085421244
 21
0.2251990162692623
 31
0.0
  0
LINE
  5
7DE1B343D9DED17
330
7DE1B343D9DED98
100
AcDbEntity
  8
TEXT
100
AcDbLine
 10
1.03457644166438
 20
0.1595901900131595
 30
0.0
 11
1.132579775363815
 21
0.1595901900131595
 31
0.0
  0
LINE
  5
7DE1B343D9DED18
330
7DE1B343D9DED98
100
AcDbEntity
  8
TEXT
100
AcDbLine
 10
0.8681574430056247
 20
0.1795486961181725
 30
0.0
 11
0.9654571490990694
 21
0.3438989070534406
 31
0.0
  0
ARC
  5
7DE1B343D9DED19
330
7DE1B343D9DED98
100
AcDbEntity
  8
TEXT
100
AcDbCircle
 10
0.8341138830934106
 20
0.1991379122868553
 30
0.0
 40
0.0392772371940762
100
AcDbArc
 50
270.1604552698595
 51
330.0831797321295
  0
LINE
  5
7DE1B343D9DED1A
330
7DE1B343D9DED98
100
AcDbEntity
  8
TEXT
100
AcDbLine
 10
0.7375836267075396
 20
0.1595901900131595
 30
0.0
 11
0.834223877782534
 21
0.1598608291114418
 31
0.0
  0
LWPOLYLINE
  5
7DE1B343D9DED1B
330
7DE1B343D9DED98
100
AcDbEntity
  8
TEXT
100
AcDbPolyline
 90
        6
 70
     1
 43
0.0
 10
0.7801074302826892
 20
0.3617865283449051
 10
0.749790836062481
 20
0.3617865283449051
 10
0.749790836062481
 20
0.2386755302900108
 42
0.407328721240804
 10
0.7613344872239574
 20
0.2268566156136247
 10
0.821956186268688
 20
0.2268566156136247
 10
0.839421526676006
 20
0.2596688446571038
  0
LINE
  5
7DE1B343D9DED23
330
7DE1B343D9DED98
100
AcDbEntity
  8
TEXT
100
AcDbLine
 10
0.9654571490990694
 20
0.3438989070534406
 30
0.0
 11
0.9654571490990694
 21
0.2111415322280843
 31
0.0
  0
ARC
  5
7DE1B343D9DED24
330
7DE1B343D9DED98
100
AcDbEntity
  8
TEXT
100
AcDbCircle
 10
1.048755085421242
 20
0.2405808225126877
 30
0.0
 40
0.0153818062434269
100
AcDbArc
 50
174.7883570302258
 51
270.0
  0
LWPOLYLINE
  5
7DE1B343D9DED25
330
7DE1B343D9DED98
100
AcDbEntity
  8
TEXT
100
AcDbPolyline
 90
        2
 70
     0
 43
0.0
 10
0.9654571490990676
 20
0.2111415322280878
 42
0.3318488747599744
 10
1.03457644166438
 20
0.1595901900131595
 42
-6.868794160588311
  0
LINE
  5
7DE1B343D9DED29
330
7DE1B343D9DED98
100
AcDbEntity
  8
TEXT
100
AcDbLine
 10
1.189968844353076
 20
0.1595901900131595
 30
0.0
 11
1.257026891134916
 21
0.1595901900131595
 31
0.0
  0
LINE
  5
7DE1B343D9DED2A
330
7DE1B343D9DED98
100
AcDbEntity
  8
TEXT
100
AcDbLine
 10
1.189968844353076
 20
0.3542327391787952
 30
0.0
 11
1.189968844353076
 21
0.1595901900131595
 31
0.0
  0
LINE
  5
7DE1B343D9DED2B
330
7DE1B343D9DED98
100
AcDbEntity
  8
TEXT
100
AcDbLine
 10
1.132579775363815
 20
0.3617865283449051
 30
0.0
 11
1.182415055186962
 21
0.3617865283449051
 31
0.0
  0
LINE
  5
7DE1B343D9DED2C
330
7DE1B343D9DED98
100
AcDbEntity
  8
TEXT
100
AcDbLine
 10
1.132579775363815
 20
0.1595901900131595
 30
0.0
 11
1.132579775363815
 21
0.3617865283449051
 31
0.0
  0
LWPOLYLINE
  5
7DE1B343D9DED2D
330
7DE1B343D9DED98
100
AcDbEntity
  8
TEXT
100
AcDbPolyline
 90
        2
 70
     0
 43
0.0
 10
1.18241505518696
 20
0.3617865283449051
 42
-0.4142135623731017
 10
1.189968844353074
 20
0.3542327391787952
 42
-0.9999999999999998
  0
LINE
  5
7DE1B343D9DED31
330
7DE1B343D9DED98
100
AcDbEntity
  8
TEXT
100
AcDbLine
 10
1.388225055964646
 20
0.3617865283449051
 30
0.0
 11
1.388225055964646
 21
0.2867341222706985
 31
0.0
  0
LINE
  5
7DE1B343D9DED32
330
7DE1B343D9DED98
100
AcDbEntity
  8
TEXT
100
AcDbLine
 10
1.257026891134916
 20
0.3617865283449051
 30
0.0
 11
1.311160488055866
 21
0.3617865283449051
 31
0.0
  0
LINE
  5
7DE1B343D9DED33
330
7DE1B343D9DED98
100
AcDbEntity
  8
TEXT
100
AcDbLine
 10
1.257026891134916
 20
0.1595901900131595
 30
0.0
 11
1.257026891134916
 21
0.3617865283449051
 31
0.0
  0
LWPOLYLINE
  5
7DE1B343D9DED34
330
7DE1B343D9DED98
100
AcDbEntity
  8
TEXT
100
AcDbPolyline
 90
        2
 70
     0
 43
0.0
 10
1.311160488055864
 20
0.3617865283449051
 42
-0.4142135623731017
 10
1.318714277221978
 20
0.3542327391787952
 42
-0.9999999999999998
  0
LWPOLYLINE
  5
7DE1B343D9DED38
330
7DE1B343D9DED98
100
AcDbEntity
  8
TEXT
100
AcDbPolyline
 90
        4
 70
     0
 43
0.0
 10
1.318714277221978
 20
0.3542327391787952
 10
1.318714277221978
 20
0.1595901900131595
 10
1.387192560509836
 20
0.1595901900131595
 10
1.387192560509836
 20
0.2030811349635977
 42
-1.714843617202739
  0
LINE
  5
7DE1B343D9DED3E
330
7DE1B343D9DED98
100
AcDbEntity
  8
TEXT
100
AcDbLine
 10
0.7473283928267338
 20
0.4260632230016706
 30
0.0
 11
0.7473283928267338
 21
0.4604511405958088
 31
0.0
  0
LINE
  5
7DE1B343D9DED3F
330
7DE1B343D9DED98
100
AcDbEntity
  8
TEXT
100
AcDbLine
 10
0.8191273589706412
 20
0.4260632230016706
 30
0.0
 11
0.7473283928267338
 21
0.4260632230016706
 31
0.0
  0
LINE
  5
7DE1B343D9DED40
330
7DE1B343D9DED98
100
AcDbEntity
  8
TEXT
100
AcDbLine
 10
0.9666281556018208
 20
0.4260632230016706
 30
0.0
 11
0.9365062428084446
 21
0.4260632230016706
 31
0.0
  0
LINE
  5
7DE1B343D9DED41
330
7DE1B343D9DED98
100
AcDbEntity
  8
TEXT
100
AcDbLine
 10
0.9666281556018208
 20
0.4940747007404811
 30
0.0
 11
0.9666281556018208
 21
0.4260632230016706
 31
0.0
  0
LINE
  5
7DE1B343D9DED42
330
7DE1B343D9DED98
100
AcDbEntity
  8
TEXT
100
AcDbLine
 10
1.033436868168185
 20
0.4940747007404811
 30
0.0
 11
0.9666281556018208
 21
0.4940747007404811
 31
0.0
  0
LWPOLYLINE
  5
7DE1B343D9DED43
330
7DE1B343D9DED98
100
AcDbEntity
  8
TEXT
100
AcDbPolyline
 90
        3
 70
     0
 43
0.0
 10
1.353848627766188
 20
0.4260632230016741
 10
1.235548468950143
 20
0.4260632230016741
 10
1.235548468950143
 20
0.3988957262407782
 42
-1.960274751411753
  0
LINE
  5
7DE1B343D9DED48
330
7DE1B343D9DED98
100
AcDbEntity
  8
TEXT
100
AcDbLine
 10
1.199766778236982
 20
0.4260632230016706
 30
0.0
 11
1.065748722305845
 21
0.4260632230016706
 31
0.0
  0
LWPOLYLINE
  5
7DE1B343D9DED49
330
7DE1B343D9DED98
100
AcDbEntity
  8
TEXT
100
AcDbPolyline
 90
        2
 70
     0
 43
0.0
 10
1.199766778236982
 20
0.4260632230016741
 42
-0.3328679258950098
 10
1.235548468950143
 20
0.3988957262407782
 42
6.772930709997214
  0
LINE
  5
7DE1B343D9DED4D
330
7DE1B343D9DED98
100
AcDbEntity
  8
TEXT
100
AcDbLine
 10
1.389630318479354
 20
0.4260632230016706
 30
0.0
 11
1.389630318479354
 21
0.3977406772320266
 31
0.0
  0
LWPOLYLINE
  5
7DE1B343D9DED4E
330
7DE1B343D9DED98
100
AcDbEntity
  8
TEXT
100
AcDbPolyline
 90
        2
 70
     0
 43
0.0
 10
1.353848627766188
 20
0.4260632230016741
 42
-0.3277054968067132
 10
1.389630318479353
 20
0.3977406772320302
 42
6.667889725900311
  0
LINE
  5
7DE1B343D9DED52
330
7DE1B343D9DED98
100
AcDbEntity
  8
TEXT
100
AcDbLine
 10
1.603422166571454
 20
0.3208512444482432
 30
0.0
 11
1.559671395389553
 21
0.4031015204443884
 31
0.0
  0
LINE
  5
7DE1B343D9DED53
330
7DE1B343D9DED98
100
AcDbEntity
  8
TEXT
100
AcDbLine
 10
1.603422166571454
 20
0.4260632230016706
 30
0.0
 11
1.603422166571454
 21
0.3208512444482432
 31
0.0
  0
LINE
  5
7DE1B343D9DED54
330
7DE1B343D9DED98
100
AcDbEntity
  8
TEXT
100
AcDbLine
 10
1.831105905509824
 20
0.3501978965901324
 30
0.0
 11
1.831105905509824
 21
0.4915274287692713
 31
0.0
  0
LINE
  5
7DE1B343D9DED55
330
7DE1B343D9DED98
100
AcDbEntity
  8
TEXT
100
AcDbLine
 10
1.878204064065808
 20
0.4260632230016706
 30
0.0
 11
1.831105905509824
 21
0.3501978965901324
 31
0.0
  0
LINE
  5
7DE1B343D9DED56
330
7DE1B343D9DED98
100
AcDbEntity
  8
TEXT
100
AcDbLine
 10
1.888638780829731
 20
0.316169980060697
 30
0.0
 11
1.953195896795436
 21
0.4260632230016706
 31
0.0
  0
LINE
  5
7DE1B343D9DED57
330
7DE1B343D9DED98
100
AcDbEntity
  8
TEXT
100
AcDbLine
 10
1.76727091428705
 20
0.1595901900131595
 30
0.0
 11
1.831649098605671
 21
0.1595901900131595
 31
0.0
  0
LWPOLYLINE
  5
7DE1B343D9DED58
330
7DE1B343D9DED98
100
AcDbEntity
  8
TEXT
100
AcDbPolyline
 90
        2
 70
     0
 43
0.0
 10
1.607361843876492
 20
0.2030811349635977
 42
-0.2901071551932486
 10
1.564285911008848
 20
0.1595901900131595
 42
-5.328517124445184
  0
ARC
  5
7DE1B343D9DED5C
330
7DE1B343D9DED98
100
AcDbEntity
  8
TEXT
100
AcDbCircle
 10
1.495431329351933
 20
0.3334271533449078
 30
0.0
 40
0.028359375
100
AcDbArc
 50
25.78218179591245
 51
90.0
  0
LINE
  5
7DE1B343D9DED5D
330
7DE1B343D9DED98
100
AcDbEntity
  8
TEXT
100
AcDbLine
 10
1.531232404656056
 20
0.3245115548827728
 30
0.0
 11
1.520967644242492
 21
0.3457620944554671
 31
0.0
  0
LINE
  5
7DE1B343D9DED5E
330
7DE1B343D9DED98
100
AcDbEntity
  8
TEXT
100
AcDbLine
 10
1.448944414872673
 20
0.3245115548827728
 30
0.0
 11
1.531232404656056
 21
0.3245115548827728
 31
0.0
  0
LWPOLYLINE
  5
7DE1B343D9DED5F
330
7DE1B343D9DED98
100
AcDbEntity
  8
TEXT
100
AcDbPolyline
 90
        4
 70
     1
 43
0.0
 10
1.544163445938955
 20
0.2625541679971848
 10
1.455503127279097
 20
0.2625541679971848
 42
0.9999999999999998
 10
1.455503127279097
 20
0.2201556274933241
 10
1.544163445938955
 20
0.2201556274933241
 42
1.0
  0
LWPOLYLINE
  5
7DE1B343D9DED65
330
7DE1B343D9DED98
100
AcDbEntity
  8
TEXT
100
AcDbPolyline
 90
        2
 70
     0
 43
0.0
 10
1.430268493377471
 20
0.1595901900131595
 10
1.564285911008848
 20
0.1595901900131595
 42
0.9999999999999998
  0
LINE
  5
7DE1B343D9DED69
330
7DE1B343D9DED98
100
AcDbEntity
  8
TEXT
100
AcDbLine
 10
1.690622932994487
 20
0.3617865283449051
 30
0.0
 11
1.767270914287045
 21
0.3617865283449051
 31
0.0
  0
LINE
  5
7DE1B343D9DED6A
330
7DE1B343D9DED98
100
AcDbEntity
  8
TEXT
100
AcDbLine
 10
1.767270914287045
 20
0.3617865283449051
 30
0.0
 11
1.76727091428705
 21
0.1595901900131595
 31
0.0
  0
ARC
  5
7DE1B343D9DED6B
330
7DE1B343D9DED98
100
AcDbEntity
  8
TEXT
100
AcDbCircle
 10
1.690622932994485
 20
0.3368806530622423
 30
0.0
 40
0.0249058752826653
100
AcDbArc
 50
89.99971217465335
 51
179.9999999999985
  0
LINE
  5
7DE1B343D9DED6C
330
7DE1B343D9DED98
100
AcDbEntity
  8
TEXT
100
AcDbLine
 10
1.665717057711828
 20
0.1595901900131595
 30
0.0
 11
1.665717057711823
 21
0.3368806954446279
 31
0.0
  0
LWPOLYLINE
  5
7DE1B343D9DED6D
330
7DE1B343D9DED98
100
AcDbEntity
  8
TEXT
100
AcDbPolyline
 90
        2
 70
     0
 43
0.0
 10
1.607361843876492
 20
0.1595901900131595
 10
1.665717057711826
 20
0.1595901900131595
  0
LWPOLYLINE
  5
7DE1B343D9DED71
330
7DE1B343D9DED98
100
AcDbEntity
  8
TEXT
100
AcDbPolyline
 90
        2
 70
     0
 43
0.0
 10
1.607361843876492
 20
0.2030811349635977
 10
1.607361843876492
 20
0.1595901900131595
  0
LINE
  5
7DE1B343D9DED75
330
7DE1B343D9DED98
100
AcDbEntity
  8
TEXT
100
AcDbLine
 10
1.984131004193341
 20
0.1595901900131595
 30
0.0
 11
1.888638780829731
 21
0.316169980060697
 31
0.0
  0
LINE
  5
7DE1B343D9DED76
330
7DE1B343D9DED98
100
AcDbEntity
  8
TEXT
100
AcDbLine
 10
1.907552631817135
 20
0.1595901900131595
 30
0.0
 11
1.984131004193341
 21
0.1595901900131595
 31
0.0
  0
LINE
  5
7DE1B343D9DED77
330
7DE1B343D9DED98
100
AcDbEntity
  8
TEXT
100
AcDbLine
 10
1.831649098605671
 20
0.2911697584893398
 30
0.0
 11
1.907552631817135
 21
0.1595901900131595
 31
0.0
  0
LINE
  5
7DE1B343D9DED78
330
7DE1B343D9DED98
100
AcDbEntity
  8
TEXT
100
AcDbLine
 10
1.831649098605671
 20
0.1595901900131595
 30
0.0
 11
1.831649098605671
 21
0.2911697584893398
 31
0.0
  0
LINE
  5
7DE1B343D9DED79
330
7DE1B343D9DED98
100
AcDbEntity
  8
TEXT
100
AcDbLine
 10
1.831105905509824
 20
0.4915274287692713
 30
0.0
 11
1.76279102696055
 21
0.4915274287692713
 31
0.0
  0
ARC
  5
7DE1B343D9DED7A
330
7DE1B343D9DED98
100
AcDbEntity
  8
TEXT
100
AcDbCircle
 10
1.522435287919344
 20
0.3844796558807681
 30
0.0
 40
0.0416329381542859
100
AcDbArc
 50
26.56974201007528
 51
87.20939649401342
  0
LINE
  5
7DE1B343D9DED7B
330
7DE1B343D9DED98
100
AcDbEntity
  8
TEXT
100
AcDbLine
 10
1.667319072870955
 20
0.4260632230016706
 30
0.0
 11
1.603422166571454
 21
0.4260632230016706
 31
0.0
  0
LINE
  5
7DE1B343D9DED7C
330
7DE1B343D9DED98
100
AcDbEntity
  8
TEXT
100
AcDbLine
 10
1.667319072870955
 20
0.3985155731407959
 30
0.0
 11
1.667319072870955
 21
0.4260632230016706
 31
0.0
  0
ARC
  5
7DE1B343D9DED7D
330
7DE1B343D9DED98
100
AcDbEntity
  8
TEXT
100
AcDbCircle
 10
1.698511889934063
 20
0.3948174957194057
 30
0.0
 40
0.0314112657011332
100
AcDbArc
 50
95.88484768694724
 51
173.2388340632136
  0
LINE
  5
7DE1B343D9DED7E
330
7DE1B343D9DED98
100
AcDbEntity
  8
TEXT
100
AcDbLine
 10
1.762791026960545
 20
0.4260632230016706
 30
0.0
 11
1.695291309311028
 21
0.4260632230016706
 31
0.0
  0
LINE
  5
7DE1B343D9DED7F
330
7DE1B343D9DED98
100
AcDbEntity
  8
TEXT
100
AcDbLine
 10
1.76279102696055
 20
0.4915274287692713
 30
0.0
 11
1.762791026960545
 21
0.4260632230016706
 31
0.0
  0
LINE
  5
7DE1B343D9DED80
330
7DE1B343D9DED98
100
AcDbEntity
  8
TEXT
100
AcDbLine
 10
1.953195896795436
 20
0.4260632230016706
 30
0.0
 11
1.87820406406581
 21
0.4260632230016706
 31
0.0
  0
INSERT
  5
7DE1B343D9DEDB3
330
7DE1B343D9DED98
100
AcDbEntity
  8
ASHADE
 62
     1
100
AcDbBlockReference
  2
AVE_RENDER
 10
0.0
 20
0.0
 30
0.0
1001
AVE_RENDER
1002
{
1070
     6
1000
Pref
1070
    30
1070
    20
1070
     1
1070
     0
1000

1070
    10
1070
     1
1070
    30
1040
1.0
1070
     1
1040
0.3
1040
0.7
1040
0.0
1040
10.0
1010
-1.0
1020
-1.0
1030
-1.0
1040
0.3
1070
    49
1070
     0
1070
     0
1010
1.0
1020
1.0
1030
1.0
1040
45.0
1070
     1
1070
     0
1000
WCS
1040
0.0
1002
}
  0
INSERT
  5
7DE1B343D9DEDB4
330
7DE1B343D9DED98
100
AcDbEntity
  8
ASHADE
 62
     3
100
AcDbBlockReference
  2
AVE_RENDER
 10
0.0
 20
0.0
 30
0.0
1001
AVE_RENDER
1002
{
1070
     0
1000
Full Opt
1070
     0
1070
     1
1070
     1
1070
     1
1070
     0
1070
     0
1070
     0
1070
     1
1070
     1
1040
0.0001
1040
0.0001
1002
}
  0
INSERT
  5
7DE1B343D9DEDB5
330
7DE1B343D9DED98
100
AcDbEntity
  8
ASHADE
 62
     4
100
AcDbBlockReference
  2
AVE_RENDER
 10
0.0
 20
0.0
 30
0.0
1001
AVE_RENDER
1002
{
1070
     0
1000
Quick Opt
1070
     0
1070
     1
1070
     1
1070
     1
1070
     0
1070
     0
1070
     1
1002
}
  0
INSERT
  5
7DE1B343D9DEDB6
330
7DE1B343D9DED98
100
AcDbEntity
  8
ASHADE
 62
     5
100
AcDbBlockReference
  2
AVE_RENDER
 10
0.0
 20
0.0
 30
0.0
1001
AVE_RENDER
1002
{
1070
     1
1000
Scanl Opt
1070
     2
1070
     0
1070
     2
1040
2.0
1040
4.0
1070
     0
1070
     1
1070
     0
1040
0.03
1002
}
  0
INSERT
  5
7DE1B343D9DEDB7
330
7DE1B343D9DED98
100
AcDbEntity
  8
ASHADE
 62
     6
100
AcDbBlockReference
  2
AVE_RENDER
 10
0.0
 20
0.0
 30
0.0
1001
AVE_RENDER
1002
{
1070
     2
1000
Raytr Opt
1070
     2
1070
     0
1070
     2
1040
2.0
1040
4.0
1070
     0
1070
     1
1070
     1
1040
0.03
1070
     3
1040
0.03
1002
}
  0
INSERT
  5
7DE1B343D9DEDB8
330
7DE1B343D9DED98
100
AcDbEntity
  8
ASHADE
 62
     7
100
AcDbBlockReference
  2
AVE_RENDER
 10
0.0
 20
0.0
 30
0.0
1001
AVE_RENDER
1002
{
1070
     0
1000
RFile Opt
1070
     5
1070
   640
1070
   480
1070
 10000
1070
     3
1070
    32
1070
    24
1070
     0
1070
     0
1070
     0
1070
     1
1070
     0
1070
     0
1070
     0
1002
}
  0
INSERT
  5
7DE1B343D9DEDB9
330
7DE1B343D9DED98
100
AcDbEntity
  8
ASHADE
 62
     8
100
AcDbBlockReference
  2
AVE_RENDER
 10
0.0
 20
0.0
 30
0.0
1001
AVE_RENDER
1002
{
1070
     0
1000
Fog Opt
1070
     0
1070
     0
1040
0.0
1040
1.0
1040
0.0
1040
1.0
1010
0.5
1020
0.5
1030
0.5
1002
}
  0
INSERT
  5
7DE1B343D9DEDBA
330
7DE1B343D9DED98
100
AcDbEntity
  8
ASHADE
 62
     9
100
AcDbBlockReference
  2
AVE_RENDER
 10
0.0
 20
0.0
 30
0.0
1001
AVE_RENDER
1002
{
1070
     0
1000
BG Opt
1070
     0
1070
     1
1010
0.0
1020
0.0
1030
0.0
1010
1.0
1020
0.0
1030
0.0
1010
0.0
1020
1.0
1030
0.0
1010
0.0
1020
0.0
1030
1.0
1040
0.5
1040
0.33
1040
0.0
1000

1070
     1
1000

1070
     1
1070
     1
1040
1.0
1040
1.0
1040
0.0
1040
0.0
1070
     0
1002
}
  0
INSERT
  5
7DE1B343D9DEDC1
330
7DE1B343D9DED98
100
AcDbEntity
  8
ASHADE
 62
     1
100
AcDbBlockReference
  2
AVE_GLOBAL
 10
0.0
 20
0.0
 30
0.0
1001
AVE_MATERIAL
1002
{
1000
*GLOBAL*
1000
1
1000
Global finish.
1002
{
1002
}
1002
{
1070
    63
1002
{
1002
{
1010
-1.0
1020
-1.0
1030
-1.0
1002
}
1040
0.1000000014901161
1000

1040
0.0
1002
{
1002
}
1040
0.0
1002
{
1002
}
1040
0.0
1002
}
1002
{
1002
{
1010
-1.0
1020
-1.0
1030
-1.0
1002
}
1040
0.6999999880790711
1000

1040
0.0
1002
{
1002
}
1040
0.0
1002
{
1002
}
1040
0.0
1002
}
1002
{
1002
{
1010
-1.0
1020
-1.0
1030
-1.0
1002
}
1040
0.2000000029802322
1000

1040
0.0
1002
{
1002
}
1040
0.0
1002
{
1002
}
1040
0.0
1002
}
1002
{
1070
     0
1002
{
1070
     1
1002
{
1040
1.0
1040
1.0
1000

1040
0.0
1002
{
1002
}
1040
0.0
1002
{
1002
}
1040
0.0
1002
}
1002
}
1040
1.0
1040
0.0
1040
0.0
1002
}
1002
{
1040
1.0
1040
1.0
1000

1040
0.0
1002
{
1002
}
1040
0.0
1002
{
1002
}
1040
0.0
1002
}
1002
{
1040
0.5
1040
1.0
1000

1040
0.0
1002
{
1002
}
1040
0.0
1002
{
1002
}
1040
0.0
1002
}
1002
{
1070
     0
1040
0.0
1002
{
1002
}
1040
1.0
1002
{
1002
}
1040
0.0
1002
}
1002
{
1040
0.0
1002
{
1002
{
1010
0.0
1020
0.0
1030
0.0
1002
}
1040
1.0
1000

1040
0.0
1002
{
1002
}
1040
0.0
1002
{
1002
}
1040
0.0
1002
}
1002
}
1002
{
1002
{
1070
     1
1002
{
1040
0.0
1040
1.0
1000

1040
0.0
1002
{
1002
}
1040
0.0
1002
{
1002
}
1040
0.0
1002
}
1002
}
1040
0.0
1002
{
1002
}
1010
1.0
1020
0.0
1030
0.0
1010
0.0
1020
1.0
1030
0.0
1010
0.0
1020
0.0
1030
1.0
1070
     0
1002
}
1002
{
1002
{
1040
1.0
1040
1.0
1002
{
1070
     1
1002
{
1040
1.0
1040
1.0
1000

1040
0.0
1002
{
1002
}
1040
0.0
1002
{
1002
}
1040
0.0
1002
}
1002
}
1002
}
1070
     0
1040
0.0
1002
{
1002
}
1002
}
1002
{
1002
}
1002
}
1002
{
1071
        3
1070
     3
1070
     0
1002
{
1070
     2
1070
     0
1070
     0
1040
0.0
1002
}
1070
     0
1070
     2
1002
{
1002
}
1002
}
1002
{
1040
8030.0
1040
190.3000030517578
1040
0.3050000071525574
1040
228.0
1040
545.0
1040
14.0
1040
17.39999961853027
1040
0.4560000002384186
1002
}
1002
}
  0
ENDSEC
  0
SECTION
  2
OBJECTS
  0
DICTIONARY
  5
7DE1B343D9DED8C
330
0
100
AcDbDictionary
  3
ACAD_GROUP
350
7DE1B343D9DED8D
  3
ACAD_LAYOUT
350
7DE1B343D9DEDCD
  3
ACAD_MLINESTYLE
350
7DE1B343D9DED8E
  3
ACAD_PLOTSETTINGS
350
7DE1B343D9DEDCE
  3
ACAD_PLOTSTYLENAME
350
7DE1B343D9DEDCB
  3
ACDBHEADERROUNDTRIPXREC
350
7DE1B343D9DEDD8
  3
ACDBVARIABLEDICTIONARY
350
7DE1B343D9DEDD5
  0
DICTIONARY
  5
7DE1B343D9DEDFA
330
7DE1B343D9DED98
100
AcDbDictionary
280
     1
  3
ACAD_LAYOUTSELFREF
360
7DE1B343D9DEDFB
  0
DICTIONARY
  5
7DE1B343D9DEDF8
330
7DE1B343D9DED95
100
AcDbDictionary
280
     1
  3
ACAD_LAYOUTSELFREF
360
7DE1B343D9DEDF9
  0
DICTIONARY
  5
7DE1B343D9DED8D
102
{ACAD_REACTORS
330
7DE1B343D9DED8C
102
}
330
7DE1B343D9DED8C
100
AcDbDictionary
  0
DICTIONARY
  5
7DE1B343D9DEDCD
102
{ACAD_REACTORS
330
7DE1B343D9DED8C
102
}
330
7DE1B343D9DED8C
100
AcDbDictionary
  0
DICTIONARY
  5
7DE1B343D9DED8E
102
{ACAD_REACTORS
330
7DE1B343D9DED8C
102
}
330
7DE1B343D9DED8C
100
AcDbDictionary
  3
STANDARD
350
7DE1B343D9DED9B
  0
DICTIONARY
  5
7DE1B343D9DEDCE
102
{ACAD_REACTORS
330
7DE1B343D9DED8C
102
}
330
7DE1B343D9DED8C
100
AcDbDictionary
  0
ACDBDICTIONARYWDFLT
  5
7DE1B343D9DEDCB
102
{ACAD_REACTORS
330
7DE1B343D9DED8C
102
}
330
7DE1B343D9DED8C
100
AcDbDictionary
281
     1
  3
Normal
350
7DE1B343D9DEDCC
100
AcDbDictionaryWithDefault
340
7DE1B343D9DEDCC
  0
DICTIONARY
  5
7DE1B343D9DEDD8
102
{ACAD_REACTORS
330
7DE1B343D9DED8C
102
}
330
7DE1B343D9DED8C
100
AcDbDictionary
  3
CEPSNTYPE
350
7DE1B343D9DEDE2
  3
FINGERPRINTGUID
350
7DE1B343D9DEDE3
  3
HYPERLINKBASE
350
7DE1B343D9DEDDB
  3
INSUNITS
350
7DE1B343D9DEDE1
  3
LAYOUTDICT
350
7DE1B343D9DEDDD
  3
LWETCUNION
350
7DE1B343D9DEDE0
  3
PLOTSETDICT
350
7DE1B343D9DEDDE
  3
PLOTSTYLNAMDICT
350
7DE1B343D9DEDDF
  3
PSVPSCALE
350
7DE1B343D9DEDE5
  3
PUCSBASE
350
7DE1B343D9DEDE8
  3
PUCSORGBACK
350
7DE1B343D9DEDEE
  3
PUCSORGBOTTOM
350
7DE1B343D9DEDEA
  3
PUCSORGFRONT
350
7DE1B343D9DEDED
  3
PUCSORGLEFT
350
7DE1B343D9DEDEB
  3
PUCSORGRIGHT
350
7DE1B343D9DEDEC
  3
PUCSORGTOP
350
7DE1B343D9DEDE9
  3
PUCSORTHOREF
350
7DE1B343D9DEDE6
  3
PUCSORTHOVIEW
350
7DE1B343D9DEDE7
  3
STYLESHEET
350
7DE1B343D9DEDDC
  3
TSTACKALIGN
350
7DE1B343D9DEDD9
  3
TSTACKSIZE
350
7DE1B343D9DEDDA
  3
UCSBASE
350
7DE1B343D9DEDF1
  3
UCSORGBACK
350
7DE1B343D9DEDF7
  3
UCSORGBOTTOM
350
7DE1B343D9DEDF3
  3
UCSORGFRONT
350
7DE1B343D9DEDF6
  3
UCSORGLEFT
350
7DE1B343D9DEDF4
  3
UCSORGRIGHT
350
7DE1B343D9DEDF5
  3
UCSORGTOP
350
7DE1B343D9DEDF2
  3
UCSORTHOREF
350
7DE1B343D9DEDEF
  3
UCSORTHOVIEW
350
7DE1B343D9DEDF0
  3
VERSIONGUID
350
7DE1B343D9DEDE4
  0
DICTIONARY
  5
7DE1B343D9DEDD5
102
{ACAD_REACTORS
330
7DE1B343D9DED8C
102
}
330
7DE1B343D9DED8C
100
AcDbDictionary
  3
DIMASSOC
350
7DE1B343D9DEDD6
  0
XRECORD
  5
7DE1B343D9DEDFB
102
{ACAD_REACTORS
330
7DE1B343D9DEDFA
102
}
330
7DE1B343D9DEDFA
100
AcDbXrecord
340
7DE1B343D9DED98
  0
XRECORD
  5
7DE1B343D9DEDF9
102
{ACAD_REACTORS
330
7DE1B343D9DEDF8
102
}
330
7DE1B343D9DEDF8
100
AcDbXrecord
340
7DE1B343D9DED95
  0
MLINESTYLE
  5
7DE1B343D9DED9B
102
{ACAD_REACTORS
330
7DE1B343D9DED8E
102
}
330
7DE1B343D9DED8E
100
AcDbMlineStyle
  2
STANDARD
 70
     0
  3

 62
     0
 51
90.0
 52
90.0
 71
     2
 49
0.5
 62
   256
  6
BYLAYER
 49
-0.5
 62
   256
  6
BYLAYER
  0
ACDBPLACEHOLDER
  5
7DE1B343D9DEDCC
102
{ACAD_REACTORS
330
7DE1B343D9DEDCB
102
}
330
7DE1B343D9DEDCB
100
AcDbPlaceHolder
280
     0
  0
XRECORD
  5
7DE1B343D9DEDE2
102
{ACAD_REACTORS
330
7DE1B343D9DEDD8
102
}
330
7DE1B343D9DEDD8
100
AcDbXrecord
 90
        0
  0
XRECORD
  5
7DE1B343D9DEDE3
102
{ACAD_REACTORS
330
7DE1B343D9DEDD8
102
}
330
7DE1B343D9DEDD8
100
AcDbXrecord
  1
{4B923BD0-8DB5-11D6-88E6-0090279574E7}
  0
XRECORD
  5
7DE1B343D9DEDDB
102
{ACAD_REACTORS
330
7DE1B343D9DEDD8
102
}
330
7DE1B343D9DEDD8
100
AcDbXrecord
  1

  0
XRECORD
  5
7DE1B343D9DEDE1
102
{ACAD_REACTORS
330
7DE1B343D9DEDD8
102
}
330
7DE1B343D9DEDD8
100
AcDbXrecord
 90
        0
  0
XRECORD
  5
7DE1B343D9DEDDD
102
{ACAD_REACTORS
330
7DE1B343D9DEDD8
102
}
330
7DE1B343D9DEDD8
100
AcDbXrecord
340
7DE1B343D9DEDCD
  0
XRECORD
  5
7DE1B343D9DEDE0
102
{ACAD_REACTORS
330
7DE1B343D9DEDD8
102
}
330
7DE1B343D9DEDD8
100
AcDbXrecord
 90
    14877
  0
XRECORD
  5
7DE1B343D9DEDDE
102
{ACAD_REACTORS
330
7DE1B343D9DEDD8
102
}
330
7DE1B343D9DEDD8
100
AcDbXrecord
340
7DE1B343D9DEDCE
  0
XRECORD
  5
7DE1B343D9DEDDF
102
{ACAD_REACTORS
330
7DE1B343D9DEDD8
102
}
330
7DE1B343D9DEDD8
100
AcDbXrecord
340
7DE1B343D9DEDCB
  0
XRECORD
  5
7DE1B343D9DEDE5
102
{ACAD_REACTORS
330
7DE1B343D9DEDD8
102
}
330
7DE1B343D9DEDD8
100
AcDbXrecord
 40
0.0
  0
XRECORD
  5
7DE1B343D9DEDE8
102
{ACAD_REACTORS
330
7DE1B343D9DEDD8
102
}
330
7DE1B343D9DEDD8
100
AcDbXrecord
340
0
  0
XRECORD
  5
7DE1B343D9DEDEE
102
{ACAD_REACTORS
330
7DE1B343D9DEDD8
102
}
330
7DE1B343D9DEDD8
100
AcDbXrecord
 10
0.0
 20
0.0
 30
0.0
  0
XRECORD
  5
7DE1B343D9DEDEA
102
{ACAD_REACTORS
330
7DE1B343D9DEDD8
102
}
330
7DE1B343D9DEDD8
100
AcDbXrecord
 10
0.0
 20
0.0
 30
0.0
  0
XRECORD
  5
7DE1B343D9DEDED
102
{ACAD_REACTORS
330
7DE1B343D9DEDD8
102
}
330
7DE1B343D9DEDD8
100
AcDbXrecord
 10
0.0
 20
0.0
 30
0.0
  0
XRECORD
  5
7DE1B343D9DEDEB
102
{ACAD_REACTORS
330
7DE1B343D9DEDD8
102
}
330
7DE1B343D9DEDD8
100
AcDbXrecord
 10
0.0
 20
0.0
 30
0.0
  0
XRECORD
  5
7DE1B343D9DEDEC
102
{ACAD_REACTORS
330
7DE1B343D9DEDD8
102
}
330
7DE1B343D9DEDD8
100
AcDbXrecord
 10
0.0
 20
0.0
 30
0.0
  0
XRECORD
  5
7DE1B343D9DEDE9
102
{ACAD_REACTORS
330
7DE1B343D9DEDD8
102
}
330
7DE1B343D9DEDD8
100
AcDbXrecord
 10
0.0
 20
0.0
 30
0.0
  0
XRECORD
  5
7DE1B343D9DEDE6
102
{ACAD_REACTORS
330
7DE1B343D9DEDD8
102
}
330
7DE1B343D9DEDD8
100
AcDbXrecord
340
0
  0
XRECORD
  5
7DE1B343D9DEDE7
102
{ACAD_REACTORS
330
7DE1B343D9DEDD8
102
}
330
7DE1B343D9DEDD8
100
AcDbXrecord
 70
     0
  0
XRECORD
  5
7DE1B343D9DEDDC
102
{ACAD_REACTORS
330
7DE1B343D9DEDD8
102
}
330
7DE1B343D9DEDD8
100
AcDbXrecord
  1

  0
XRECORD
  5
7DE1B343D9DEDD9
102
{ACAD_REACTORS
330
7DE1B343D9DEDD8
102
}
330
7DE1B343D9DEDD8
100
AcDbXrecord
 90
        1
  0
XRECORD
  5
7DE1B343D9DEDDA
102
{ACAD_REACTORS
330
7DE1B343D9DEDD8
102
}
330
7DE1B343D9DEDD8
100
AcDbXrecord
 90
       70
  0
XRECORD
  5
7DE1B343D9DEDF1
102
{ACAD_REACTORS
330
7DE1B343D9DEDD8
102
}
330
7DE1B343D9DEDD8
100
AcDbXrecord
340
0
  0
XRECORD
  5
7DE1B343D9DEDF7
102
{ACAD_REACTORS
330
7DE1B343D9DEDD8
102
}
330
7DE1B343D9DEDD8
100
AcDbXrecord
 10
0.0
 20
0.0
 30
0.0
  0
XRECORD
  5
7DE1B343D9DEDF3
102
{ACAD_REACTORS
330
7DE1B343D9DEDD8
102
}
330
7DE1B343D9DEDD8
100
AcDbXrecord
 10
0.0
 20
0.0
 30
0.0
  0
XRECORD
  5
7DE1B343D9DEDF6
102
{ACAD_REACTORS
330
7DE1B343D9DEDD8
102
}
330
7DE1B343D9DEDD8
100
AcDbXrecord
 10
0.0
 20
0.0
 30
0.0
  0
XRECORD
  5
7DE1B343D9DEDF4
102
{ACAD_REACTORS
330
7DE1B343D9DEDD8
102
}
330
7DE1B343D9DEDD8
100
AcDbXrecord
 10
0.0
 20
0.0
 30
0.0
  0
XRECORD
  5
7DE1B343D9DEDF5
102
{ACAD_REACTORS
330
7DE1B343D9DEDD8
102
}
330
7DE1B343D9DEDD8
100
AcDbXrecord
 10
0.0
 20
0.0
 30
0.0
  0
XRECORD
  5
7DE1B343D9DEDF2
102
{ACAD_REACTORS
330
7DE1B343D9DEDD8
102
}
330
7DE1B343D9DEDD8
100
AcDbXrecord
 10
0.0
 20
0.0
 30
0.0
  0
XRECORD
  5
7DE1B343D9DEDEF
102
{ACAD_REACTORS
330
7DE1B343D9DEDD8
102
}
330
7DE1B343D9DEDD8
100
AcDbXrecord
340
0
  0
XRECORD
  5
7DE1B343D9DEDF0
102
{ACAD_REACTORS
330
7DE1B343D9DEDD8
102
}
330
7DE1B343D9DEDD8
100
AcDbXrecord
 70
     0
  0
XRECORD
  5
7DE1B343D9DEDE4
102
{ACAD_REACTORS
330
7DE1B343D9DEDD8
102
}
330
7DE1B343D9DEDD8
100
AcDbXrecord
  1
{4B923BD2-8DB5-11D6-88E6-0090279574E7}
  0
DICTIONARYVAR
  5
7DE1B343D9DEDD6
102
{ACAD_REACTORS
330
7DE1B343D9DEDD5
102
}
330
7DE1B343D9DEDD5
100
DictionaryVariables
280
     0
  1
1
  0
ENDSEC
  0
EOF
