  0
SECTION
  2
HEADER
  9
$ACADVER
  1
AC1014
  9
$ACADMAINTVER
 70
     9
  9
$DWGCODEPAGE
  3
ANSI_1252
  9
$INSBASE
 10
1.708849164859773
 20
1.823531289184852
 30
0.0
  9
$EXTMIN
 10
-0.0341324143673696
 20
0.6083595678449459
 30
0.0
  9
$EXTMAX
 10
3.451086907379758
 20
1.830003376096932
 30
0.0
  9
$LIMMIN
 10
0.0
 20
0.0
  9
$LIMMAX
 10
18.0
 20
12.0
  9
$ORTHOMODE
 70
     1
  9
$REGENMODE
 70
     1
  9
$FILLMODE
 70
     1
  9
$QTEXTMODE
 70
     0
  9
$MIRRTEXT
 70
     0
  9
$DRAGMODE
 70
     2
  9
$LTSCALE
 40
1.0
  9
$OSMODE
 70
    39
  9
$ATTMODE
 70
     1
  9
$TEXTSIZE
 40
0.125
  9
$TRACEWID
 40
0.05
  9
$TEXTSTYLE
  7
ROMANS
  9
$CLAYER
  8
0
  9
$CELTYPE
  6
BYLAYER
  9
$CECOLOR
 62
   256
  9
$CELTSCALE
 40
1.0
  9
$DELOBJ
 70
     1
  9
$DISPSILH
 70
     1
  9
$DIMSCALE
 40
1.0
  9
$DIMASZ
 40
0.125
  9
$DIMEXO
 40
0.125
  9
$DIMDLI
 40
0.375
  9
$DIMRND
 40
0.0
  9
$DIMDLE
 40
0.0
  9
$DIMEXE
 40
0.125
  9
$DIMTP
 40
0.0
  9
$DIMTM
 40
0.0
  9
$DIMTXT
 40
0.125
  9
$DIMCEN
 40
-0.125
  9
$DIMTSZ
 40
0.0
  9
$DIMTOL
 70
     0
  9
$DIMLIM
 70
     0
  9
$DIMTIH
 70
     1
  9
$DIMTOH
 70
     1
  9
$DIMSE1
 70
     0
  9
$DIMSE2
 70
     0
  9
$DIMTAD
 70
     0
  9
$DIMZIN
 70
     4
  9
$DIMBLK
  1

  9
$DIMASO
 70
     1
  9
$DIMSHO
 70
     1
  9
$DIMPOST
  1

  9
$DIMAPOST
  1

  9
$DIMALT
 70
     0
  9
$DIMALTD
 70
     2
  9
$DIMALTF
 40
25.4
  9
$DIMLFAC
 40
1.0
  9
$DIMTOFL
 70
     0
  9
$DIMTVP
 40
0.0
  9
$DIMTIX
 70
     1
  9
$DIMSOXD
 70
     0
  9
$DIMSAH
 70
     0
  9
$DIMBLK1
  1

  9
$DIMBLK2
  1

  9
$DIMSTYLE
  2
STANDARD
  9
$DIMCLRD
 70
     0
  9
$DIMCLRE
 70
     0
  9
$DIMCLRT
 70
     0
  9
$DIMTFAC
 40
1.0
  9
$DIMGAP
 40
0.09
  9
$DIMJUST
 70
     0
  9
$DIMSD1
 70
     0
  9
$DIMSD2
 70
     0
  9
$DIMTOLJ
 70
     1
  9
$DIMTZIN
 70
     4
  9
$DIMALTZ
 70
     0
  9
$DIMALTTZ
 70
     0
  9
$DIMFIT
 70
     3
  9
$DIMUPT
 70
     0
  9
$DIMUNIT
 70
     2
  9
$DIMDEC
 70
     3
  9
$DIMTDEC
 70
     3
  9
$DIMALTU
 70
     2
  9
$DIMALTTD
 70
     2
  9
$DIMTXSTY
  7
ROMANS
  9
$DIMAUNIT
 70
     0
  9
$LUNITS
 70
     2
  9
$LUPREC
 70
     3
  9
$SKETCHINC
 40
0.1
  9
$FILLETRAD
 40
0.03125
  9
$AUNITS
 70
     0
  9
$AUPREC
 70
     0
  9
$MENU
  1
ACAD
  9
$ELEVATION
 40
0.0
  9
$PELEVATION
 40
0.0
  9
$THICKNESS
 40
0.0
  9
$LIMCHECK
 70
     0
  9
$BLIPMODE
 70
     0
  9
$CHAMFERA
 40
0.0
  9
$CHAMFERB
 40
0.0
  9
$CHAMFERC
 40
0.0
  9
$CHAMFERD
 40
0.0
  9
$SKPOLY
 70
     0
  9
$TDCREATE
 40
2448994.477362847
  9
$TDUPDATE
 40
2452458.301861111
  9
$TDINDWG
 40
0.0007796875
  9
$TDUSRTIMER
 40
0.0007796875
  9
$USRTIMER
 70
     1
  9
$ANGBASE
 50
0.0
  9
$ANGDIR
 70
     0
  9
$PDMODE
 70
     0
  9
$PDSIZE
 40
0.0
  9
$PLINEWID
 40
0.0
  9
$COORDS
 70
     2
  9
$SPLFRAME
 70
     0
  9
$SPLINETYPE
 70
     6
  9
$SPLINESEGS
 70
     8
  9
$ATTDIA
 70
     0
  9
$ATTREQ
 70
     1
  9
$HANDLING
 70
 22529
  9
$HANDSEED
  5
7DE1B343D9DE9E7
  9
$SURFTAB1
 70
     6
  9
$SURFTAB2
 70
     6
  9
$SURFTYPE
 70
     6
  9
$SURFU
 70
     6
  9
$SURFV
 70
     6
  9
$UCSNAME
  2

  9
$UCSORG
 10
0.0
 20
0.0
 30
0.0
  9
$UCSXDIR
 10
1.0
 20
0.0
 30
0.0
  9
$UCSYDIR
 10
0.0
 20
1.0
 30
0.0
  9
$PUCSNAME
  2

  9
$PUCSORG
 10
0.0
 20
0.0
 30
0.0
  9
$PUCSXDIR
 10
1.0
 20
0.0
 30
0.0
  9
$PUCSYDIR
 10
0.0
 20
1.0
 30
0.0
  9
$USERI1
 70
     0
  9
$USERI2
 70
     0
  9
$USERI3
 70
     0
  9
$USERI4
 70
     0
  9
$USERI5
 70
     0
  9
$USERR1
 40
0.0
  9
$USERR2
 40
0.0
  9
$USERR3
 40
0.0
  9
$USERR4
 40
0.0
  9
$USERR5
 40
0.0
  9
$WORLDVIEW
 70
     1
  9
$SHADEDGE
 70
     3
  9
$SHADEDIF
 70
    70
  9
$TILEMODE
 70
     1
  9
$MAXACTVP
 70
    16
  9
$PINSBASE
 10
0.0
 20
0.0
 30
0.0
  9
$PLIMCHECK
 70
     0
  9
$PEXTMIN
 10
1.000000000000000E+20
 20
1.000000000000000E+20
 30
1.000000000000000E+20
  9
$PEXTMAX
 10
-1.000000000000000E+20
 20
-1.000000000000000E+20
 30
-1.000000000000000E+20
  9
$PLIMMIN
 10
0.0
 20
0.0
  9
$PLIMMAX
 10
12.0
 20
9.0
  9
$UNITMODE
 70
     0
  9
$VISRETAIN
 70
     0
  9
$PLINEGEN
 70
     1
  9
$PSLTSCALE
 70
     0
  9
$TREEDEPTH
 70
  3020
  9
$PICKSTYLE
 70
     1
  9
$CMLSTYLE
  2
STANDARD
  9
$CMLJUST
 70
     0
  9
$CMLSCALE
 40
1.0
  9
$PROXYGRAPHICS
 70
     1
  9
$MEASUREMENT
 70
     0
  0
ENDSEC
  0
SECTION
  2
CLASSES
  0
CLASS
  1
LWPOLYLINE
  2
AcDbPolyline
  3
AutoCAD 2000
 90
        0
280
     0
281
     1
  0
CLASS
  1
ACDBDICTIONARYWDFLT
  2
AcDbDictionaryWithDefault
  3
AutoCAD 2000
 90
        0
280
     0
281
     0
  0
CLASS
  1
ACDBPLACEHOLDER
  2
AcDbPlaceHolder
  3
AutoCAD 2000
 90
        0
280
     0
281
     0
  0
CLASS
  1
LAYOUT
  2
AcDbLayout
  3
AutoCAD 2000
 90
        0
280
     0
281
     0
  0
CLASS
  1
DICTIONARYVAR
  2
AcDbDictionaryVar
  3
AutoCAD 2000
 90
        0
280
     0
281
     0
  0
CLASS
  1
LONG_TRANSACTION
  2
AcDbLongTransaction
  3
AutoCAD 2000
 90
        0
280
     0
281
     0
  0
CLASS
  1
LWPOLYLINE
  2
AcDbPolyline
  3
AutoCAD 2000
 90
        0
280
     0
281
     1
  0
CLASS
  1
HATCH
  2
AcDbHatch
  3
AutoCAD 2000
 90
        0
280
     0
281
     1
  0
CLASS
  1
XRECORD
  2
AcDbXrecord
  3
AutoCAD 2000
 90
        0
280
     0
281
     0
  0
ENDSEC
  0
SECTION
  2
TABLES
  0
TABLE
  2
VPORT
  5
7DE1B343D9DE973
330
0
100
AcDbSymbolTable
 70
     2
  0
VPORT
  5
7DE1B343D9DE9C2
330
7DE1B343D9DE973
100
AcDbSymbolTableRecord
100
AcDbViewportTableRecord
  2
*ACTIVE
 70
     0
 10
0.0
 20
0.0
 11
1.0
 21
1.0
 12
4.684684169152518
 22
1.219116233311495
 13
0.0
 23
0.0
 14
0.015625
 24
0.015625
 15
0.0
 25
0.0
 16
0.0
 26
0.0
 36
1.0
 17
0.0
 27
0.0
 37
0.0
 40
2.282471980319977
 41
4.320930232558139
 42
50.0
 43
0.0
 44
0.0
 50
0.0
 51
0.0
 71
     0
 72
  2000
 73
     1
 74
     0
 75
     0
 76
     0
 77
     0
 78
     0
  0
ENDTAB
  0
TABLE
  2
LTYPE
  5
7DE1B343D9DE970
330
0
100
AcDbSymbolTable
 70
     1
  0
LTYPE
  5
7DE1B343D9DE97D
330
7DE1B343D9DE970
100
AcDbSymbolTableRecord
100
AcDbLinetypeTableRecord
  2
BYBLOCK
 70
     0
  3

 72
    65
 73
     0
 40
0.0
  0
LTYPE
  5
7DE1B343D9DE97E
330
7DE1B343D9DE970
100
AcDbSymbolTableRecord
100
AcDbLinetypeTableRecord
  2
BYLAYER
 70
     0
  3

 72
    65
 73
     0
 40
0.0
  0
LTYPE
  5
7DE1B343D9DE97F
330
7DE1B343D9DE970
100
AcDbSymbolTableRecord
100
AcDbLinetypeTableRecord
  2
CONTINUOUS
 70
     0
  3
Solid line
 72
    65
 73
     0
 40
0.0
  0
ENDTAB
  0
TABLE
  2
LAYER
  5
7DE1B343D9DE96D
330
0
100
AcDbSymbolTable
 70
     3
  0
LAYER
  5
7DE1B343D9DE97A
330
7DE1B343D9DE96D
100
AcDbSymbolTableRecord
100
AcDbLayerTableRecord
  2
0
 70
     0
 62
     7
  6
CONTINUOUS
  0
LAYER
  5
7DE1B343D9DE98A
330
7DE1B343D9DE96D
100
AcDbSymbolTableRecord
100
AcDbLayerTableRecord
  2
TEXT
 70
     0
 62
     3
  6
CONTINUOUS
  0
LAYER
  5
7DE1B343D9DE99A
330
7DE1B343D9DE96D
100
AcDbSymbolTableRecord
100
AcDbLayerTableRecord
  2
ASHADE
 70
     4
 62
     7
  6
CONTINUOUS
  0
ENDTAB
  0
TABLE
  2
STYLE
  5
7DE1B343D9DE96E
330
0
100
AcDbSymbolTable
 70
     4
  0
STYLE
  5
7DE1B343D9DE97B
330
7DE1B343D9DE96E
100
AcDbSymbolTableRecord
100
AcDbTextStyleTableRecord
  2
STANDARD
 70
     0
 40
0.0
 41
1.0
 50
0.0
 71
     0
 42
0.3125
  3
txt
  4

  0
STYLE
  5
7DE1B343D9DE987
330
7DE1B343D9DE96E
100
AcDbSymbolTableRecord
100
AcDbTextStyleTableRecord
  2
ITALICC
 70
     0
 40
0.0
 41
1.0
 50
0.0
 71
     0
 42
0.125
  3
italicc
  4

  0
STYLE
  5
7DE1B343D9DE997
330
7DE1B343D9DE96E
100
AcDbSymbolTableRecord
100
AcDbTextStyleTableRecord
  2
ASHADE
 70
     0
 40
0.2
 41
1.0
 50
0.0
 71
     0
 42
0.3125
  3
simplex
  4

  0
STYLE
  5
7DE1B343D9DE9B2
330
7DE1B343D9DE96E
100
AcDbSymbolTableRecord
100
AcDbTextStyleTableRecord
  2
ROMANS
 70
     0
 40
0.0
 41
1.0
 50
0.0
 71
     0
 42
0.125
  3
romans.shx
  4

  0
ENDTAB
  0
TABLE
  2
VIEW
  5
7DE1B343D9DE971
330
0
100
AcDbSymbolTable
 70
     0
  0
ENDTAB
  0
TABLE
  2
UCS
  5
7DE1B343D9DE972
330
0
100
AcDbSymbolTable
 70
     0
  0
ENDTAB
  0
TABLE
  2
APPID
  5
7DE1B343D9DE974
330
0
100
AcDbSymbolTable
 70
     6
  0
APPID
  5
7DE1B343D9DE97C
330
7DE1B343D9DE974
100
AcDbSymbolTableRecord
100
AcDbRegAppTableRecord
  2
ACAD
 70
     0
  0
APPID
  5
7DE1B343D9DE998
330
7DE1B343D9DE974
100
AcDbSymbolTableRecord
100
AcDbRegAppTableRecord
  2
AVE_RENDER
 70
     0
  0
APPID
  5
7DE1B343D9DE999
330
7DE1B343D9DE974
100
AcDbSymbolTableRecord
100
AcDbRegAppTableRecord
  2
AVE_ENTITY_MATERIAL
 70
     0
  0
APPID
  5
7DE1B343D9DE9A6
330
7DE1B343D9DE974
100
AcDbSymbolTableRecord
100
AcDbRegAppTableRecord
  2
AVE_FINISH
 70
     0
  0
APPID
  5
7DE1B343D9DE9A7
330
7DE1B343D9DE974
100
AcDbSymbolTableRecord
100
AcDbRegAppTableRecord
  2
AVE_MATERIAL
 70
     0
  0
APPID
  5
7DE1B343D9DE9A8
330
7DE1B343D9DE974
100
AcDbSymbolTableRecord
100
AcDbRegAppTableRecord
  2
AVE_GLOBAL
 70
     0
  0
ENDTAB
  0
TABLE
  2
DIMSTYLE
  5
7DE1B343D9DE975
330
0
100
AcDbSymbolTable
 70
     1
  0
DIMSTYLE
105
7DE1B343D9DE98F
330
7DE1B343D9DE975
100
AcDbSymbolTableRecord
100
AcDbDimStyleTableRecord
  2
STANDARD
 70
     0
  3

  4

  5

  6

  7

 40
1.0
 41
0.125
 42
0.125
 43
0.375
 44
0.125
 45
0.0
 46
0.0
 47
0.0
 48
0.0
140
0.125
141
-0.125
142
0.0
143
25.4
144
1.0
145
0.0
146
1.0
147
0.09
 71
     0
 72
     0
 73
     1
 74
     1
 75
     0
 76
     0
 77
     0
 78
     4
170
     0
171
     2
172
     0
173
     0
174
     1
175
     0
176
     0
177
     0
178
     0
270
     2
271
     3
272
     3
273
     2
274
     2
340
7DE1B343D9DE9B2
275
     0
280
     0
281
     0
282
     0
283
     1
284
     4
285
     0
286
     0
287
     3
288
     0
  0
ENDTAB
  0
TABLE
  2
BLOCK_RECORD
  5
7DE1B343D9DE96C
330
0
100
AcDbSymbolTable
 70
     2
  0
BLOCK_RECORD
  5
7DE1B343D9DE983
102
{ACAD_XDICTIONARY
360
7DE1B343D9DE9E5
102
}
330
7DE1B343D9DE96C
100
AcDbSymbolTableRecord
100
AcDbBlockTableRecord
  2
*MODEL_SPACE
  0
BLOCK_RECORD
  5
7DE1B343D9DE980
102
{ACAD_XDICTIONARY
360
7DE1B343D9DE9E3
102
}
330
7DE1B343D9DE96C
100
AcDbSymbolTableRecord
100
AcDbBlockTableRecord
  2
*PAPER_SPACE
  0
BLOCK_RECORD
  5
7DE1B343D9DE99B
330
7DE1B343D9DE96C
100
AcDbSymbolTableRecord
100
AcDbBlockTableRecord
  2
AVE_RENDER
  0
BLOCK_RECORD
  5
7DE1B343D9DE9A9
330
7DE1B343D9DE96C
100
AcDbSymbolTableRecord
100
AcDbBlockTableRecord
  2
AVE_GLOBAL
  0
ENDTAB
  0
ENDSEC
  0
SECTION
  2
BLOCKS
  0
BLOCK
  5
7DE1B343D9DE98D
330
7DE1B343D9DE983
100
AcDbEntity
  8
0
100
AcDbBlockBegin
  2
*MODEL_SPACE
 70
     0
 10
0.0
 20
0.0
 30
0.0
  3
*MODEL_SPACE
  1

  0
ENDBLK
  5
7DE1B343D9DE98E
330
7DE1B343D9DE983
100
AcDbEntity
  8
0
100
AcDbBlockEnd
  0
BLOCK
  5
7DE1B343D9DE98B
330
7DE1B343D9DE980
100
AcDbEntity
 67
     1
  8
0
100
AcDbBlockBegin
  2
*PAPER_SPACE
 70
     0
 10
0.0
 20
0.0
 30
0.0
  3
*PAPER_SPACE
  1

  0
ENDBLK
  5
7DE1B343D9DE98C
330
7DE1B343D9DE980
100
AcDbEntity
 67
     1
  8
0
100
AcDbBlockEnd
  0
BLOCK
  5
7DE1B343D9DE99C
330
7DE1B343D9DE99B
100
AcDbEntity
  8
0
100
AcDbBlockBegin
  2
AVE_RENDER
 70
     0
 10
0.0
 20
0.0
 30
0.0
  3
AVE_RENDER
  1
AVE_RENDER
  0
ENDBLK
  5
7DE1B343D9DE99D
330
7DE1B343D9DE99B
100
AcDbEntity
  8
0
100
AcDbBlockEnd
  0
BLOCK
  5
7DE1B343D9DE9AA
330
7DE1B343D9DE9A9
100
AcDbEntity
  8
0
100
AcDbBlockBegin
  2
AVE_GLOBAL
 70
     0
 10
0.0
 20
0.0
 30
0.0
  3
AVE_GLOBAL
  1
AVE_GLOBAL
  0
ENDBLK
  5
7DE1B343D9DE9AB
330
7DE1B343D9DE9A9
100
AcDbEntity
  8
0
100
AcDbBlockEnd
  0
ENDSEC
  0
SECTION
  2
ENTITIES
  0
LWPOLYLINE
  5
7DE1B343D9DD3E8
330
7DE1B343D9DE983
100
AcDbEntity
  8
0
100
AcDbPolyline
 90
       20
 70
     1
 43
0.0
 10
2.458849164859773
 20
1.792281289184852
 42
0.4142135623730951
 10
2.427599164859773
 20
1.823531289184852
 10
0.9900991648597736
 20
1.823531289184852
 42
0.4142135623730951
 10
0.9588491648597736
 20
1.792281289184852
 10
0.9588491648597736
 20
1.354781289184852
 42
1.0
 10
1.021349164859773
 20
1.354781289184852
 10
1.021349164859773
 20
1.386031289184852
 10
1.154722577123246
 20
1.386031289184852
 42
0.2679491924311233
 10
1.18178587099151
 20
1.401656289184852
 10
1.208849164859773
 20
1.448531289184852
 10
1.021349164859773
 20
1.448531289184852
 10
1.021349164859773
 20
1.761031289184852
 10
2.396349164859773
 20
1.761031289184852
 10
2.396349164859773
 20
1.448531289184852
 10
2.208849164859773
 20
1.448531289184852
 10
2.235912458728035
 20
1.401656289184852
 42
0.2679491924311233
 10
2.262975752596299
 20
1.386031289184852
 10
2.396349164859773
 20
1.386031289184852
 10
2.396349164859773
 20
1.354781289184852
 42
1.0
 10
2.458849164859773
 20
1.354781289184852
  0
TEXT
  5
7DE1B343D9DE82E
330
7DE1B343D9DE983
100
AcDbEntity
  8
TEXT
100
AcDbText
 10
0.9528967839073933
 20
1.066378171927527
 30
0.0
 40
0.125
  1
PART #110225
  7
ITALICC
 72
     1
 11
1.708849164859773
 21
1.066378171927527
 31
0.0
100
AcDbText
  0
TEXT
  5
7DE1B343D9DE82F
330
7DE1B343D9DE983
100
AcDbEntity
  8
TEXT
100
AcDbText
 10
2.122154323110094
 20
0.6194555292551522
 30
0.0
 40
0.0522247191011236
  1
Phone  1-800-328-2495
 41
1.272321428571429
 72
     5
 11
3.451086907379758
 21
0.6194555292551522
 31
0.0
100
AcDbText
  0
TEXT
  5
7DE1B343D9DE830
330
7DE1B343D9DE983
100
AcDbEntity
  8
TEXT
100
AcDbText
 10
2.122154323110094
 20
0.8992308101540286
 30
0.0
 40
0.0522247191011236
  1
Stylmark  Incorporated
 41
1.221428571428573
 72
     5
 11
3.451086907379758
 21
0.8992308101540286
 31
0.0
100
AcDbText
  0
TEXT
  5
7DE1B343D9DE831
330
7DE1B343D9DE983
100
AcDbEntity
  8
TEXT
100
AcDbText
 10
2.122154323110094
 20
0.8059723831877365
 30
0.0
 40
0.0522247191011236
  1
6536 Main St. N.E. * P.O. Box 32008
 41
0.8388932496075366
 72
     5
 11
3.451086907379758
 21
0.8059723831877365
 31
0.0
100
AcDbText
  0
TEXT
  5
7DE1B343D9DE832
330
7DE1B343D9DE983
100
AcDbEntity
  8
TEXT
100
AcDbText
 10
2.122154323110094
 20
0.7127139562214444
 30
0.0
 40
0.0522247191011236
  1
Minneapolis, MN 55432-0008
 41
1.11444212721585
 72
     5
 11
3.451086907379758
 21
0.7127139562214444
 31
0.0
100
AcDbText
  0
LWPOLYLINE
  5
7DE1B343D9DE833
330
7DE1B343D9DE983
100
AcDbEntity
  8
TEXT
100
AcDbPolyline
 90
        3
 70
     0
 43
0.0006660908203125
 10
-0.0337993689572134
 20
0.7331002918925871
 10
-0.0337993689572134
 20
0.6198648524394594
 10
0.079436070495909
 20
0.6198648524394594
  0
LWPOLYLINE
  5
7DE1B343D9DE838
330
7DE1B343D9DE983
100
AcDbEntity
  8
TEXT
100
AcDbPolyline
 90
        3
 70
     0
 43
0.0006660908203125
 10
-0.0071557361447159
 20
0.7331002918925871
 10
-0.0071557361447159
 20
0.6465084852519605
 10
0.079436070495909
 20
0.6465084852519605
  0
LWPOLYLINE
  5
7DE1B343D9DE83D
330
7DE1B343D9DE983
100
AcDbEntity
  8
TEXT
100
AcDbPolyline
 90
        2
 70
     0
 43
0.0001332181640625
 10
0.039470621277161
 20
0.7430916541972723
 10
-0.0337993689572134
 20
0.7331002918925871
  0
LWPOLYLINE
  5
7DE1B343D9DE841
330
7DE1B343D9DE983
100
AcDbEntity
  8
TEXT
100
AcDbPolyline
 90
        2
 70
     0
 43
0.0001332181640625
 10
-0.0071557361447159
 20
0.7331002918925871
 10
0.0527924376834115
 20
0.7430916541972723
  0
LWPOLYLINE
  5
7DE1B343D9DE845
330
7DE1B343D9DE983
100
AcDbEntity
  8
TEXT
100
AcDbPolyline
 90
        2
 70
     0
 43
0.0001332181640625
 10
-0.0071557361447159
 20
0.6465084852519605
 10
0.0527924376834115
 20
0.706456659080086
  0
LWPOLYLINE
  5
7DE1B343D9DE849
330
7DE1B343D9DE983
100
AcDbEntity
  8
TEXT
100
AcDbPolyline
 90
        3
 70
     0
 43
0.0006660908203125
 10
0.079436070495909
 20
0.8863011805644626
 10
-0.0337993689572134
 20
0.8863011805644626
 10
-0.0337993689572134
 20
0.7730657411113351
  0
LWPOLYLINE
  5
7DE1B343D9DE84E
330
7DE1B343D9DE983
100
AcDbEntity
  8
TEXT
100
AcDbPolyline
 90
        3
 70
     0
 43
0.0006660908203125
 10
0.079436070495909
 20
0.8596575477519616
 10
-0.0071557361447159
 20
0.8596575477519616
 10
-0.0071557361447159
 20
0.7730657411113351
  0
LWPOLYLINE
  5
7DE1B343D9DE853
330
7DE1B343D9DE983
100
AcDbEntity
  8
TEXT
100
AcDbPolyline
 90
        2
 70
     0
 43
0.0001332181640625
 10
-0.0071557361447159
 20
0.8596575477519616
 10
0.0527924376834097
 20
0.7997093739238361
  0
LWPOLYLINE
  5
7DE1B343D9DE857
330
7DE1B343D9DE983
100
AcDbEntity
  8
TEXT
100
AcDbPolyline
 90
        2
 70
     0
 43
0.0001332181640625
 10
-0.0071557361447159
 20
0.7730657411113351
 10
0.0527924376834097
 20
0.7630743788066463
  0
LWPOLYLINE
  5
7DE1B343D9DE85B
330
7DE1B343D9DE983
100
AcDbEntity
  8
TEXT
100
AcDbPolyline
 90
        2
 70
     0
 43
0.0001332181640625
 10
-0.0337993689572134
 20
0.7730657411113351
 10
0.039470621277161
 20
0.7630743788066463
  0
LWPOLYLINE
  5
7DE1B343D9DE85F
330
7DE1B343D9DE983
100
AcDbEntity
  8
TEXT
100
AcDbPolyline
 90
        2
 70
     0
 43
0.0006660908203125
 10
-0.0071557361447159
 20
0.7331002918925871
 10
-0.0337993689572134
 20
0.7331002918925871
  0
LWPOLYLINE
  5
7DE1B343D9DE863
330
7DE1B343D9DE983
100
AcDbEntity
  8
TEXT
100
AcDbPolyline
 90
        2
 70
     0
 43
0.0006660908203125
 10
-0.0071557361447159
 20
0.7730657411113351
 10
-0.0337993689572134
 20
0.7730657411113351
  0
LINE
  5
7DE1B343D9DE867
330
7DE1B343D9DE983
100
AcDbEntity
  8
TEXT
100
AcDbLine
 10
1.481391060169284
 20
0.8220244859076936
 30
0.0
 11
1.374184786781994
 21
0.8220244859076936
 31
0.0
  0
LINE
  5
7DE1B343D9DE868
330
7DE1B343D9DE983
100
AcDbEntity
  8
TEXT
100
AcDbLine
 10
1.510421958513762
 20
0.8863011805644591
 30
0.0
 11
1.375590049296703
 21
0.8863011805644591
 31
0.0
  0
ARC
  5
7DE1B343D9DE869
330
7DE1B343D9DE983
100
AcDbEntity
  8
TEXT
100
AcDbCircle
 10
1.43490414569002
 20
0.7170639313014429
 30
0.0
 40
0.0676855811441166
100
AcDbArc
 50
90.0
 51
153.7768192527749
  0
LWPOLYLINE
  5
7DE1B343D9DE86A
330
7DE1B343D9DE983
100
AcDbEntity
  8
TEXT
100
AcDbPolyline
 90
        2
 70
     0
 43
0.0
 10
1.373152291327184
 20
0.6633190925263863
 42
0.2901071551932823
 10
1.41622822419482
 20
0.6198281475759482
 42
5.328517124445801
  0
ARC
  5
7DE1B343D9DE86E
330
7DE1B343D9DE983
100
AcDbEntity
  8
TEXT
100
AcDbCircle
 10
0.7297727680185347
 20
0.679620538913998
 30
0.0
 40
0.0601160179737537
100
AcDbArc
 50
180.0000000000003
 51
264.0521544866073
  0
LINE
  5
7DE1B343D9DE86F
330
7DE1B343D9DE983
100
AcDbEntity
  8
TEXT
100
AcDbLine
 10
0.7332881236440825
 20
0.9206890981585972
 30
0.0
 11
0.6732455188000755
 21
0.9206890981585972
 31
0.0
  0
ARC
  5
7DE1B343D9DE870
330
7DE1B343D9DE983
100
AcDbEntity
  8
TEXT
100
AcDbCircle
 10
0.4975137659015641
 20
0.8042137211179573
 30
0.0
 40
0.0820874594465043
100
AcDbArc
 50
90.0
 51
270.0
  0
LWPOLYLINE
  5
7DE1B343D9DE871
330
7DE1B343D9DE983
100
AcDbEntity
  8
TEXT
100
AcDbPolyline
 90
        2
 70
     0
 43
0.0001332181640625
 10
0.0894274328005995
 20
0.813031190330083
 10
0.079436070495909
 20
0.8863011805644626
  0
LWPOLYLINE
  5
7DE1B343D9DE875
330
7DE1B343D9DE983
100
AcDbEntity
  8
TEXT
100
AcDbPolyline
 90
        2
 70
     0
 43
0.0001332181640625
 10
0.079436070495909
 20
0.8596575477519616
 10
0.0894274328005995
 20
0.7997093739238361
  0
LWPOLYLINE
  5
7DE1B343D9DE879
330
7DE1B343D9DE983
100
AcDbEntity
  8
TEXT
100
AcDbPolyline
 90
        3
 70
     0
 43
0.0006660908203125
 10
0.2326369591677864
 20
0.7730657411113351
 10
0.2326369591677864
 20
0.8863011805644626
 10
0.1194015197146605
 20
0.8863011805644626
  0
LWPOLYLINE
  5
7DE1B343D9DE87E
330
7DE1B343D9DE983
100
AcDbEntity
  8
TEXT
100
AcDbPolyline
 90
        3
 70
     0
 43
0.0006660908203125
 10
0.2059933263552853
 20
0.7730657411113351
 10
0.2059933263552853
 20
0.8596575477519616
 10
0.1194015197146605
 20
0.8596575477519616
  0
LWPOLYLINE
  5
7DE1B343D9DE883
330
7DE1B343D9DE983
100
AcDbEntity
  8
TEXT
100
AcDbPolyline
 90
        2
 70
     0
 43
0.0001332181640625
 10
0.2059933263552853
 20
0.8596575477519616
 10
0.1460451525271615
 20
0.7997093739238361
  0
LWPOLYLINE
  5
7DE1B343D9DE887
330
7DE1B343D9DE983
100
AcDbEntity
  8
TEXT
100
AcDbPolyline
 90
        2
 70
     0
 43
0.0001332181640625
 10
0.1194015197146605
 20
0.8596575477519616
 10
0.1094101574099717
 20
0.7997093739238361
  0
LWPOLYLINE
  5
7DE1B343D9DE88B
330
7DE1B343D9DE983
100
AcDbEntity
  8
TEXT
100
AcDbPolyline
 90
        2
 70
     0
 43
0.0001332181640625
 10
0.1194015197146605
 20
0.8863011805644626
 10
0.1094101574099717
 20
0.813031190330083
  0
LWPOLYLINE
  5
7DE1B343D9DE88F
330
7DE1B343D9DE983
100
AcDbEntity
  8
TEXT
100
AcDbPolyline
 90
        2
 70
     0
 43
0.0001332181640625
 10
0.1593669689334103
 20
0.7630743788066463
 10
0.2326369591677864
 20
0.7730657411113351
  0
LWPOLYLINE
  5
7DE1B343D9DE893
330
7DE1B343D9DE983
100
AcDbEntity
  8
TEXT
100
AcDbPolyline
 90
        2
 70
     0
 43
0.0001332181640625
 10
0.2059933263552853
 20
0.7730657411113351
 10
0.1460451525271615
 20
0.7630743788066463
  0
LWPOLYLINE
  5
7DE1B343D9DE897
330
7DE1B343D9DE983
100
AcDbEntity
  8
TEXT
100
AcDbPolyline
 90
        2
 70
     0
 43
0.0001332181640625
 10
0.2326369591677864
 20
0.7331002918925871
 10
0.1593669689334103
 20
0.7430916541972723
  0
LWPOLYLINE
  5
7DE1B343D9DE89B
330
7DE1B343D9DE983
100
AcDbEntity
  8
TEXT
100
AcDbPolyline
 90
        2
 70
     0
 43
0.0001332181640625
 10
0.2059933263552853
 20
0.7331002918925871
 10
0.1460451525271615
 20
0.7430916541972723
  0
LWPOLYLINE
  5
7DE1B343D9DE89F
330
7DE1B343D9DE983
100
AcDbEntity
  8
TEXT
100
AcDbPolyline
 90
        2
 70
     0
 43
0.0001332181640625
 10
0.2059933263552853
 20
0.6465084852519605
 10
0.1460451525271615
 20
0.706456659080086
  0
LWPOLYLINE
  5
7DE1B343D9DE8A3
330
7DE1B343D9DE983
100
AcDbEntity
  8
TEXT
100
AcDbPolyline
 90
        3
 70
     0
 43
0.0006660908203125
 10
0.1194015197146605
 20
0.6465084852519605
 10
0.2059933263552853
 20
0.6465084852519605
 10
0.2059933263552853
 20
0.7331002918925871
  0
LWPOLYLINE
  5
7DE1B343D9DE8A8
330
7DE1B343D9DE983
100
AcDbEntity
  8
TEXT
100
AcDbPolyline
 90
        3
 70
     0
 43
0.0006660908203125
 10
0.1194015197146605
 20
0.6198648524394594
 10
0.2326369591677864
 20
0.6198648524394594
 10
0.2326369591677864
 20
0.7331002918925871
  0
LWPOLYLINE
  5
7DE1B343D9DE8AD
330
7DE1B343D9DE983
100
AcDbEntity
  8
TEXT
100
AcDbPolyline
 90
        5
 70
     0
 43
0.0001332181640625
 10
0.0894274328005995
 20
0.6931348426738355
 10
0.0894274328005995
 20
0.706456659080086
 10
0.0527924376834115
 20
0.706456659080086
 10
0.0527924376834115
 20
0.7430916541972723
 10
0.039470621277161
 20
0.7430916541972723
  0
LWPOLYLINE
  5
7DE1B343D9DE8B4
330
7DE1B343D9DE983
100
AcDbEntity
  8
TEXT
100
AcDbPolyline
 90
        2
 70
     0
 43
0.0006660908203125
 10
0.079436070495909
 20
0.6465084852519605
 10
0.079436070495909
 20
0.6198648524394594
  0
LWPOLYLINE
  5
7DE1B343D9DE8B8
330
7DE1B343D9DE983
100
AcDbEntity
  8
TEXT
100
AcDbPolyline
 90
        2
 70
     0
 43
0.0001332181640625
 10
0.079436070495909
 20
0.6465084852519605
 10
0.0894274328005995
 20
0.706456659080086
  0
LWPOLYLINE
  5
7DE1B343D9DE8BC
330
7DE1B343D9DE983
100
AcDbEntity
  8
TEXT
100
AcDbPolyline
 90
        2
 70
     0
 43
0.0001332181640625
 10
0.079436070495909
 20
0.6198648524394594
 10
0.0894274328005995
 20
0.6931348426738355
  0
LWPOLYLINE
  5
7DE1B343D9DE8C0
330
7DE1B343D9DE983
100
AcDbEntity
  8
TEXT
100
AcDbPolyline
 90
        5
 70
     0
 43
0.0001332181640625
 10
0.039470621277161
 20
0.7630743788066463
 10
0.0527924376834097
 20
0.7630743788066463
 10
0.0527924376834097
 20
0.7997093739238361
 10
0.0894274328005995
 20
0.7997093739238361
 10
0.0894274328005995
 20
0.813031190330083
  0
LWPOLYLINE
  5
7DE1B343D9DE8C7
330
7DE1B343D9DE983
100
AcDbEntity
  8
TEXT
100
AcDbPolyline
 90
        5
 70
     0
 43
0.0001332181640625
 10
0.1094101574099717
 20
0.813031190330083
 10
0.1094101574099717
 20
0.7997093739238361
 10
0.1460451525271615
 20
0.7997093739238361
 10
0.1460451525271615
 20
0.7630743788066463
 10
0.1593669689334103
 20
0.7630743788066463
  0
LWPOLYLINE
  5
7DE1B343D9DE8CE
330
7DE1B343D9DE983
100
AcDbEntity
  8
TEXT
100
AcDbPolyline
 90
        2
 70
     0
 43
0.0001332181640625
 10
0.1194015197146605
 20
0.6465084852519605
 10
0.1094101574099717
 20
0.706456659080086
  0
LWPOLYLINE
  5
7DE1B343D9DE8D2
330
7DE1B343D9DE983
100
AcDbEntity
  8
TEXT
100
AcDbPolyline
 90
        2
 70
     0
 43
0.0001332181640625
 10
0.1094101574099717
 20
0.6931348426738355
 10
0.1194015197146605
 20
0.6198648524394594
  0
LWPOLYLINE
  5
7DE1B343D9DE8D6
330
7DE1B343D9DE983
100
AcDbEntity
  8
TEXT
100
AcDbPolyline
 90
        2
 70
     0
 43
0.0006660908203125
 10
0.1194015197146605
 20
0.6465084852519605
 10
0.1194015197146605
 20
0.6198648524394594
  0
LWPOLYLINE
  5
7DE1B343D9DE8DA
330
7DE1B343D9DE983
100
AcDbEntity
  8
TEXT
100
AcDbPolyline
 90
        5
 70
     0
 43
0.0001332181640625
 10
0.1593669689334103
 20
0.7430916541972723
 10
0.1460451525271615
 20
0.7430916541972723
 10
0.1460451525271615
 20
0.706456659080086
 10
0.1094101574099717
 20
0.706456659080086
 10
0.1094101574099717
 20
0.6931348426738355
  0
LWPOLYLINE
  5
7DE1B343D9DE8E1
330
7DE1B343D9DE983
100
AcDbEntity
  8
TEXT
100
AcDbPolyline
 90
        2
 70
     0
 43
0.0006660908203125
 10
0.2059933263552853
 20
0.7730657411113351
 10
0.2326369591677864
 20
0.7730657411113351
  0
LWPOLYLINE
  5
7DE1B343D9DE8E5
330
7DE1B343D9DE983
100
AcDbEntity
  8
TEXT
100
AcDbPolyline
 90
        2
 70
     0
 43
0.0006660908203125
 10
0.2059933263552853
 20
0.7331002918925871
 10
0.2326369591677864
 20
0.7331002918925871
  0
LINE
  5
7DE1B343D9DE8E9
330
7DE1B343D9DE983
100
AcDbEntity
  8
TEXT
100
AcDbLine
 10
0.5027510960158113
 20
0.8220244859076936
 30
0.0
 11
0.6696567500447826
 21
0.8220244859076936
 31
0.0
  0
LINE
  5
7DE1B343D9DE8EA
330
7DE1B343D9DE983
100
AcDbEntity
  8
TEXT
100
AcDbLine
 10
0.5683512322601123
 20
0.7862197642970659
 30
0.0
 11
0.5027510960158113
 21
0.7862197642970659
 31
0.0
  0
LINE
  5
7DE1B343D9DE8EB
330
7DE1B343D9DE983
100
AcDbEntity
  8
TEXT
100
AcDbLine
 10
0.4154263064550597
 20
0.6198281475759482
 30
0.0
 11
0.5683512322601123
 21
0.6198281475759482
 31
0.0
  0
LINE
  5
7DE1B343D9DE8EC
330
7DE1B343D9DE983
100
AcDbEntity
  8
TEXT
100
AcDbLine
 10
0.573291606166392
 20
0.6881851539093875
 30
0.0
 11
0.4154263064550579
 21
0.6881851539093875
 31
0.0
  0
LINE
  5
7DE1B343D9DE8ED
330
7DE1B343D9DE983
100
AcDbEntity
  8
TEXT
100
AcDbLine
 10
0.4975137659015632
 20
0.7221262616714521
 30
0.0
 11
0.573291606166392
 21
0.7221262616714521
 31
0.0
  0
ARC
  5
7DE1B343D9DE8EE
330
7DE1B343D9DE983
100
AcDbEntity
  8
TEXT
100
AcDbCircle
 10
0.5027510960158122
 20
0.8041221251023815
 30
0.0
 40
0.017902360805315
100
AcDbArc
 50
90.0
 51
270.0
  0
LINE
  5
7DE1B343D9DE8EF
330
7DE1B343D9DE983
100
AcDbEntity
  8
TEXT
100
AcDbLine
 10
0.4154263064550579
 20
0.6881851539093875
 30
0.0
 11
0.4154263064550597
 21
0.6198281475759482
 31
0.0
  0
LINE
  5
7DE1B343D9DE8F0
330
7DE1B343D9DE983
100
AcDbEntity
  8
TEXT
100
AcDbLine
 10
0.6696567500447826
 20
0.8220244859076936
 30
0.0
 11
0.6696567500447826
 21
0.679620538913998
 31
0.0
  0
ARC
  5
7DE1B343D9DE8F1
330
7DE1B343D9DE983
100
AcDbEntity
  8
TEXT
100
AcDbCircle
 10
0.5683512322601132
 20
0.7030239559365052
 30
0.0
 40
0.0831958083605586
100
AcDbArc
 50
270.0
 51
90.0
  0
ARC
  5
7DE1B343D9DE8F2
330
7DE1B343D9DE983
100
AcDbEntity
  8
TEXT
100
AcDbCircle
 10
0.5732916061663929
 20
0.7051557077904216
 30
0.0
 40
0.0169705538810321
100
AcDbArc
 50
270.0
 51
90.0
  0
LWPOLYLINE
  5
7DE1B343D9DE8F3
330
7DE1B343D9DE983
100
AcDbEntity
  8
TEXT
100
AcDbPolyline
 90
        2
 70
     0
 43
0.0006660908203125
 10
0.079436070495909
 20
0.8596575477519616
 10
0.079436070495909
 20
0.8863011805644626
  0
LWPOLYLINE
  5
7DE1B343D9DE8F7
330
7DE1B343D9DE983
100
AcDbEntity
  8
TEXT
100
AcDbPolyline
 90
        2
 70
     0
 43
0.0006660908203125
 10
0.1194015197146605
 20
0.8596575477519616
 10
0.1194015197146605
 20
0.8863011805644626
  0
LINE
  5
7DE1B343D9DE8FB
330
7DE1B343D9DE983
100
AcDbEntity
  8
TEXT
100
AcDbLine
 10
0.6732455188000755
 20
0.8863011805644591
 30
0.0
 11
0.4975137659015632
 21
0.8863011805644591
 31
0.0
  0
LINE
  5
7DE1B343D9DE8FC
330
7DE1B343D9DE983
100
AcDbEntity
  8
TEXT
100
AcDbLine
 10
0.6732455188000755
 20
0.9206890981585972
 30
0.0
 11
0.6732455188000755
 21
0.8863011805644591
 31
0.0
  0
LINE
  5
7DE1B343D9DE8FD
330
7DE1B343D9DE983
100
AcDbEntity
  8
TEXT
100
AcDbLine
 10
0.8637174108199277
 20
0.7854291844513386
 30
0.0
 11
0.8050870897879898
 21
0.8863011805644591
 31
0.0
  0
LINE
  5
7DE1B343D9DE8FE
330
7DE1B343D9DE983
100
AcDbEntity
  8
TEXT
100
AcDbLine
 10
0.9224659736257931
 20
0.8863011805644591
 30
0.0
 11
0.8637174108199277
 21
0.7854291844513386
 31
0.0
  0
LINE
  5
7DE1B343D9DE8FF
330
7DE1B343D9DE983
100
AcDbEntity
  8
TEXT
100
AcDbLine
 10
1.019396598985534
 20
0.7022159856789474
 30
0.0
 11
1.019396598985534
 21
0.9543126583032696
 31
0.0
  0
LINE
  5
7DE1B343D9DE900
330
7DE1B343D9DE983
100
AcDbEntity
  8
TEXT
100
AcDbLine
 10
1.051708453123194
 20
0.8863011805644591
 30
0.0
 11
1.051708453123194
 21
0.6854369738320509
 31
0.0
  0
LINE
  5
7DE1B343D9DE901
330
7DE1B343D9DE983
100
AcDbEntity
  8
TEXT
100
AcDbLine
 10
1.051708453123194
 20
0.6854369738320509
 30
0.0
 11
1.034714816238593
 21
0.6854369738320509
 31
0.0
  0
LINE
  5
7DE1B343D9DE902
330
7DE1B343D9DE983
100
AcDbEntity
  8
TEXT
100
AcDbLine
 10
1.020536172481729
 20
0.6198281475759482
 30
0.0
 11
1.118539506181163
 21
0.6198281475759482
 31
0.0
  0
LINE
  5
7DE1B343D9DE903
330
7DE1B343D9DE983
100
AcDbEntity
  8
TEXT
100
AcDbLine
 10
0.8541171738229733
 20
0.6397866536809611
 30
0.0
 11
0.9514168799164179
 21
0.8041368646162291
 31
0.0
  0
ARC
  5
7DE1B343D9DE904
330
7DE1B343D9DE983
100
AcDbEntity
  8
TEXT
100
AcDbCircle
 10
0.8200736139107593
 20
0.6593758698496439
 30
0.0
 40
0.0392772371940762
100
AcDbArc
 50
270.1604552698595
 51
330.0831797321295
  0
LINE
  5
7DE1B343D9DE905
330
7DE1B343D9DE983
100
AcDbEntity
  8
TEXT
100
AcDbLine
 10
0.7235433575248882
 20
0.6198281475759482
 30
0.0
 11
0.8201836085998825
 21
0.6200987866742305
 31
0.0
  0
LWPOLYLINE
  5
7DE1B343D9DE906
330
7DE1B343D9DE983
100
AcDbEntity
  8
TEXT
100
AcDbPolyline
 90
        6
 70
     1
 43
0.0
 10
0.7660671611000378
 20
0.8220244859076936
 10
0.7357505668798297
 20
0.8220244859076936
 10
0.7357505668798297
 20
0.6989134878527994
 42
0.407328721240804
 10
0.7472942180413061
 20
0.6870945731764133
 10
0.8079159170860368
 20
0.6870945731764133
 10
0.8253812574933547
 20
0.7199068022198924
  0
LINE
  5
7DE1B343D9DE90E
330
7DE1B343D9DE983
100
AcDbEntity
  8
TEXT
100
AcDbLine
 10
0.9514168799164179
 20
0.8041368646162291
 30
0.0
 11
0.9514168799164179
 21
0.6713794897908729
 31
0.0
  0
ARC
  5
7DE1B343D9DE90F
330
7DE1B343D9DE983
100
AcDbEntity
  8
TEXT
100
AcDbCircle
 10
1.034714816238591
 20
0.7008187800754764
 30
0.0
 40
0.0153818062434269
100
AcDbArc
 50
174.7883570302258
 51
270.0
  0
LWPOLYLINE
  5
7DE1B343D9DE910
330
7DE1B343D9DE983
100
AcDbEntity
  8
TEXT
100
AcDbPolyline
 90
        2
 70
     0
 43
0.0
 10
0.9514168799164162
 20
0.6713794897908765
 42
0.3318488747599744
 10
1.020536172481729
 20
0.6198281475759482
 42
-6.868794160588311
  0
LINE
  5
7DE1B343D9DE914
330
7DE1B343D9DE983
100
AcDbEntity
  8
TEXT
100
AcDbLine
 10
1.175928575170424
 20
0.6198281475759482
 30
0.0
 11
1.242986621952264
 21
0.6198281475759482
 31
0.0
  0
LINE
  5
7DE1B343D9DE915
330
7DE1B343D9DE983
100
AcDbEntity
  8
TEXT
100
AcDbLine
 10
1.175928575170424
 20
0.8144706967415837
 30
0.0
 11
1.175928575170424
 21
0.6198281475759482
 31
0.0
  0
LINE
  5
7DE1B343D9DE916
330
7DE1B343D9DE983
100
AcDbEntity
  8
TEXT
100
AcDbLine
 10
1.118539506181163
 20
0.8220244859076936
 30
0.0
 11
1.168374786004311
 21
0.8220244859076936
 31
0.0
  0
LINE
  5
7DE1B343D9DE917
330
7DE1B343D9DE983
100
AcDbEntity
  8
TEXT
100
AcDbLine
 10
1.118539506181163
 20
0.6198281475759482
 30
0.0
 11
1.118539506181163
 21
0.8220244859076936
 31
0.0
  0
LWPOLYLINE
  5
7DE1B343D9DE918
330
7DE1B343D9DE983
100
AcDbEntity
  8
TEXT
100
AcDbPolyline
 90
        2
 70
     0
 43
0.0
 10
1.168374786004309
 20
0.8220244859076936
 42
-0.4142135623731017
 10
1.175928575170423
 20
0.8144706967415837
 42
-0.9999999999999998
  0
LINE
  5
7DE1B343D9DE91C
330
7DE1B343D9DE983
100
AcDbEntity
  8
TEXT
100
AcDbLine
 10
1.374184786781994
 20
0.8220244859076936
 30
0.0
 11
1.374184786781994
 21
0.7469720798334871
 31
0.0
  0
LINE
  5
7DE1B343D9DE91D
330
7DE1B343D9DE983
100
AcDbEntity
  8
TEXT
100
AcDbLine
 10
1.242986621952264
 20
0.8220244859076936
 30
0.0
 11
1.297120218873215
 21
0.8220244859076936
 31
0.0
  0
LINE
  5
7DE1B343D9DE91E
330
7DE1B343D9DE983
100
AcDbEntity
  8
TEXT
100
AcDbLine
 10
1.242986621952264
 20
0.6198281475759482
 30
0.0
 11
1.242986621952264
 21
0.8220244859076936
 31
0.0
  0
LWPOLYLINE
  5
7DE1B343D9DE91F
330
7DE1B343D9DE983
100
AcDbEntity
  8
TEXT
100
AcDbPolyline
 90
        2
 70
     0
 43
0.0
 10
1.297120218873213
 20
0.8220244859076936
 42
-0.4142135623731017
 10
1.304674008039326
 20
0.8144706967415837
 42
-0.9999999999999998
  0
LWPOLYLINE
  5
7DE1B343D9DE923
330
7DE1B343D9DE983
100
AcDbEntity
  8
TEXT
100
AcDbPolyline
 90
        4
 70
     0
 43
0.0
 10
1.304674008039326
 20
0.8144706967415837
 10
1.304674008039326
 20
0.6198281475759482
 10
1.373152291327184
 20
0.6198281475759482
 10
1.373152291327184
 20
0.6633190925263863
 42
-1.714843617202739
  0
LINE
  5
7DE1B343D9DE929
330
7DE1B343D9DE983
100
AcDbEntity
  8
TEXT
100
AcDbLine
 10
0.7332881236440825
 20
0.8863011805644591
 30
0.0
 11
0.7332881236440825
 21
0.9206890981585972
 31
0.0
  0
LINE
  5
7DE1B343D9DE92A
330
7DE1B343D9DE983
100
AcDbEntity
  8
TEXT
100
AcDbLine
 10
0.8050870897879898
 20
0.8863011805644591
 30
0.0
 11
0.7332881236440825
 21
0.8863011805644591
 31
0.0
  0
LINE
  5
7DE1B343D9DE92B
330
7DE1B343D9DE983
100
AcDbEntity
  8
TEXT
100
AcDbLine
 10
0.9525878864191694
 20
0.8863011805644591
 30
0.0
 11
0.9224659736257931
 21
0.8863011805644591
 31
0.0
  0
LINE
  5
7DE1B343D9DE92C
330
7DE1B343D9DE983
100
AcDbEntity
  8
TEXT
100
AcDbLine
 10
0.9525878864191694
 20
0.9543126583032696
 30
0.0
 11
0.9525878864191694
 21
0.8863011805644591
 31
0.0
  0
LINE
  5
7DE1B343D9DE92D
330
7DE1B343D9DE983
100
AcDbEntity
  8
TEXT
100
AcDbLine
 10
1.019396598985534
 20
0.9543126583032696
 30
0.0
 11
0.9525878864191694
 21
0.9543126583032696
 31
0.0
  0
LWPOLYLINE
  5
7DE1B343D9DE92E
330
7DE1B343D9DE983
100
AcDbEntity
  8
TEXT
100
AcDbPolyline
 90
        3
 70
     0
 43
0.0
 10
1.339808358583536
 20
0.8863011805644626
 10
1.221508199767492
 20
0.8863011805644626
 10
1.221508199767492
 20
0.8591336838035667
 42
-1.960274751411753
  0
LINE
  5
7DE1B343D9DE933
330
7DE1B343D9DE983
100
AcDbEntity
  8
TEXT
100
AcDbLine
 10
1.18572650905433
 20
0.8863011805644591
 30
0.0
 11
1.051708453123194
 21
0.8863011805644591
 31
0.0
  0
LWPOLYLINE
  5
7DE1B343D9DE934
330
7DE1B343D9DE983
100
AcDbEntity
  8
TEXT
100
AcDbPolyline
 90
        2
 70
     0
 43
0.0
 10
1.18572650905433
 20
0.8863011805644626
 42
-0.3328679258950098
 10
1.221508199767492
 20
0.8591336838035667
 42
6.772930709997214
  0
LINE
  5
7DE1B343D9DE938
330
7DE1B343D9DE983
100
AcDbEntity
  8
TEXT
100
AcDbLine
 10
1.375590049296703
 20
0.8863011805644591
 30
0.0
 11
1.375590049296703
 21
0.8579786347948152
 31
0.0
  0
LWPOLYLINE
  5
7DE1B343D9DE939
330
7DE1B343D9DE983
100
AcDbEntity
  8
TEXT
100
AcDbPolyline
 90
        2
 70
     0
 43
0.0
 10
1.339808358583536
 20
0.8863011805644626
 42
-0.3277054968067132
 10
1.375590049296701
 20
0.8579786347948187
 42
6.667889725900311
  0
LINE
  5
7DE1B343D9DE93D
330
7DE1B343D9DE983
100
AcDbEntity
  8
TEXT
100
AcDbLine
 10
1.589381897388803
 20
0.7810892020110318
 30
0.0
 11
1.545631126206902
 21
0.8633394780071769
 31
0.0
  0
LINE
  5
7DE1B343D9DE93E
330
7DE1B343D9DE983
100
AcDbEntity
  8
TEXT
100
AcDbLine
 10
1.589381897388803
 20
0.8863011805644591
 30
0.0
 11
1.589381897388803
 21
0.7810892020110318
 31
0.0
  0
LINE
  5
7DE1B343D9DE93F
330
7DE1B343D9DE983
100
AcDbEntity
  8
TEXT
100
AcDbLine
 10
1.817065636327172
 20
0.810435854152921
 30
0.0
 11
1.817065636327172
 21
0.9517653863320598
 31
0.0
  0
LINE
  5
7DE1B343D9DE940
330
7DE1B343D9DE983
100
AcDbEntity
  8
TEXT
100
AcDbLine
 10
1.864163794883157
 20
0.8863011805644591
 30
0.0
 11
1.817065636327172
 21
0.810435854152921
 31
0.0
  0
LINE
  5
7DE1B343D9DE941
330
7DE1B343D9DE983
100
AcDbEntity
  8
TEXT
100
AcDbLine
 10
1.87459851164708
 20
0.7764079376234856
 30
0.0
 11
1.939155627612785
 21
0.8863011805644591
 31
0.0
  0
LINE
  5
7DE1B343D9DE942
330
7DE1B343D9DE983
100
AcDbEntity
  8
TEXT
100
AcDbLine
 10
1.753230645104399
 20
0.6198281475759482
 30
0.0
 11
1.817608829423019
 21
0.6198281475759482
 31
0.0
  0
LWPOLYLINE
  5
7DE1B343D9DE943
330
7DE1B343D9DE983
100
AcDbEntity
  8
TEXT
100
AcDbPolyline
 90
        2
 70
     0
 43
0.0
 10
1.593321574693841
 20
0.6633190925263863
 42
-0.2901071551932486
 10
1.550245641826196
 20
0.6198281475759482
 42
-5.328517124445184
  0
ARC
  5
7DE1B343D9DE947
330
7DE1B343D9DE983
100
AcDbEntity
  8
TEXT
100
AcDbCircle
 10
1.481391060169282
 20
0.7936651109076964
 30
0.0
 40
0.028359375
100
AcDbArc
 50
25.78218179591245
 51
90.0
  0
LINE
  5
7DE1B343D9DE948
330
7DE1B343D9DE983
100
AcDbEntity
  8
TEXT
100
AcDbLine
 10
1.517192135473405
 20
0.7847495124455615
 30
0.0
 11
1.506927375059841
 21
0.8060000520182557
 31
0.0
  0
LINE
  5
7DE1B343D9DE949
330
7DE1B343D9DE983
100
AcDbEntity
  8
TEXT
100
AcDbLine
 10
1.434904145690022
 20
0.7847495124455615
 30
0.0
 11
1.517192135473405
 21
0.7847495124455615
 31
0.0
  0
LWPOLYLINE
  5
7DE1B343D9DE94A
330
7DE1B343D9DE983
100
AcDbEntity
  8
TEXT
100
AcDbPolyline
 90
        4
 70
     1
 43
0.0
 10
1.530123176756304
 20
0.7227921255599734
 10
1.441462858096445
 20
0.7227921255599734
 42
0.9999999999999998
 10
1.441462858096445
 20
0.6803935850561127
 10
1.530123176756304
 20
0.6803935850561127
 42
1.0
  0
LWPOLYLINE
  5
7DE1B343D9DE950
330
7DE1B343D9DE983
100
AcDbEntity
  8
TEXT
100
AcDbPolyline
 90
        2
 70
     0
 43
0.0
 10
1.41622822419482
 20
0.6198281475759482
 10
1.550245641826196
 20
0.6198281475759482
 42
0.9999999999999998
  0
LINE
  5
7DE1B343D9DE954
330
7DE1B343D9DE983
100
AcDbEntity
  8
TEXT
100
AcDbLine
 10
1.676582663811836
 20
0.8220244859076936
 30
0.0
 11
1.753230645104394
 21
0.8220244859076936
 31
0.0
  0
LINE
  5
7DE1B343D9DE955
330
7DE1B343D9DE983
100
AcDbEntity
  8
TEXT
100
AcDbLine
 10
1.753230645104394
 20
0.8220244859076936
 30
0.0
 11
1.753230645104399
 21
0.6198281475759482
 31
0.0
  0
ARC
  5
7DE1B343D9DE956
330
7DE1B343D9DE983
100
AcDbEntity
  8
TEXT
100
AcDbCircle
 10
1.676582663811834
 20
0.797118610625031
 30
0.0
 40
0.0249058752826653
100
AcDbArc
 50
89.99971217465335
 51
179.9999999999985
  0
LINE
  5
7DE1B343D9DE957
330
7DE1B343D9DE983
100
AcDbEntity
  8
TEXT
100
AcDbLine
 10
1.651676788529177
 20
0.6198281475759482
 30
0.0
 11
1.651676788529171
 21
0.7971186530074166
 31
0.0
  0
LWPOLYLINE
  5
7DE1B343D9DE958
330
7DE1B343D9DE983
100
AcDbEntity
  8
TEXT
100
AcDbPolyline
 90
        2
 70
     0
 43
0.0
 10
1.593321574693841
 20
0.6198281475759482
 10
1.651676788529175
 20
0.6198281475759482
  0
LWPOLYLINE
  5
7DE1B343D9DE95C
330
7DE1B343D9DE983
100
AcDbEntity
  8
TEXT
100
AcDbPolyline
 90
        2
 70
     0
 43
0.0
 10
1.593321574693841
 20
0.6633190925263863
 10
1.593321574693841
 20
0.6198281475759482
  0
LINE
  5
7DE1B343D9DE960
330
7DE1B343D9DE983
100
AcDbEntity
  8
TEXT
100
AcDbLine
 10
1.97009073501069
 20
0.6198281475759482
 30
0.0
 11
1.87459851164708
 21
0.7764079376234856
 31
0.0
  0
LINE
  5
7DE1B343D9DE961
330
7DE1B343D9DE983
100
AcDbEntity
  8
TEXT
100
AcDbLine
 10
1.893512362634484
 20
0.6198281475759482
 30
0.0
 11
1.97009073501069
 21
0.6198281475759482
 31
0.0
  0
LINE
  5
7DE1B343D9DE962
330
7DE1B343D9DE983
100
AcDbEntity
  8
TEXT
100
AcDbLine
 10
1.817608829423019
 20
0.7514077160521284
 30
0.0
 11
1.893512362634484
 21
0.6198281475759482
 31
0.0
  0
LINE
  5
7DE1B343D9DE963
330
7DE1B343D9DE983
100
AcDbEntity
  8
TEXT
100
AcDbLine
 10
1.817608829423019
 20
0.6198281475759482
 30
0.0
 11
1.817608829423019
 21
0.7514077160521284
 31
0.0
  0
LINE
  5
7DE1B343D9DE964
330
7DE1B343D9DE983
100
AcDbEntity
  8
TEXT
100
AcDbLine
 10
1.817065636327172
 20
0.9517653863320598
 30
0.0
 11
1.748750757777899
 21
0.9517653863320598
 31
0.0
  0
ARC
  5
7DE1B343D9DE965
330
7DE1B343D9DE983
100
AcDbEntity
  8
TEXT
100
AcDbCircle
 10
1.508395018736693
 20
0.8447176134435567
 30
0.0
 40
0.0416329381542859
100
AcDbArc
 50
26.56974201007528
 51
87.20939649401342
  0
LINE
  5
7DE1B343D9DE966
330
7DE1B343D9DE983
100
AcDbEntity
  8
TEXT
100
AcDbLine
 10
1.653278803688304
 20
0.8863011805644591
 30
0.0
 11
1.589381897388803
 21
0.8863011805644591
 31
0.0
  0
LINE
  5
7DE1B343D9DE967
330
7DE1B343D9DE983
100
AcDbEntity
  8
TEXT
100
AcDbLine
 10
1.653278803688304
 20
0.8587535307035844
 30
0.0
 11
1.653278803688304
 21
0.8863011805644591
 31
0.0
  0
ARC
  5
7DE1B343D9DE968
330
7DE1B343D9DE983
100
AcDbEntity
  8
TEXT
100
AcDbCircle
 10
1.684471620751412
 20
0.8550554532821942
 30
0.0
 40
0.0314112657011332
100
AcDbArc
 50
95.88484768694724
 51
173.2388340632136
  0
LINE
  5
7DE1B343D9DE969
330
7DE1B343D9DE983
100
AcDbEntity
  8
TEXT
100
AcDbLine
 10
1.748750757777894
 20
0.8863011805644591
 30
0.0
 11
1.681251040128377
 21
0.8863011805644591
 31
0.0
  0
LINE
  5
7DE1B343D9DE96A
330
7DE1B343D9DE983
100
AcDbEntity
  8
TEXT
100
AcDbLine
 10
1.748750757777899
 20
0.9517653863320598
 30
0.0
 11
1.748750757777894
 21
0.8863011805644591
 31
0.0
  0
LINE
  5
7DE1B343D9DE96B
330
7DE1B343D9DE983
100
AcDbEntity
  8
TEXT
100
AcDbLine
 10
1.939155627612785
 20
0.8863011805644591
 30
0.0
 11
1.864163794883158
 21
0.8863011805644591
 31
0.0
  0
INSERT
  5
7DE1B343D9DE99E
330
7DE1B343D9DE983
100
AcDbEntity
  8
ASHADE
 62
     1
100
AcDbBlockReference
  2
AVE_RENDER
 10
0.0
 20
0.0
 30
0.0
1001
AVE_RENDER
1002
{
1070
     6
1000
Pref
1070
    30
1070
    20
1070
     1
1070
     0
1000

1070
    10
1070
     1
1070
    30
1040
1.0
1070
     1
1040
0.3
1040
0.7
1040
0.0
1040
10.0
1010
-1.0
1020
-1.0
1030
-1.0
1040
0.3
1070
    49
1070
     0
1070
     0
1010
1.0
1020
1.0
1030
1.0
1040
45.0
1070
     1
1070
     0
1000
WCS
1040
0.0
1002
}
  0
INSERT
  5
7DE1B343D9DE99F
330
7DE1B343D9DE983
100
AcDbEntity
  8
ASHADE
 62
     3
100
AcDbBlockReference
  2
AVE_RENDER
 10
0.0
 20
0.0
 30
0.0
1001
AVE_RENDER
1002
{
1070
     0
1000
Full Opt
1070
     0
1070
     1
1070
     1
1070
     1
1070
     0
1070
     0
1070
     0
1070
     1
1070
     1
1040
0.0001
1040
0.0001
1002
}
  0
INSERT
  5
7DE1B343D9DE9A0
330
7DE1B343D9DE983
100
AcDbEntity
  8
ASHADE
 62
     4
100
AcDbBlockReference
  2
AVE_RENDER
 10
0.0
 20
0.0
 30
0.0
1001
AVE_RENDER
1002
{
1070
     0
1000
Quick Opt
1070
     0
1070
     1
1070
     1
1070
     1
1070
     0
1070
     0
1070
     1
1002
}
  0
INSERT
  5
7DE1B343D9DE9A1
330
7DE1B343D9DE983
100
AcDbEntity
  8
ASHADE
 62
     5
100
AcDbBlockReference
  2
AVE_RENDER
 10
0.0
 20
0.0
 30
0.0
1001
AVE_RENDER
1002
{
1070
     1
1000
Scanl Opt
1070
     2
1070
     0
1070
     2
1040
2.0
1040
4.0
1070
     0
1070
     1
1070
     0
1040
0.03
1002
}
  0
INSERT
  5
7DE1B343D9DE9A2
330
7DE1B343D9DE983
100
AcDbEntity
  8
ASHADE
 62
     6
100
AcDbBlockReference
  2
AVE_RENDER
 10
0.0
 20
0.0
 30
0.0
1001
AVE_RENDER
1002
{
1070
     2
1000
Raytr Opt
1070
     2
1070
     0
1070
     2
1040
2.0
1040
4.0
1070
     0
1070
     1
1070
     1
1040
0.03
1070
     3
1040
0.03
1002
}
  0
INSERT
  5
7DE1B343D9DE9A3
330
7DE1B343D9DE983
100
AcDbEntity
  8
ASHADE
 62
     7
100
AcDbBlockReference
  2
AVE_RENDER
 10
0.0
 20
0.0
 30
0.0
1001
AVE_RENDER
1002
{
1070
     0
1000
RFile Opt
1070
     5
1070
   640
1070
   480
1070
 10000
1070
     3
1070
    32
1070
    24
1070
     0
1070
     0
1070
     0
1070
     1
1070
     0
1070
     0
1070
     0
1002
}
  0
INSERT
  5
7DE1B343D9DE9A4
330
7DE1B343D9DE983
100
AcDbEntity
  8
ASHADE
 62
     8
100
AcDbBlockReference
  2
AVE_RENDER
 10
0.0
 20
0.0
 30
0.0
1001
AVE_RENDER
1002
{
1070
     0
1000
Fog Opt
1070
     0
1070
     0
1040
0.0
1040
1.0
1040
0.0
1040
1.0
1010
0.5
1020
0.5
1030
0.5
1002
}
  0
INSERT
  5
7DE1B343D9DE9A5
330
7DE1B343D9DE983
100
AcDbEntity
  8
ASHADE
 62
     9
100
AcDbBlockReference
  2
AVE_RENDER
 10
0.0
 20
0.0
 30
0.0
1001
AVE_RENDER
1002
{
1070
     0
1000
BG Opt
1070
     0
1070
     1
1010
0.0
1020
0.0
1030
0.0
1010
1.0
1020
0.0
1030
0.0
1010
0.0
1020
1.0
1030
0.0
1010
0.0
1020
0.0
1030
1.0
1040
0.5
1040
0.33
1040
0.0
1000

1070
     1
1000

1070
     1
1070
     1
1040
1.0
1040
1.0
1040
0.0
1040
0.0
1070
     0
1002
}
  0
INSERT
  5
7DE1B343D9DE9AC
330
7DE1B343D9DE983
100
AcDbEntity
  8
ASHADE
 62
     1
100
AcDbBlockReference
  2
AVE_GLOBAL
 10
0.0
 20
0.0
 30
0.0
1001
AVE_MATERIAL
1002
{
1000
*GLOBAL*
1000
1
1000
Global finish.
1002
{
1002
}
1002
{
1070
    63
1002
{
1002
{
1010
-1.0
1020
-1.0
1030
-1.0
1002
}
1040
0.1000000014901161
1000

1040
0.0
1002
{
1002
}
1040
0.0
1002
{
1002
}
1040
0.0
1002
}
1002
{
1002
{
1010
-1.0
1020
-1.0
1030
-1.0
1002
}
1040
0.6999999880790711
1000

1040
0.0
1002
{
1002
}
1040
0.0
1002
{
1002
}
1040
0.0
1002
}
1002
{
1002
{
1010
-1.0
1020
-1.0
1030
-1.0
1002
}
1040
0.2000000029802322
1000

1040
0.0
1002
{
1002
}
1040
0.0
1002
{
1002
}
1040
0.0
1002
}
1002
{
1070
     0
1002
{
1070
     1
1002
{
1040
1.0
1040
1.0
1000

1040
0.0
1002
{
1002
}
1040
0.0
1002
{
1002
}
1040
0.0
1002
}
1002
}
1040
1.0
1040
0.0
1040
0.0
1002
}
1002
{
1040
1.0
1040
1.0
1000

1040
0.0
1002
{
1002
}
1040
0.0
1002
{
1002
}
1040
0.0
1002
}
1002
{
1040
0.5
1040
1.0
1000

1040
0.0
1002
{
1002
}
1040
0.0
1002
{
1002
}
1040
0.0
1002
}
1002
{
1070
     0
1040
0.0
1002
{
1002
}
1040
1.0
1002
{
1002
}
1040
0.0
1002
}
1002
{
1040
0.0
1002
{
1002
{
1010
0.0
1020
0.0
1030
0.0
1002
}
1040
1.0
1000

1040
0.0
1002
{
1002
}
1040
0.0
1002
{
1002
}
1040
0.0
1002
}
1002
}
1002
{
1002
{
1070
     1
1002
{
1040
0.0
1040
1.0
1000

1040
0.0
1002
{
1002
}
1040
0.0
1002
{
1002
}
1040
0.0
1002
}
1002
}
1040
0.0
1002
{
1002
}
1010
1.0
1020
0.0
1030
0.0
1010
0.0
1020
1.0
1030
0.0
1010
0.0
1020
0.0
1030
1.0
1070
     0
1002
}
1002
{
1002
{
1040
1.0
1040
1.0
1002
{
1070
     1
1002
{
1040
1.0
1040
1.0
1000

1040
0.0
1002
{
1002
}
1040
0.0
1002
{
1002
}
1040
0.0
1002
}
1002
}
1002
}
1070
     0
1040
0.0
1002
{
1002
}
1002
}
1002
{
1002
}
1002
}
1002
{
1071
        3
1070
     3
1070
     0
1002
{
1070
     2
1070
     0
1070
     0
1040
0.0
1002
}
1070
     0
1070
     2
1002
{
1002
}
1002
}
1002
{
1040
8030.0
1040
190.3000030517578
1040
0.3050000071525574
1040
228.0
1040
545.0
1040
14.0
1040
17.39999961853027
1040
0.4560000002384186
1002
}
1002
}
  0
ENDSEC
  0
SECTION
  2
OBJECTS
  0
DICTIONARY
  5
7DE1B343D9DE977
330
0
100
AcDbDictionary
  3
ACAD_GROUP
350
7DE1B343D9DE978
  3
ACAD_LAYOUT
350
7DE1B343D9DE9B8
  3
ACAD_MLINESTYLE
350
7DE1B343D9DE979
  3
ACAD_PLOTSETTINGS
350
7DE1B343D9DE9B9
  3
ACAD_PLOTSTYLENAME
350
7DE1B343D9DE9B6
  3
ACDBHEADERROUNDTRIPXREC
350
7DE1B343D9DE9C3
  3
ACDBVARIABLEDICTIONARY
350
7DE1B343D9DE9C0
  0
DICTIONARY
  5
7DE1B343D9DE9E5
330
7DE1B343D9DE983
100
AcDbDictionary
280
     1
  3
ACAD_LAYOUTSELFREF
360
7DE1B343D9DE9E6
  0
DICTIONARY
  5
7DE1B343D9DE9E3
330
7DE1B343D9DE980
100
AcDbDictionary
280
     1
  3
ACAD_LAYOUTSELFREF
360
7DE1B343D9DE9E4
  0
DICTIONARY
  5
7DE1B343D9DE978
102
{ACAD_REACTORS
330
7DE1B343D9DE977
102
}
330
7DE1B343D9DE977
100
AcDbDictionary
  0
DICTIONARY
  5
7DE1B343D9DE9B8
102
{ACAD_REACTORS
330
7DE1B343D9DE977
102
}
330
7DE1B343D9DE977
100
AcDbDictionary
  0
DICTIONARY
  5
7DE1B343D9DE979
102
{ACAD_REACTORS
330
7DE1B343D9DE977
102
}
330
7DE1B343D9DE977
100
AcDbDictionary
  3
STANDARD
350
7DE1B343D9DE986
  0
DICTIONARY
  5
7DE1B343D9DE9B9
102
{ACAD_REACTORS
330
7DE1B343D9DE977
102
}
330
7DE1B343D9DE977
100
AcDbDictionary
  0
ACDBDICTIONARYWDFLT
  5
7DE1B343D9DE9B6
102
{ACAD_REACTORS
330
7DE1B343D9DE977
102
}
330
7DE1B343D9DE977
100
AcDbDictionary
281
     1
  3
Normal
350
7DE1B343D9DE9B7
100
AcDbDictionaryWithDefault
340
7DE1B343D9DE9B7
  0
DICTIONARY
  5
7DE1B343D9DE9C3
102
{ACAD_REACTORS
330
7DE1B343D9DE977
102
}
330
7DE1B343D9DE977
100
AcDbDictionary
  3
CEPSNTYPE
350
7DE1B343D9DE9CD
  3
FINGERPRINTGUID
350
7DE1B343D9DE9CE
  3
HYPERLINKBASE
350
7DE1B343D9DE9C6
  3
INSUNITS
350
7DE1B343D9DE9CC
  3
LAYOUTDICT
350
7DE1B343D9DE9C8
  3
LWETCUNION
350
7DE1B343D9DE9CB
  3
PLOTSETDICT
350
7DE1B343D9DE9C9
  3
PLOTSTYLNAMDICT
350
7DE1B343D9DE9CA
  3
PSVPSCALE
350
7DE1B343D9DE9D0
  3
PUCSBASE
350
7DE1B343D9DE9D3
  3
PUCSORGBACK
350
7DE1B343D9DE9D9
  3
PUCSORGBOTTOM
350
7DE1B343D9DE9D5
  3
PUCSORGFRONT
350
7DE1B343D9DE9D8
  3
PUCSORGLEFT
350
7DE1B343D9DE9D6
  3
PUCSORGRIGHT
350
7DE1B343D9DE9D7
  3
PUCSORGTOP
350
7DE1B343D9DE9D4
  3
PUCSORTHOREF
350
7DE1B343D9DE9D1
  3
PUCSORTHOVIEW
350
7DE1B343D9DE9D2
  3
STYLESHEET
350
7DE1B343D9DE9C7
  3
TSTACKALIGN
350
7DE1B343D9DE9C4
  3
TSTACKSIZE
350
7DE1B343D9DE9C5
  3
UCSBASE
350
7DE1B343D9DE9DC
  3
UCSORGBACK
350
7DE1B343D9DE9E2
  3
UCSORGBOTTOM
350
7DE1B343D9DE9DE
  3
UCSORGFRONT
350
7DE1B343D9DE9E1
  3
UCSORGLEFT
350
7DE1B343D9DE9DF
  3
UCSORGRIGHT
350
7DE1B343D9DE9E0
  3
UCSORGTOP
350
7DE1B343D9DE9DD
  3
UCSORTHOREF
350
7DE1B343D9DE9DA
  3
UCSORTHOVIEW
350
7DE1B343D9DE9DB
  3
VERSIONGUID
350
7DE1B343D9DE9CF
  0
DICTIONARY
  5
7DE1B343D9DE9C0
102
{ACAD_REACTORS
330
7DE1B343D9DE977
102
}
330
7DE1B343D9DE977
100
AcDbDictionary
  3
DIMASSOC
350
7DE1B343D9DE9C1
  0
XRECORD
  5
7DE1B343D9DE9E6
102
{ACAD_REACTORS
330
7DE1B343D9DE9E5
102
}
330
7DE1B343D9DE9E5
100
AcDbXrecord
340
7DE1B343D9DE983
  0
XRECORD
  5
7DE1B343D9DE9E4
102
{ACAD_REACTORS
330
7DE1B343D9DE9E3
102
}
330
7DE1B343D9DE9E3
100
AcDbXrecord
340
7DE1B343D9DE980
  0
MLINESTYLE
  5
7DE1B343D9DE986
102
{ACAD_REACTORS
330
7DE1B343D9DE979
102
}
330
7DE1B343D9DE979
100
AcDbMlineStyle
  2
STANDARD
 70
     0
  3

 62
     0
 51
90.0
 52
90.0
 71
     2
 49
0.5
 62
   256
  6
BYLAYER
 49
-0.5
 62
   256
  6
BYLAYER
  0
ACDBPLACEHOLDER
  5
7DE1B343D9DE9B7
102
{ACAD_REACTORS
330
7DE1B343D9DE9B6
102
}
330
7DE1B343D9DE9B6
100
AcDbPlaceHolder
280
     0
  0
XRECORD
  5
7DE1B343D9DE9CD
102
{ACAD_REACTORS
330
7DE1B343D9DE9C3
102
}
330
7DE1B343D9DE9C3
100
AcDbXrecord
 90
        0
  0
XRECORD
  5
7DE1B343D9DE9CE
102
{ACAD_REACTORS
330
7DE1B343D9DE9C3
102
}
330
7DE1B343D9DE9C3
100
AcDbXrecord
  1
{478015F0-8DB5-11D6-88E6-0090279574E7}
  0
XRECORD
  5
7DE1B343D9DE9C6
102
{ACAD_REACTORS
330
7DE1B343D9DE9C3
102
}
330
7DE1B343D9DE9C3
100
AcDbXrecord
  1

  0
XRECORD
  5
7DE1B343D9DE9CC
102
{ACAD_REACTORS
330
7DE1B343D9DE9C3
102
}
330
7DE1B343D9DE9C3
100
AcDbXrecord
 90
        0
  0
XRECORD
  5
7DE1B343D9DE9C8
102
{ACAD_REACTORS
330
7DE1B343D9DE9C3
102
}
330
7DE1B343D9DE9C3
100
AcDbXrecord
340
7DE1B343D9DE9B8
  0
XRECORD
  5
7DE1B343D9DE9CB
102
{ACAD_REACTORS
330
7DE1B343D9DE9C3
102
}
330
7DE1B343D9DE9C3
100
AcDbXrecord
 90
    14877
  0
XRECORD
  5
7DE1B343D9DE9C9
102
{ACAD_REACTORS
330
7DE1B343D9DE9C3
102
}
330
7DE1B343D9DE9C3
100
AcDbXrecord
340
7DE1B343D9DE9B9
  0
XRECORD
  5
7DE1B343D9DE9CA
102
{ACAD_REACTORS
330
7DE1B343D9DE9C3
102
}
330
7DE1B343D9DE9C3
100
AcDbXrecord
340
7DE1B343D9DE9B6
  0
XRECORD
  5
7DE1B343D9DE9D0
102
{ACAD_REACTORS
330
7DE1B343D9DE9C3
102
}
330
7DE1B343D9DE9C3
100
AcDbXrecord
 40
0.0
  0
XRECORD
  5
7DE1B343D9DE9D3
102
{ACAD_REACTORS
330
7DE1B343D9DE9C3
102
}
330
7DE1B343D9DE9C3
100
AcDbXrecord
340
0
  0
XRECORD
  5
7DE1B343D9DE9D9
102
{ACAD_REACTORS
330
7DE1B343D9DE9C3
102
}
330
7DE1B343D9DE9C3
100
AcDbXrecord
 10
0.0
 20
0.0
 30
0.0
  0
XRECORD
  5
7DE1B343D9DE9D5
102
{ACAD_REACTORS
330
7DE1B343D9DE9C3
102
}
330
7DE1B343D9DE9C3
100
AcDbXrecord
 10
0.0
 20
0.0
 30
0.0
  0
XRECORD
  5
7DE1B343D9DE9D8
102
{ACAD_REACTORS
330
7DE1B343D9DE9C3
102
}
330
7DE1B343D9DE9C3
100
AcDbXrecord
 10
0.0
 20
0.0
 30
0.0
  0
XRECORD
  5
7DE1B343D9DE9D6
102
{ACAD_REACTORS
330
7DE1B343D9DE9C3
102
}
330
7DE1B343D9DE9C3
100
AcDbXrecord
 10
0.0
 20
0.0
 30
0.0
  0
XRECORD
  5
7DE1B343D9DE9D7
102
{ACAD_REACTORS
330
7DE1B343D9DE9C3
102
}
330
7DE1B343D9DE9C3
100
AcDbXrecord
 10
0.0
 20
0.0
 30
0.0
  0
XRECORD
  5
7DE1B343D9DE9D4
102
{ACAD_REACTORS
330
7DE1B343D9DE9C3
102
}
330
7DE1B343D9DE9C3
100
AcDbXrecord
 10
0.0
 20
0.0
 30
0.0
  0
XRECORD
  5
7DE1B343D9DE9D1
102
{ACAD_REACTORS
330
7DE1B343D9DE9C3
102
}
330
7DE1B343D9DE9C3
100
AcDbXrecord
340
0
  0
XRECORD
  5
7DE1B343D9DE9D2
102
{ACAD_REACTORS
330
7DE1B343D9DE9C3
102
}
330
7DE1B343D9DE9C3
100
AcDbXrecord
 70
     0
  0
XRECORD
  5
7DE1B343D9DE9C7
102
{ACAD_REACTORS
330
7DE1B343D9DE9C3
102
}
330
7DE1B343D9DE9C3
100
AcDbXrecord
  1

  0
XRECORD
  5
7DE1B343D9DE9C4
102
{ACAD_REACTORS
330
7DE1B343D9DE9C3
102
}
330
7DE1B343D9DE9C3
100
AcDbXrecord
 90
        1
  0
XRECORD
  5
7DE1B343D9DE9C5
102
{ACAD_REACTORS
330
7DE1B343D9DE9C3
102
}
330
7DE1B343D9DE9C3
100
AcDbXrecord
 90
       70
  0
XRECORD
  5
7DE1B343D9DE9DC
102
{ACAD_REACTORS
330
7DE1B343D9DE9C3
102
}
330
7DE1B343D9DE9C3
100
AcDbXrecord
340
0
  0
XRECORD
  5
7DE1B343D9DE9E2
102
{ACAD_REACTORS
330
7DE1B343D9DE9C3
102
}
330
7DE1B343D9DE9C3
100
AcDbXrecord
 10
0.0
 20
0.0
 30
0.0
  0
XRECORD
  5
7DE1B343D9DE9DE
102
{ACAD_REACTORS
330
7DE1B343D9DE9C3
102
}
330
7DE1B343D9DE9C3
100
AcDbXrecord
 10
0.0
 20
0.0
 30
0.0
  0
XRECORD
  5
7DE1B343D9DE9E1
102
{ACAD_REACTORS
330
7DE1B343D9DE9C3
102
}
330
7DE1B343D9DE9C3
100
AcDbXrecord
 10
0.0
 20
0.0
 30
0.0
  0
XRECORD
  5
7DE1B343D9DE9DF
102
{ACAD_REACTORS
330
7DE1B343D9DE9C3
102
}
330
7DE1B343D9DE9C3
100
AcDbXrecord
 10
0.0
 20
0.0
 30
0.0
  0
XRECORD
  5
7DE1B343D9DE9E0
102
{ACAD_REACTORS
330
7DE1B343D9DE9C3
102
}
330
7DE1B343D9DE9C3
100
AcDbXrecord
 10
0.0
 20
0.0
 30
0.0
  0
XRECORD
  5
7DE1B343D9DE9DD
102
{ACAD_REACTORS
330
7DE1B343D9DE9C3
102
}
330
7DE1B343D9DE9C3
100
AcDbXrecord
 10
0.0
 20
0.0
 30
0.0
  0
XRECORD
  5
7DE1B343D9DE9DA
102
{ACAD_REACTORS
330
7DE1B343D9DE9C3
102
}
330
7DE1B343D9DE9C3
100
AcDbXrecord
340
0
  0
XRECORD
  5
7DE1B343D9DE9DB
102
{ACAD_REACTORS
330
7DE1B343D9DE9C3
102
}
330
7DE1B343D9DE9C3
100
AcDbXrecord
 70
     0
  0
XRECORD
  5
7DE1B343D9DE9CF
102
{ACAD_REACTORS
330
7DE1B343D9DE9C3
102
}
330
7DE1B343D9DE9C3
100
AcDbXrecord
  1
{478015F2-8DB5-11D6-88E6-0090279574E7}
  0
DICTIONARYVAR
  5
7DE1B343D9DE9C1
102
{ACAD_REACTORS
330
7DE1B343D9DE9C0
102
}
330
7DE1B343D9DE9C0
100
DictionaryVariables
280
     0
  1
1
  0
ENDSEC
  0
EOF
