  0
SECTION
  2
HEADER
  9
$ACADVER
  1
AC1014
  9
$ACADMAINTVER
 70
     9
  9
$DWGCODEPAGE
  3
ANSI_1252
  9
$INSBASE
 10
0.0
 20
0.0
 30
0.0
  9
$EXTMIN
 10
-0.8933410608643555
 20
-0.0709534729627685
 30
0.0
  9
$EXTMAX
 10
2.591878260882772
 20
1.066984007590088
 30
0.0
  9
$LIMMIN
 10
0.0
 20
0.0
  9
$LIMMAX
 10
12.0
 20
9.0
  9
$ORTHOMODE
 70
     1
  9
$REGENMODE
 70
     1
  9
$FILLMODE
 70
     1
  9
$QTEXTMODE
 70
     0
  9
$MIRRTEXT
 70
     0
  9
$DRAGMODE
 70
     2
  9
$LTSCALE
 40
1.0
  9
$OSMODE
 70
    39
  9
$ATTMODE
 70
     1
  9
$TEXTSIZE
 40
0.125
  9
$TRACEWID
 40
0.05
  9
$TEXTSTYLE
  7
ROMANS
  9
$CLAYER
  8
TEXT
  9
$CELTYPE
  6
BYLAYER
  9
$CECOLOR
 62
   256
  9
$CELTSCALE
 40
1.0
  9
$DELOBJ
 70
     1
  9
$DISPSILH
 70
     1
  9
$DIMSCALE
 40
2.0
  9
$DIMASZ
 40
0.125
  9
$DIMEXO
 40
0.125
  9
$DIMDLI
 40
0.38
  9
$DIMRND
 40
0.0
  9
$DIMDLE
 40
0.0
  9
$DIMEXE
 40
0.125
  9
$DIMTP
 40
0.0
  9
$DIMTM
 40
0.0
  9
$DIMTXT
 40
0.125
  9
$DIMCEN
 40
0.09
  9
$DIMTSZ
 40
0.0
  9
$DIMTOL
 70
     0
  9
$DIMLIM
 70
     0
  9
$DIMTIH
 70
     1
  9
$DIMTOH
 70
     1
  9
$DIMSE1
 70
     0
  9
$DIMSE2
 70
     0
  9
$DIMTAD
 70
     0
  9
$DIMZIN
 70
     4
  9
$DIMBLK
  1

  9
$DIMASO
 70
     1
  9
$DIMSHO
 70
     1
  9
$DIMPOST
  1

  9
$DIMAPOST
  1

  9
$DIMALT
 70
     0
  9
$DIMALTD
 70
     2
  9
$DIMALTF
 40
25.4
  9
$DIMLFAC
 40
0.25
  9
$DIMTOFL
 70
     0
  9
$DIMTVP
 40
0.0
  9
$DIMTIX
 70
     1
  9
$DIMSOXD
 70
     0
  9
$DIMSAH
 70
     0
  9
$DIMBLK1
  1

  9
$DIMBLK2
  1

  9
$DIMSTYLE
  2
STANDARD
  9
$DIMCLRD
 70
     0
  9
$DIMCLRE
 70
     0
  9
$DIMCLRT
 70
     0
  9
$DIMTFAC
 40
1.0
  9
$DIMGAP
 40
0.09
  9
$DIMJUST
 70
     0
  9
$DIMSD1
 70
     0
  9
$DIMSD2
 70
     0
  9
$DIMTOLJ
 70
     1
  9
$DIMTZIN
 70
     0
  9
$DIMALTZ
 70
     0
  9
$DIMALTTZ
 70
     0
  9
$DIMFIT
 70
     3
  9
$DIMUPT
 70
     0
  9
$DIMUNIT
 70
     2
  9
$DIMDEC
 70
     3
  9
$DIMTDEC
 70
     4
  9
$DIMALTU
 70
     2
  9
$DIMALTTD
 70
     2
  9
$DIMTXSTY
  7
ROMANS
  9
$DIMAUNIT
 70
     0
  9
$LUNITS
 70
     2
  9
$LUPREC
 70
     3
  9
$SKETCHINC
 40
0.1
  9
$FILLETRAD
 40
0.0
  9
$AUNITS
 70
     0
  9
$AUPREC
 70
     0
  9
$MENU
  1
AUTOMSTR
  9
$ELEVATION
 40
0.0
  9
$PELEVATION
 40
0.0
  9
$THICKNESS
 40
0.0
  9
$LIMCHECK
 70
     0
  9
$BLIPMODE
 70
     0
  9
$CHAMFERA
 40
0.0
  9
$CHAMFERB
 40
0.0
  9
$CHAMFERC
 40
0.0
  9
$CHAMFERD
 40
0.0
  9
$SKPOLY
 70
     0
  9
$TDCREATE
 40
2448341.373043171
  9
$TDUPDATE
 40
2452458.301778125
  9
$TDINDWG
 40
0.0391889583
  9
$TDUSRTIMER
 40
0.0391889583
  9
$USRTIMER
 70
     1
  9
$ANGBASE
 50
0.0
  9
$ANGDIR
 70
     0
  9
$PDMODE
 70
     0
  9
$PDSIZE
 40
0.0
  9
$PLINEWID
 40
0.0
  9
$COORDS
 70
     2
  9
$SPLFRAME
 70
     0
  9
$SPLINETYPE
 70
     6
  9
$SPLINESEGS
 70
     8
  9
$ATTDIA
 70
     0
  9
$ATTREQ
 70
     1
  9
$HANDLING
 70
 22529
  9
$HANDSEED
  5
3A2
  9
$SURFTAB1
 70
     6
  9
$SURFTAB2
 70
     6
  9
$SURFTYPE
 70
     6
  9
$SURFU
 70
     6
  9
$SURFV
 70
     6
  9
$UCSNAME
  2

  9
$UCSORG
 10
0.0
 20
0.0
 30
0.0
  9
$UCSXDIR
 10
1.0
 20
0.0
 30
0.0
  9
$UCSYDIR
 10
0.0
 20
1.0
 30
0.0
  9
$PUCSNAME
  2

  9
$PUCSORG
 10
0.0
 20
0.0
 30
0.0
  9
$PUCSXDIR
 10
1.0
 20
0.0
 30
0.0
  9
$PUCSYDIR
 10
0.0
 20
1.0
 30
0.0
  9
$USERI1
 70
     0
  9
$USERI2
 70
     0
  9
$USERI3
 70
     0
  9
$USERI4
 70
     0
  9
$USERI5
 70
     0
  9
$USERR1
 40
0.0
  9
$USERR2
 40
0.0
  9
$USERR3
 40
0.0
  9
$USERR4
 40
0.0
  9
$USERR5
 40
0.0
  9
$WORLDVIEW
 70
     1
  9
$SHADEDGE
 70
     3
  9
$SHADEDIF
 70
    70
  9
$TILEMODE
 70
     1
  9
$MAXACTVP
 70
    16
  9
$PINSBASE
 10
0.0
 20
0.0
 30
0.0
  9
$PLIMCHECK
 70
     0
  9
$PEXTMIN
 10
1.000000000000000E+20
 20
1.000000000000000E+20
 30
1.000000000000000E+20
  9
$PEXTMAX
 10
-1.000000000000000E+20
 20
-1.000000000000000E+20
 30
-1.000000000000000E+20
  9
$PLIMMIN
 10
0.0
 20
0.0
  9
$PLIMMAX
 10
12.0
 20
9.0
  9
$UNITMODE
 70
     0
  9
$VISRETAIN
 70
     0
  9
$PLINEGEN
 70
     1
  9
$PSLTSCALE
 70
     0
  9
$TREEDEPTH
 70
  3020
  9
$PICKSTYLE
 70
     1
  9
$CMLSTYLE
  2
STANDARD
  9
$CMLJUST
 70
     0
  9
$CMLSCALE
 40
1.0
  9
$PROXYGRAPHICS
 70
     1
  9
$MEASUREMENT
 70
     0
  0
ENDSEC
  0
SECTION
  2
CLASSES
  0
CLASS
  1
LWPOLYLINE
  2
AcDbPolyline
  3
AutoCAD 2000
 90
        0
280
     0
281
     1
  0
CLASS
  1
ACDBDICTIONARYWDFLT
  2
AcDbDictionaryWithDefault
  3
AutoCAD 2000
 90
        0
280
     0
281
     0
  0
CLASS
  1
ACDBPLACEHOLDER
  2
AcDbPlaceHolder
  3
AutoCAD 2000
 90
        0
280
     0
281
     0
  0
CLASS
  1
LAYOUT
  2
AcDbLayout
  3
AutoCAD 2000
 90
        0
280
     0
281
     0
  0
CLASS
  1
DICTIONARYVAR
  2
AcDbDictionaryVar
  3
AutoCAD 2000
 90
        0
280
     0
281
     0
  0
CLASS
  1
LONG_TRANSACTION
  2
AcDbLongTransaction
  3
AutoCAD 2000
 90
        0
280
     0
281
     0
  0
CLASS
  1
LWPOLYLINE
  2
AcDbPolyline
  3
AutoCAD 2000
 90
        0
280
     0
281
     1
  0
CLASS
  1
HATCH
  2
AcDbHatch
  3
AutoCAD 2000
 90
        0
280
     0
281
     1
  0
CLASS
  1
XRECORD
  2
AcDbXrecord
  3
AutoCAD 2000
 90
        0
280
     0
281
     0
  0
ENDSEC
  0
SECTION
  2
TABLES
  0
TABLE
  2
VPORT
  5
8
330
0
100
AcDbSymbolTable
 70
     2
  0
VPORT
  5
37D
330
8
100
AcDbSymbolTableRecord
100
AcDbViewportTableRecord
  2
*ACTIVE
 70
     0
 10
0.0
 20
0.0
 11
1.0
 21
1.0
 12
5.973576747580825
 22
0.8456405224266976
 13
0.0
 23
0.0
 14
0.015625
 24
0.015625
 15
0.0
 25
0.0
 16
0.0
 26
0.0
 36
1.0
 17
0.0
 27
0.0
 37
0.0
 40
3.759188808055321
 41
4.320930232558139
 42
50.0
 43
0.0
 44
0.0
 50
0.0
 51
0.0
 71
     0
 72
  2000
 73
     1
 74
     1
 75
     0
 76
     0
 77
     0
 78
     0
  0
ENDTAB
  0
TABLE
  2
LTYPE
  5
5
330
0
100
AcDbSymbolTable
 70
     1
  0
LTYPE
  5
12
330
5
100
AcDbSymbolTableRecord
100
AcDbLinetypeTableRecord
  2
BYBLOCK
 70
     0
  3

 72
    65
 73
     0
 40
0.0
  0
LTYPE
  5
13
330
5
100
AcDbSymbolTableRecord
100
AcDbLinetypeTableRecord
  2
BYLAYER
 70
     0
  3

 72
    65
 73
     0
 40
0.0
  0
LTYPE
  5
14
330
5
100
AcDbSymbolTableRecord
100
AcDbLinetypeTableRecord
  2
CONTINUOUS
 70
     0
  3
Solid line
 72
    65
 73
     0
 40
0.0
  0
ENDTAB
  0
TABLE
  2
LAYER
  5
2
330
0
100
AcDbSymbolTable
 70
     2
  0
LAYER
  5
F
330
2
100
AcDbSymbolTableRecord
100
AcDbLayerTableRecord
  2
0
 70
     0
 62
     7
  6
CONTINUOUS
  0
LAYER
  5
2C
330
2
100
AcDbSymbolTableRecord
100
AcDbLayerTableRecord
  2
TEXT
 70
     0
 62
     3
  6
CONTINUOUS
  0
ENDTAB
  0
TABLE
  2
STYLE
  5
3
330
0
100
AcDbSymbolTable
 70
     3
  0
STYLE
  5
10
330
3
100
AcDbSymbolTableRecord
100
AcDbTextStyleTableRecord
  2
STANDARD
 70
     0
 40
0.0
 41
1.0
 50
0.0
 71
     0
 42
0.125
  3
txt
  4

  0
STYLE
  5
269
330
3
100
AcDbSymbolTableRecord
100
AcDbTextStyleTableRecord
  2
ITALICC
 70
     0
 40
0.0
 41
1.0
 50
0.0
 71
     0
 42
0.125
  3
italicc
  4

  0
STYLE
  5
379
330
3
100
AcDbSymbolTableRecord
100
AcDbTextStyleTableRecord
  2
ROMANS
 70
     0
 40
0.0
 41
1.0
 50
0.0
 71
     0
 42
0.125
  3
romans.shx
  4

  0
ENDTAB
  0
TABLE
  2
VIEW
  5
6
330
0
100
AcDbSymbolTable
 70
     0
  0
ENDTAB
  0
TABLE
  2
UCS
  5
7
330
0
100
AcDbSymbolTable
 70
     0
  0
ENDTAB
  0
TABLE
  2
APPID
  5
9
330
0
100
AcDbSymbolTable
 70
     1
  0
APPID
  5
11
330
9
100
AcDbSymbolTableRecord
100
AcDbRegAppTableRecord
  2
ACAD
 70
     0
  0
ENDTAB
  0
TABLE
  2
DIMSTYLE
  5
A
330
0
100
AcDbSymbolTable
 70
     1
  0
DIMSTYLE
105
25C
330
A
100
AcDbSymbolTableRecord
100
AcDbDimStyleTableRecord
  2
STANDARD
 70
     0
  3

  4

  5

  6

  7

 40
1.0
 41
0.18
 42
0.0625
 43
0.38
 44
0.18
 45
0.0
 46
0.0
 47
0.0
 48
0.0
140
0.18
141
0.09
142
0.0
143
25.4
144
1.0
145
0.0
146
1.0
147
0.09
 71
     0
 72
     0
 73
     1
 74
     1
 75
     0
 76
     0
 77
     0
 78
     0
170
     0
171
     2
172
     0
173
     0
174
     0
175
     0
176
     0
177
     0
178
     0
270
     2
271
     4
272
     4
273
     2
274
     2
340
10
275
     0
280
     0
281
     0
282
     0
283
     1
284
     0
285
     0
286
     0
287
     3
288
     0
  0
ENDTAB
  0
TABLE
  2
BLOCK_RECORD
  5
1
330
0
100
AcDbSymbolTable
 70
     0
  0
BLOCK_RECORD
  5
18
102
{ACAD_XDICTIONARY
360
3A0
102
}
330
1
100
AcDbSymbolTableRecord
100
AcDbBlockTableRecord
  2
*MODEL_SPACE
  0
BLOCK_RECORD
  5
15
102
{ACAD_XDICTIONARY
360
39E
102
}
330
1
100
AcDbSymbolTableRecord
100
AcDbBlockTableRecord
  2
*PAPER_SPACE
  0
ENDTAB
  0
ENDSEC
  0
SECTION
  2
BLOCKS
  0
BLOCK
  5
35
330
18
100
AcDbEntity
  8
0
100
AcDbBlockBegin
  2
*MODEL_SPACE
 70
     0
 10
0.0
 20
0.0
 30
0.0
  3
*MODEL_SPACE
  1

  0
ENDBLK
  5
36
330
18
100
AcDbEntity
  8
0
100
AcDbBlockEnd
  0
BLOCK
  5
33
330
15
100
AcDbEntity
 67
     1
  8
0
100
AcDbBlockBegin
  2
*PAPER_SPACE
 70
     0
 10
0.0
 20
0.0
 30
0.0
  3
*PAPER_SPACE
  1

  0
ENDBLK
  5
34
330
15
100
AcDbEntity
 67
     1
  8
0
100
AcDbBlockEnd
  0
ENDSEC
  0
SECTION
  2
ENTITIES
  0
LWPOLYLINE
  5
45
330
18
100
AcDbEntity
  8
0
100
AcDbPolyline
 90
       24
 70
     1
 43
0.0
 10
0.8123945162178074
 20
0.7998177917210372
 10
0.7982523805940769
 20
0.7998177917210372
 10
0.6727409269334644
 20
0.6743063380604238
 10
0.6117574312279617
 20
0.6743063380604238
 42
-0.6681786379192988
 10
0.6037307359313236
 20
0.693684494706603
 10
0.6209058801440417
 20
0.7108596389193212
 42
0.6681786379193199
 10
0.6132650071787804
 20
0.7293063380604261
 10
0.5504059698784199
 20
0.7293063380604261
 10
0.5504059698784199
 20
0.6243063380604248
 10
0.6934516050521192
 20
0.6243063380604248
 10
0.9879059698784207
 20
0.9187607028867263
 10
0.9879059698784198
 20
1.011806338060424
 10
1.18790596987842
 20
1.011806338060424
 10
1.18790596987842
 20
0.7493063380604248
 10
1.237905969878419
 20
0.7493063380604248
 10
1.237905969878419
 20
1.036806338060424
 42
0.4142135623730951
 10
1.212905969878419
 20
1.061806338060424
 10
0.8829059698784194
 20
1.061806338060423
 10
0.8829059698784185
 20
0.9989473007600615
 42
0.668178637919278
 10
0.9013526690195208
 20
0.9913064277948002
 10
0.9185278132322416
 20
1.008481572007521
 42
-0.668178637919279
 10
0.93790596987842
 20
1.000454876710882
 10
0.93790596987842
 20
0.9394713810053803
 10
0.8123945162178074
 20
0.8139599273447677
  0
TEXT
  5
2EF
330
18
100
AcDbEntity
  8
TEXT
100
AcDbText
 10
0.0966643278865975
 20
0.387065131119813
 30
0.0
 40
0.125
  1
PART #110224
  7
ITALICC
 72
     1
 11
0.8496405183627873
 21
0.387065131119813
 31
0.0
100
AcDbText
  0
LINE
  5
2F0
330
18
100
AcDbEntity
  8
TEXT
100
AcDbLine
 10
0.81737401731485
 20
0.1427114450999793
 30
0.0
 11
0.8940219986074078
 21
0.1427114450999793
 31
0.0
  0
LINE
  5
2F1
330
18
100
AcDbEntity
  8
TEXT
100
AcDbLine
 10
0.8895421112809076
 20
0.2069881397567448
 30
0.0
 11
0.8220423936313911
 21
0.2069881397567448
 31
0.0
  0
LWPOLYLINE
  5
2F2
330
18
100
AcDbEntity
  8
TEXT
100
AcDbPolyline
 90
        5
 70
     0
 43
0.0001332181640625
 10
-0.819738025219825
 20
0.0837613379989319
 10
-0.8064162088135763
 20
0.0837613379989319
 10
-0.8064162088135763
 20
0.1203963331161217
 10
-0.7697812136963865
 20
0.1203963331161217
 10
-0.7697812136963865
 20
0.1337181495223687
  0
LWPOLYLINE
  5
2F3
330
18
100
AcDbEntity
  8
TEXT
100
AcDbPolyline
 90
        3
 70
     0
 43
0.0006660908203125
 10
-0.779772576001077
 20
0.1803445069442473
 10
-0.8663643826417018
 20
0.1803445069442473
 10
-0.8663643826417018
 20
0.0937527003036207
  0
LWPOLYLINE
  5
2F4
330
18
100
AcDbEntity
  8
TEXT
100
AcDbPolyline
 90
        3
 70
     0
 43
0.0006660908203125
 10
-0.779772576001077
 20
0.2069881397567483
 10
-0.8930080154541993
 20
0.2069881397567483
 10
-0.8930080154541993
 20
0.0937527003036207
  0
LWPOLYLINE
  5
2F5
330
18
100
AcDbEntity
  8
TEXT
100
AcDbPolyline
 90
        5
 70
     0
 43
0.0001332181640625
 10
-0.7697812136963865
 20
0.0138218018661212
 10
-0.7697812136963865
 20
0.0271436182723717
 10
-0.8064162088135745
 20
0.0271436182723717
 10
-0.8064162088135745
 20
0.0637786133895579
 10
-0.819738025219825
 20
0.0637786133895579
  0
LWPOLYLINE
  5
2F6
330
18
100
AcDbEntity
  8
TEXT
100
AcDbPolyline
 90
        3
 70
     0
 43
0.0006660908203125
 10
-0.8663643826417018
 20
0.0537872510848727
 10
-0.8663643826417018
 20
-0.0328045555557539
 10
-0.779772576001077
 20
-0.0328045555557539
  0
LWPOLYLINE
  5
2F7
330
18
100
AcDbEntity
  8
TEXT
100
AcDbPolyline
 90
        3
 70
     0
 43
0.0006660908203125
 10
-0.8930080154541993
 20
0.0537872510848727
 10
-0.8930080154541993
 20
-0.059448188368255
 10
-0.779772576001077
 20
-0.059448188368255
  0
LWPOLYLINE
  5
2F8
330
18
100
AcDbEntity
  8
TEXT
100
AcDbPolyline
 90
        2
 70
     0
 43
0.0001332181640625
 10
-0.8663643826417018
 20
0.0537872510848727
 10
-0.8064162088135745
 20
0.0637786133895579
  0
LWPOLYLINE
  5
2F9
330
18
100
AcDbEntity
  8
TEXT
100
AcDbPolyline
 90
        2
 70
     0
 43
0.0001332181640625
 10
-0.819738025219825
 20
0.0637786133895579
 10
-0.8930080154541993
 20
0.0537872510848727
  0
LWPOLYLINE
  5
2FA
330
18
100
AcDbEntity
  8
TEXT
100
AcDbPolyline
 90
        2
 70
     0
 43
0.0006660908203125
 10
-0.8663643826417018
 20
0.0537872510848727
 10
-0.8930080154541993
 20
0.0537872510848727
  0
LWPOLYLINE
  5
2FB
330
18
100
AcDbEntity
  8
TEXT
100
AcDbPolyline
 90
        2
 70
     0
 43
0.0001332181640625
 10
-0.8663643826417018
 20
-0.0328045555557539
 10
-0.8064162088135745
 20
0.0271436182723717
  0
LWPOLYLINE
  5
2FC
330
18
100
AcDbEntity
  8
TEXT
100
AcDbPolyline
 90
        2
 70
     0
 43
0.0006660908203125
 10
-0.8663643826417018
 20
0.0937527003036207
 10
-0.8930080154541993
 20
0.0937527003036207
  0
LWPOLYLINE
  5
2FD
330
18
100
AcDbEntity
  8
TEXT
100
AcDbPolyline
 90
        2
 70
     0
 43
0.0001332181640625
 10
-0.8930080154541993
 20
0.0937527003036207
 10
-0.819738025219825
 20
0.0837613379989319
  0
LWPOLYLINE
  5
2FE
330
18
100
AcDbEntity
  8
TEXT
100
AcDbPolyline
 90
        2
 70
     0
 43
0.0001332181640625
 10
-0.8663643826417018
 20
0.0937527003036207
 10
-0.8064162088135763
 20
0.0837613379989319
  0
LWPOLYLINE
  5
2FF
330
18
100
AcDbEntity
  8
TEXT
100
AcDbPolyline
 90
        2
 70
     0
 43
0.0001332181640625
 10
-0.8663643826417018
 20
0.1803445069442473
 10
-0.8064162088135763
 20
0.1203963331161217
  0
LWPOLYLINE
  5
300
330
18
100
AcDbEntity
  8
TEXT
100
AcDbPolyline
 90
        5
 70
     0
 43
0.0001332181640625
 10
-0.6998416775635757
 20
0.0637786133895579
 10
-0.7131634939698244
 20
0.0637786133895579
 10
-0.7131634939698244
 20
0.0271436182723717
 10
-0.7497984890870142
 20
0.0271436182723717
 10
-0.7497984890870142
 20
0.0138218018661212
  0
LWPOLYLINE
  5
301
330
18
100
AcDbEntity
  8
TEXT
100
AcDbPolyline
 90
        2
 70
     0
 43
0.0001332181640625
 10
-0.6532153201417006
 20
0.0537872510848727
 10
-0.7131634939698244
 20
0.0637786133895579
  0
LWPOLYLINE
  5
302
330
18
100
AcDbEntity
  8
TEXT
100
AcDbPolyline
 90
        2
 70
     0
 43
0.0001332181640625
 10
-0.6265716873291996
 20
0.0537872510848727
 10
-0.6998416775635757
 20
0.0637786133895579
  0
LWPOLYLINE
  5
303
330
18
100
AcDbEntity
  8
TEXT
100
AcDbPolyline
 90
        3
 70
     0
 43
0.0006660908203125
 10
-0.7398071267823254
 20
-0.059448188368255
 10
-0.6265716873291996
 20
-0.059448188368255
 10
-0.6265716873291996
 20
0.0537872510848727
  0
LWPOLYLINE
  5
304
330
18
100
AcDbEntity
  8
TEXT
100
AcDbPolyline
 90
        3
 70
     0
 43
0.0006660908203125
 10
-0.7398071267823254
 20
-0.0328045555557539
 10
-0.6532153201417006
 20
-0.0328045555557539
 10
-0.6532153201417006
 20
0.0537872510848727
  0
LWPOLYLINE
  5
305
330
18
100
AcDbEntity
  8
TEXT
100
AcDbPolyline
 90
        2
 70
     0
 43
0.0001332181640625
 10
-0.6532153201417006
 20
-0.0328045555557539
 10
-0.7131634939698244
 20
0.0271436182723717
  0
LWPOLYLINE
  5
306
330
18
100
AcDbEntity
  8
TEXT
100
AcDbPolyline
 90
        2
 70
     0
 43
0.0006660908203125
 10
-0.7398071267823254
 20
-0.0328045555557539
 10
-0.7398071267823254
 20
-0.059448188368255
  0
LWPOLYLINE
  5
307
330
18
100
AcDbEntity
  8
TEXT
100
AcDbPolyline
 90
        2
 70
     0
 43
0.0001332181640625
 10
-0.7497984890870142
 20
0.0138218018661212
 10
-0.7398071267823254
 20
-0.059448188368255
  0
LWPOLYLINE
  5
308
330
18
100
AcDbEntity
  8
TEXT
100
AcDbPolyline
 90
        2
 70
     0
 43
0.0001332181640625
 10
-0.7398071267823254
 20
-0.0328045555557539
 10
-0.7497984890870142
 20
0.0271436182723717
  0
LWPOLYLINE
  5
309
330
18
100
AcDbEntity
  8
TEXT
100
AcDbPolyline
 90
        2
 70
     0
 43
0.0001332181640625
 10
-0.779772576001077
 20
-0.059448188368255
 10
-0.7697812136963865
 20
0.0138218018661212
  0
LWPOLYLINE
  5
30A
330
18
100
AcDbEntity
  8
TEXT
100
AcDbPolyline
 90
        2
 70
     0
 43
0.0001332181640625
 10
-0.779772576001077
 20
-0.0328045555557539
 10
-0.7697812136963865
 20
0.0271436182723717
  0
LWPOLYLINE
  5
30B
330
18
100
AcDbEntity
  8
TEXT
100
AcDbPolyline
 90
        2
 70
     0
 43
0.0006660908203125
 10
-0.779772576001077
 20
-0.0328045555557539
 10
-0.779772576001077
 20
-0.059448188368255
  0
LWPOLYLINE
  5
30C
330
18
100
AcDbEntity
  8
TEXT
100
AcDbPolyline
 90
        2
 70
     0
 43
0.0006660908203125
 10
-0.6532153201417006
 20
0.0537872510848727
 10
-0.6265716873291996
 20
0.0537872510848727
  0
LWPOLYLINE
  5
30D
330
18
100
AcDbEntity
  8
TEXT
100
AcDbPolyline
 90
        2
 70
     0
 43
0.0001332181640625
 10
-0.6532153201417006
 20
0.1803445069442473
 10
-0.7131634939698244
 20
0.1203963331161217
  0
LWPOLYLINE
  5
30E
330
18
100
AcDbEntity
  8
TEXT
100
AcDbPolyline
 90
        2
 70
     0
 43
0.0001332181640625
 10
-0.6532153201417006
 20
0.0937527003036207
 10
-0.7131634939698244
 20
0.0837613379989319
  0
LWPOLYLINE
  5
30F
330
18
100
AcDbEntity
  8
TEXT
100
AcDbPolyline
 90
        2
 70
     0
 43
0.0001332181640625
 10
-0.6998416775635757
 20
0.0837613379989319
 10
-0.6265716873291996
 20
0.0937527003036207
  0
LWPOLYLINE
  5
310
330
18
100
AcDbEntity
  8
TEXT
100
AcDbPolyline
 90
        3
 70
     0
 43
0.0006660908203125
 10
-0.6532153201417006
 20
0.0937527003036207
 10
-0.6532153201417006
 20
0.1803445069442473
 10
-0.7398071267823254
 20
0.1803445069442473
  0
LWPOLYLINE
  5
311
330
18
100
AcDbEntity
  8
TEXT
100
AcDbPolyline
 90
        3
 70
     0
 43
0.0006660908203125
 10
-0.6265716873291996
 20
0.0937527003036207
 10
-0.6265716873291996
 20
0.2069881397567483
 10
-0.7398071267823254
 20
0.2069881397567483
  0
LWPOLYLINE
  5
312
330
18
100
AcDbEntity
  8
TEXT
100
AcDbPolyline
 90
        2
 70
     0
 43
0.0001332181640625
 10
-0.7398071267823254
 20
0.2069881397567483
 10
-0.7497984890870142
 20
0.1337181495223687
  0
LWPOLYLINE
  5
313
330
18
100
AcDbEntity
  8
TEXT
100
AcDbPolyline
 90
        2
 70
     0
 43
0.0001332181640625
 10
-0.7398071267823254
 20
0.1803445069442473
 10
-0.7497984890870142
 20
0.1203963331161217
  0
LWPOLYLINE
  5
314
330
18
100
AcDbEntity
  8
TEXT
100
AcDbPolyline
 90
        2
 70
     0
 43
0.0006660908203125
 10
-0.7398071267823254
 20
0.1803445069442473
 10
-0.7398071267823254
 20
0.2069881397567483
  0
LWPOLYLINE
  5
315
330
18
100
AcDbEntity
  8
TEXT
100
AcDbPolyline
 90
        5
 70
     0
 43
0.0001332181640625
 10
-0.7497984890870142
 20
0.1337181495223687
 10
-0.7497984890870142
 20
0.1203963331161217
 10
-0.7131634939698244
 20
0.1203963331161217
 10
-0.7131634939698244
 20
0.0837613379989319
 10
-0.6998416775635757
 20
0.0837613379989319
  0
LWPOLYLINE
  5
316
330
18
100
AcDbEntity
  8
TEXT
100
AcDbPolyline
 90
        2
 70
     0
 43
0.0001332181640625
 10
-0.779772576001077
 20
0.1803445069442473
 10
-0.7697812136963865
 20
0.1203963331161217
  0
LWPOLYLINE
  5
317
330
18
100
AcDbEntity
  8
TEXT
100
AcDbPolyline
 90
        2
 70
     0
 43
0.0001332181640625
 10
-0.7697812136963865
 20
0.1337181495223687
 10
-0.779772576001077
 20
0.2069881397567483
  0
LWPOLYLINE
  5
318
330
18
100
AcDbEntity
  8
TEXT
100
AcDbPolyline
 90
        2
 70
     0
 43
0.0006660908203125
 10
-0.779772576001077
 20
0.1803445069442473
 10
-0.779772576001077
 20
0.2069881397567483
  0
LWPOLYLINE
  5
319
330
18
100
AcDbEntity
  8
TEXT
100
AcDbPolyline
 90
        2
 70
     0
 43
0.0006660908203125
 10
-0.6532153201417006
 20
0.0937527003036207
 10
-0.6265716873291996
 20
0.0937527003036207
  0
LWPOLYLINE
  5
31A
330
18
100
AcDbEntity
  8
TEXT
100
AcDbPolyline
 90
        2
 70
     0
 43
0.0
 10
0.0922082334194308
 20
-0.0079335510168379
 42
0.3318488747599744
 10
0.1613275259847438
 20
-0.0594848932317662
 42
-6.868794160588311
  0
LINE
  5
31B
330
18
100
AcDbEntity
  8
TEXT
100
AcDbLine
 10
0.1601879524885481
 20
0.2749996174955553
 30
0.0
 11
0.0933792399221831
 21
0.2749996174955553
 31
0.0
  0
LINE
  5
31C
330
18
100
AcDbEntity
  8
TEXT
100
AcDbLine
 10
-0.1859631276969109
 20
0.2069881397567448
 30
0.0
 11
-0.3616948805954223
 21
0.2069881397567448
 31
0.0
  0
ARC
  5
31D
330
18
100
AcDbEntity
  8
TEXT
100
AcDbCircle
 10
-0.2908574142368727
 20
0.0237109151287909
 30
0.0
 40
0.0831958083605586
100
AcDbArc
 50
270.0
 51
90.0
  0
LINE
  5
31E
330
18
100
AcDbEntity
  8
TEXT
100
AcDbLine
 10
-0.3564575504811742
 20
0.1427114450999793
 30
0.0
 11
-0.1895518964522038
 21
0.1427114450999793
 31
0.0
  0
LINE
  5
31F
330
18
100
AcDbEntity
  8
TEXT
100
AcDbLine
 10
-0.2859170403305935
 20
0.0088721131016731
 30
0.0
 11
-0.4437823400419277
 21
0.0088721131016731
 31
0.0
  0
LINE
  5
320
330
18
100
AcDbEntity
  8
TEXT
100
AcDbLine
 10
-0.4437823400419259
 20
-0.0594848932317662
 30
0.0
 11
-0.2908574142368732
 21
-0.0594848932317662
 31
0.0
  0
ARC
  5
321
330
18
100
AcDbEntity
  8
TEXT
100
AcDbCircle
 10
-0.3616948805954219
 20
0.124900680310243
 30
0.0
 40
0.0820874594465043
100
AcDbArc
 50
90.0
 51
270.0
  0
LINE
  5
322
330
18
100
AcDbEntity
  8
TEXT
100
AcDbLine
 10
-0.4437823400419277
 20
0.0088721131016731
 30
0.0
 11
-0.4437823400419259
 21
-0.0594848932317662
 31
0.0
  0
LINE
  5
323
330
18
100
AcDbEntity
  8
TEXT
100
AcDbLine
 10
-0.3616948805954223
 20
0.0428132208637377
 30
0.0
 11
-0.2859170403305935
 21
0.0428132208637377
 31
0.0
  0
ARC
  5
324
330
18
100
AcDbEntity
  8
TEXT
100
AcDbCircle
 10
-0.2859170403305931
 20
0.0258426669827072
 30
0.0
 40
0.0169705538810321
100
AcDbArc
 50
270.0
 51
90.0
  0
LINE
  5
325
330
18
100
AcDbEntity
  8
TEXT
100
AcDbLine
 10
-0.2908574142368732
 20
0.1069067234893515
 30
0.0
 11
-0.3564575504811742
 21
0.1069067234893515
 31
0.0
  0
ARC
  5
326
330
18
100
AcDbEntity
  8
TEXT
100
AcDbCircle
 10
-0.3564575504811738
 20
0.1248090842946672
 30
0.0
 40
0.017902360805315
100
AcDbArc
 50
90.0
 51
270.0
  0
LINE
  5
327
330
18
100
AcDbEntity
  8
TEXT
100
AcDbLine
 10
0.0045087643229413
 20
0.1061161436436242
 30
0.0
 11
-0.0541215567089966
 21
0.2069881397567448
 31
0.0
  0
LINE
  5
328
330
18
100
AcDbEntity
  8
TEXT
100
AcDbLine
 10
-0.1356652889720982
 20
-0.0594848932317662
 30
0.0
 11
-0.0390250378971038
 21
-0.0592142541334839
 31
0.0
  0
LWPOLYLINE
  5
329
330
18
100
AcDbEntity
  8
TEXT
100
AcDbPolyline
 90
        6
 70
     1
 43
0.0
 10
-0.0931414853969481
 20
0.1427114450999793
 10
-0.1234580796171563
 20
0.1427114450999793
 10
-0.1234580796171563
 20
0.019600447045085
 42
0.407328721240804
 10
-0.1119144284556799
 20
0.0077815323686989
 10
-0.0512927294109491
 20
0.0077815323686989
 10
-0.0338273890036311
 20
0.0405937614121781
  0
LINE
  5
32A
330
18
100
AcDbEntity
  8
TEXT
100
AcDbLine
 10
-0.1895518964522038
 20
0.1427114450999793
 30
0.0
 11
-0.1895518964522038
 21
0.0003074981062836
 31
0.0
  0
ARC
  5
32B
330
18
100
AcDbEntity
  8
TEXT
100
AcDbCircle
 10
-0.1294358784784513
 20
0.0003074981062836
 30
0.0
 40
0.0601160179737537
100
AcDbArc
 50
180.0000000000003
 51
264.0521544866073
  0
LINE
  5
32C
330
18
100
AcDbEntity
  8
TEXT
100
AcDbLine
 10
-0.1259205228529039
 20
0.241376057350883
 30
0.0
 11
-0.1859631276969109
 21
0.241376057350883
 31
0.0
  0
LINE
  5
32D
330
18
100
AcDbEntity
  8
TEXT
100
AcDbLine
 10
-0.1859631276969109
 20
0.241376057350883
 30
0.0
 11
-0.1859631276969109
 21
0.2069881397567448
 31
0.0
  0
LINE
  5
32E
330
18
100
AcDbEntity
  8
TEXT
100
AcDbLine
 10
-0.1259205228529039
 20
0.2069881397567448
 30
0.0
 11
-0.1259205228529039
 21
0.241376057350883
 31
0.0
  0
LINE
  5
32F
330
18
100
AcDbEntity
  8
TEXT
100
AcDbLine
 10
-0.0541215567089966
 20
0.2069881397567448
 30
0.0
 11
-0.1259205228529039
 21
0.2069881397567448
 31
0.0
  0
LINE
  5
330
330
18
100
AcDbEntity
  8
TEXT
100
AcDbLine
 10
-0.005091472674013
 20
-0.0395263871267533
 30
0.0
 11
0.0922082334194316
 21
0.1248238238085149
 31
0.0
  0
LINE
  5
331
330
18
100
AcDbEntity
  8
TEXT
100
AcDbLine
 10
0.0922082334194316
 20
0.1248238238085149
 30
0.0
 11
0.0922082334194316
 21
-0.0079335510168415
 31
0.0
  0
ARC
  5
332
330
18
100
AcDbEntity
  8
TEXT
100
AcDbCircle
 10
-0.0391350325862265
 20
-0.0199371709580705
 30
0.0
 40
0.0392772371940762
100
AcDbArc
 50
270.1604552698595
 51
330.0831797321295
  0
LINE
  5
333
330
18
100
AcDbEntity
  8
TEXT
100
AcDbLine
 10
0.0632573271288068
 20
0.2069881397567448
 30
0.0
 11
0.0045087643229413
 21
0.1061161436436242
 31
0.0
  0
LINE
  5
334
330
18
100
AcDbEntity
  8
TEXT
100
AcDbLine
 10
0.0933792399221831
 20
0.2749996174955553
 30
0.0
 11
0.0933792399221831
 21
0.2069881397567448
 31
0.0
  0
LINE
  5
335
330
18
100
AcDbEntity
  8
TEXT
100
AcDbLine
 10
0.0933792399221831
 20
0.2069881397567448
 30
0.0
 11
0.0632573271288068
 21
0.2069881397567448
 31
0.0
  0
LWPOLYLINE
  5
336
330
18
100
AcDbEntity
  8
TEXT
100
AcDbPolyline
 90
        4
 70
     0
 43
0.0
 10
0.4454653615423414
 20
0.1351576559338694
 10
0.4454653615423414
 20
-0.0594848932317662
 10
0.5139436448301993
 20
-0.0594848932317662
 10
0.5139436448301993
 20
-0.0159939482813281
 42
-1.714843617202739
  0
LWPOLYLINE
  5
337
330
18
100
AcDbEntity
  8
TEXT
100
AcDbPolyline
 90
        2
 70
     0
 43
0.0
 10
0.4805997120865513
 20
0.2069881397567483
 42
-0.3277054968067132
 10
0.5163814027997163
 20
0.1786655939871045
 42
6.667889725900311
  0
LWPOLYLINE
  5
338
330
18
100
AcDbEntity
  8
TEXT
100
AcDbPolyline
 90
        2
 70
     0
 43
0.0
 10
0.3091661395073242
 20
0.1427114450999793
 42
-0.4142135623731017
 10
0.3167199286734377
 20
0.1351576559338694
 42
-0.9999999999999998
  0
LINE
  5
339
330
18
100
AcDbEntity
  8
TEXT
100
AcDbLine
 10
0.3265178625573446
 20
0.2069881397567448
 30
0.0
 11
0.1924998066262082
 21
0.2069881397567448
 31
0.0
  0
LINE
  5
33A
330
18
100
AcDbEntity
  8
TEXT
100
AcDbLine
 10
0.2593308596841775
 20
-0.0594848932317662
 30
0.0
 11
0.2593308596841775
 21
0.1427114450999793
 31
0.0
  0
LINE
  5
33B
330
18
100
AcDbEntity
  8
TEXT
100
AcDbLine
 10
0.1924998066262082
 20
0.2069881397567448
 30
0.0
 11
0.1924998066262082
 21
0.0061239330243366
 31
0.0
  0
LINE
  5
33C
330
18
100
AcDbEntity
  8
TEXT
100
AcDbLine
 10
0.1601879524885481
 20
0.022902944871233
 30
0.0
 11
0.1601879524885481
 21
0.2749996174955553
 31
0.0
  0
LINE
  5
33D
330
18
100
AcDbEntity
  8
TEXT
100
AcDbLine
 10
0.1613275259847429
 20
-0.0594848932317662
 30
0.0
 11
0.2593308596841775
 21
-0.0594848932317662
 31
0.0
  0
LINE
  5
33E
330
18
100
AcDbEntity
  8
TEXT
100
AcDbLine
 10
0.1924998066262082
 20
0.0061239330243366
 30
0.0
 11
0.1755061697416069
 21
0.0061239330243366
 31
0.0
  0
ARC
  5
33F
330
18
100
AcDbEntity
  8
TEXT
100
AcDbCircle
 10
0.175506169741606
 20
0.021505739267762
 30
0.0
 40
0.0153818062434269
100
AcDbArc
 50
174.7883570302258
 51
270.0
  0
LINE
  5
340
330
18
100
AcDbEntity
  8
TEXT
100
AcDbLine
 10
0.2593308596841775
 20
0.1427114450999793
 30
0.0
 11
0.3091661395073251
 21
0.1427114450999793
 31
0.0
  0
LINE
  5
341
330
18
100
AcDbEntity
  8
TEXT
100
AcDbLine
 10
0.3167199286734386
 20
0.1351576559338694
 30
0.0
 11
0.3167199286734386
 21
-0.0594848932317662
 31
0.0
  0
LINE
  5
342
330
18
100
AcDbEntity
  8
TEXT
100
AcDbLine
 10
0.3837779754552786
 20
-0.0594848932317662
 30
0.0
 11
0.3837779754552786
 21
0.1427114450999793
 31
0.0
  0
LINE
  5
343
330
18
100
AcDbEntity
  8
TEXT
100
AcDbLine
 10
0.3167199286734386
 20
-0.0594848932317662
 30
0.0
 11
0.3837779754552786
 21
-0.0594848932317662
 31
0.0
  0
LWPOLYLINE
  5
344
330
18
100
AcDbEntity
  8
TEXT
100
AcDbPolyline
 90
        3
 70
     0
 43
0.0
 10
0.4805997120865513
 20
0.2069881397567483
 10
0.3622995532705069
 20
0.2069881397567483
 10
0.3622995532705069
 20
0.1798206429958524
 42
-1.960274751411753
  0
LINE
  5
345
330
18
100
AcDbEntity
  8
TEXT
100
AcDbLine
 10
0.3837779754552786
 20
0.1427114450999793
 30
0.0
 11
0.4379115723762288
 21
0.1427114450999793
 31
0.0
  0
LWPOLYLINE
  5
346
330
18
100
AcDbEntity
  8
TEXT
100
AcDbPolyline
 90
        2
 70
     0
 43
0.0
 10
0.3265178625573455
 20
0.2069881397567483
 42
-0.3328679258950098
 10
0.3622995532705069
 20
0.1798206429958524
 42
6.772930709997214
  0
LWPOLYLINE
  5
347
330
18
100
AcDbEntity
  8
TEXT
100
AcDbPolyline
 90
        2
 70
     0
 43
0.0
 10
0.4379115723762279
 20
0.1427114450999793
 42
-0.4142135623731017
 10
0.4454653615423414
 20
0.1351576559338694
 42
-0.9999999999999998
  0
ARC
  5
348
330
18
100
AcDbEntity
  8
TEXT
100
AcDbCircle
 10
0.6491863722397078
 20
0.1654045726358424
 30
0.0
 40
0.0416329381542859
100
AcDbArc
 50
26.56974201007528
 51
87.20939649401342
  0
LWPOLYLINE
  5
349
330
18
100
AcDbEntity
  8
TEXT
100
AcDbPolyline
 90
        2
 70
     0
 43
0.0
 10
0.5570195776978349
 20
-0.0594848932317662
 10
0.6910369953292115
 20
-0.0594848932317662
 42
0.9999999999999998
  0
LWPOLYLINE
  5
34A
330
18
100
AcDbEntity
  8
TEXT
100
AcDbPolyline
 90
        4
 70
     1
 43
0.0
 10
0.6709145302593189
 20
0.043479084752259
 10
0.5822542115994605
 20
0.043479084752259
 42
0.9999999999999998
 10
0.5822542115994605
 20
0.0010805442483983
 10
0.6709145302593189
 20
0.0010805442483983
 42
1.0
  0
LWPOLYLINE
  5
34B
330
18
100
AcDbEntity
  8
TEXT
100
AcDbPolyline
 90
        2
 70
     0
 43
0.0
 10
0.5139436448301993
 20
-0.0159939482813281
 42
0.2901071551932823
 10
0.5570195776978349
 20
-0.0594848932317662
 42
5.328517124445801
  0
LINE
  5
34C
330
18
100
AcDbEntity
  8
TEXT
100
AcDbLine
 10
0.6512133120167763
 20
0.2069881397567448
 30
0.0
 11
0.5163814027997172
 21
0.2069881397567448
 31
0.0
  0
LINE
  5
34D
330
18
100
AcDbEntity
  8
TEXT
100
AcDbLine
 10
0.5756954991930359
 20
0.1054364716378471
 30
0.0
 11
0.6579834889764192
 21
0.1054364716378471
 31
0.0
  0
LINE
  5
34E
330
18
100
AcDbEntity
  8
TEXT
100
AcDbLine
 10
0.6221824136722978
 20
0.1427114450999793
 30
0.0
 11
0.5149761402850084
 21
0.1427114450999793
 31
0.0
  0
LINE
  5
34F
330
18
100
AcDbEntity
  8
TEXT
100
AcDbLine
 10
0.5163814027997172
 20
0.2069881397567448
 30
0.0
 11
0.5163814027997172
 21
0.1786655939871009
 31
0.0
  0
ARC
  5
350
330
18
100
AcDbEntity
  8
TEXT
100
AcDbCircle
 10
0.575695499193035
 20
0.0377508904937285
 30
0.0
 40
0.0676855811441166
100
AcDbArc
 50
90.0
 51
153.7768192527749
  0
LINE
  5
351
330
18
100
AcDbEntity
  8
TEXT
100
AcDbLine
 10
0.5149761402850084
 20
0.1427114450999793
 30
0.0
 11
0.5149761402850084
 21
0.0676590390257728
 31
0.0
  0
LINE
  5
352
330
18
100
AcDbEntity
  8
TEXT
100
AcDbLine
 10
0.6579834889764192
 20
0.1054364716378471
 30
0.0
 11
0.6477187285628548
 21
0.1266870112105414
 31
0.0
  0
ARC
  5
353
330
18
100
AcDbEntity
  8
TEXT
100
AcDbCircle
 10
0.6221824136722969
 20
0.114352070099982
 30
0.0
 40
0.028359375
100
AcDbArc
 50
25.78218179591245
 51
90.0
  0
LINE
  5
354
330
18
100
AcDbEntity
  8
TEXT
100
AcDbLine
 10
0.7924681420321909
 20
-0.0594848932317662
 30
0.0
 11
0.7924681420321856
 21
0.1178056121997022
 31
0.0
  0
LWPOLYLINE
  5
355
330
18
100
AcDbEntity
  8
TEXT
100
AcDbPolyline
 90
        2
 70
     0
 43
0.0
 10
0.734112928196856
 20
-0.0594848932317662
 10
0.79246814203219
 20
-0.0594848932317662
  0
LWPOLYLINE
  5
356
330
18
100
AcDbEntity
  8
TEXT
100
AcDbPolyline
 90
        2
 70
     0
 43
0.0
 10
0.734112928196856
 20
-0.0159939482813281
 42
-0.2901071551932486
 10
0.6910369953292115
 20
-0.0594848932317662
 42
-5.328517124445184
  0
LWPOLYLINE
  5
357
330
18
100
AcDbEntity
  8
TEXT
100
AcDbPolyline
 90
        2
 70
     0
 43
0.0
 10
0.734112928196856
 20
-0.0159939482813281
 10
0.734112928196856
 20
-0.0594848932317662
  0
LINE
  5
358
330
18
100
AcDbEntity
  8
TEXT
100
AcDbLine
 10
0.7940701571913183
 20
0.2069881397567448
 30
0.0
 11
0.7301732508918173
 21
0.2069881397567448
 31
0.0
  0
LINE
  5
359
330
18
100
AcDbEntity
  8
TEXT
100
AcDbLine
 10
0.7301732508918173
 20
0.2069881397567448
 30
0.0
 11
0.7301732508918173
 21
0.1017761612033174
 31
0.0
  0
LINE
  5
35A
330
18
100
AcDbEntity
  8
TEXT
100
AcDbLine
 10
0.7301732508918173
 20
0.1017761612033174
 30
0.0
 11
0.6864224797099157
 21
0.1840264371994626
 31
0.0
  0
ARC
  5
35B
330
18
100
AcDbEntity
  8
TEXT
100
AcDbCircle
 10
0.8173740173148491
 20
0.1178055698173166
 30
0.0
 40
0.0249058752826653
100
AcDbArc
 50
89.99971217465335
 51
179.9999999999985
  0
ARC
  5
35C
330
18
100
AcDbEntity
  8
TEXT
100
AcDbCircle
 10
0.8252629742544268
 20
0.17574241247448
 30
0.0
 40
0.0314112657011332
100
AcDbArc
 50
95.88484768694724
 51
173.2388340632136
  0
LINE
  5
35D
330
18
100
AcDbEntity
  8
TEXT
100
AcDbLine
 10
0.7940701571913183
 20
0.1794404898958701
 30
0.0
 11
0.7940701571913183
 21
0.2069881397567448
 31
0.0
  0
TEXT
  5
35E
330
18
100
AcDbEntity
  8
TEXT
100
AcDbText
 10
1.262945676613108
 20
0.03340091541373
 30
0.0
 40
0.0522247191011236
  1
Minneapolis, MN 55432-0008
 41
1.11444212721585
 72
     5
 11
2.591878260882772
 21
0.03340091541373
 31
0.0
100
AcDbText
  0
TEXT
  5
35F
330
18
100
AcDbEntity
  8
TEXT
100
AcDbText
 10
1.262945676613108
 20
0.1266593423800222
 30
0.0
 40
0.0522247191011236
  1
6536 Main St. N.E. * P.O. Box 32008
 41
0.8388932496075355
 72
     5
 11
2.591878260882772
 21
0.1266593423800222
 31
0.0
100
AcDbText
  0
TEXT
  5
360
330
18
100
AcDbEntity
  8
TEXT
100
AcDbText
 10
1.262945676613108
 20
0.2199177693463143
 30
0.0
 40
0.0522247191011236
  1
Stylmark  Incorporated
 41
1.221428571428571
 72
     5
 11
2.591878260882772
 21
0.2199177693463143
 31
0.0
100
AcDbText
  0
TEXT
  5
361
330
18
100
AcDbEntity
  8
TEXT
100
AcDbText
 10
1.262945676613108
 20
-0.0598575115525621
 30
0.0
 40
0.0522247191011236
  1
Phone  1-800-328-2495
 41
1.272321428571429
 72
     5
 11
2.591878260882772
 21
-0.0598575115525621
 31
0.0
100
AcDbText
  0
LINE
  5
362
330
18
100
AcDbEntity
  8
TEXT
100
AcDbLine
 10
1.015389865150093
 20
0.0970948968157712
 30
0.0
 11
1.079946981115798
 21
0.2069881397567448
 31
0.0
  0
LINE
  5
363
330
18
100
AcDbEntity
  8
TEXT
100
AcDbLine
 10
1.079946981115798
 20
0.2069881397567448
 30
0.0
 11
1.004955148386172
 21
0.2069881397567448
 31
0.0
  0
LINE
  5
364
330
18
100
AcDbEntity
  8
TEXT
100
AcDbLine
 10
1.034303716137498
 20
-0.0594848932317662
 30
0.0
 11
1.110882088513704
 21
-0.0594848932317662
 31
0.0
  0
LINE
  5
365
330
18
100
AcDbEntity
  8
TEXT
100
AcDbLine
 10
1.110882088513704
 20
-0.0594848932317662
 30
0.0
 11
1.015389865150093
 21
0.0970948968157712
 31
0.0
  0
LINE
  5
366
330
18
100
AcDbEntity
  8
TEXT
100
AcDbLine
 10
0.9584001829260335
 20
-0.0594848932317662
 30
0.0
 11
0.9584001829260335
 21
0.0720946752444141
 31
0.0
  0
LINE
  5
367
330
18
100
AcDbEntity
  8
TEXT
100
AcDbLine
 10
0.9584001829260335
 20
0.0720946752444141
 30
0.0
 11
1.034303716137498
 21
-0.0594848932317662
 31
0.0
  0
LINE
  5
368
330
18
100
AcDbEntity
  8
TEXT
100
AcDbLine
 10
0.8940219986074078
 20
0.1427114450999793
 30
0.0
 11
0.8940219986074131
 21
-0.0594848932317662
 31
0.0
  0
LINE
  5
369
330
18
100
AcDbEntity
  8
TEXT
100
AcDbLine
 10
0.8940219986074131
 20
-0.0594848932317662
 30
0.0
 11
0.9584001829260335
 21
-0.0594848932317662
 31
0.0
  0
LINE
  5
36A
330
18
100
AcDbEntity
  8
TEXT
100
AcDbLine
 10
0.9578569898301863
 20
0.2724523455243455
 30
0.0
 11
0.8895421112809129
 21
0.2724523455243455
 31
0.0
  0
LINE
  5
36B
330
18
100
AcDbEntity
  8
TEXT
100
AcDbLine
 10
0.8895421112809129
 20
0.2724523455243455
 30
0.0
 11
0.8895421112809076
 21
0.2069881397567448
 31
0.0
  0
LINE
  5
36C
330
18
100
AcDbEntity
  8
TEXT
100
AcDbLine
 10
1.00495514838617
 20
0.2069881397567448
 30
0.0
 11
0.9578569898301863
 21
0.1311228133452067
 31
0.0
  0
LINE
  5
36D
330
18
100
AcDbEntity
  8
TEXT
100
AcDbLine
 10
0.9578569898301863
 20
0.1311228133452067
 30
0.0
 11
0.9578569898301863
 21
0.2724523455243455
 31
0.0
  0
ENDSEC
  0
SECTION
  2
OBJECTS
  0
DICTIONARY
  5
C
330
0
100
AcDbDictionary
  3
ACAD_GROUP
350
D
  3
ACAD_LAYOUT
350
372
  3
ACAD_MLINESTYLE
350
E
  3
ACAD_PLOTSETTINGS
350
373
  3
ACAD_PLOTSTYLENAME
350
370
  3
ACDBHEADERROUNDTRIPXREC
350
37E
  3
ACDBVARIABLEDICTIONARY
350
37B
  0
DICTIONARY
  5
3A0
330
18
100
AcDbDictionary
280
     1
  3
ACAD_LAYOUTSELFREF
360
3A1
  0
DICTIONARY
  5
39E
330
15
100
AcDbDictionary
280
     1
  3
ACAD_LAYOUTSELFREF
360
39F
  0
DICTIONARY
  5
D
102
{ACAD_REACTORS
330
C
102
}
330
C
100
AcDbDictionary
  0
DICTIONARY
  5
372
102
{ACAD_REACTORS
330
C
102
}
330
C
100
AcDbDictionary
  0
DICTIONARY
  5
E
102
{ACAD_REACTORS
330
C
102
}
330
C
100
AcDbDictionary
  3
STANDARD
350
1B
  0
DICTIONARY
  5
373
102
{ACAD_REACTORS
330
C
102
}
330
C
100
AcDbDictionary
  0
ACDBDICTIONARYWDFLT
  5
370
102
{ACAD_REACTORS
330
C
102
}
330
C
100
AcDbDictionary
281
     1
  3
Normal
350
371
100
AcDbDictionaryWithDefault
340
371
  0
DICTIONARY
  5
37E
102
{ACAD_REACTORS
330
C
102
}
330
C
100
AcDbDictionary
  3
CEPSNTYPE
350
388
  3
FINGERPRINTGUID
350
389
  3
HYPERLINKBASE
350
381
  3
INSUNITS
350
387
  3
LAYOUTDICT
350
383
  3
LWETCUNION
350
386
  3
PLOTSETDICT
350
384
  3
PLOTSTYLNAMDICT
350
385
  3
PSVPSCALE
350
38B
  3
PUCSBASE
350
38E
  3
PUCSORGBACK
350
394
  3
PUCSORGBOTTOM
350
390
  3
PUCSORGFRONT
350
393
  3
PUCSORGLEFT
350
391
  3
PUCSORGRIGHT
350
392
  3
PUCSORGTOP
350
38F
  3
PUCSORTHOREF
350
38C
  3
PUCSORTHOVIEW
350
38D
  3
STYLESHEET
350
382
  3
TSTACKALIGN
350
37F
  3
TSTACKSIZE
350
380
  3
UCSBASE
350
397
  3
UCSORGBACK
350
39D
  3
UCSORGBOTTOM
350
399
  3
UCSORGFRONT
350
39C
  3
UCSORGLEFT
350
39A
  3
UCSORGRIGHT
350
39B
  3
UCSORGTOP
350
398
  3
UCSORTHOREF
350
395
  3
UCSORTHOVIEW
350
396
  3
VERSIONGUID
350
38A
  0
DICTIONARY
  5
37B
102
{ACAD_REACTORS
330
C
102
}
330
C
100
AcDbDictionary
  3
DIMASSOC
350
37C
  0
XRECORD
  5
3A1
102
{ACAD_REACTORS
330
3A0
102
}
330
3A0
100
AcDbXrecord
340
18
  0
XRECORD
  5
39F
102
{ACAD_REACTORS
330
39E
102
}
330
39E
100
AcDbXrecord
340
15
  0
MLINESTYLE
  5
1B
102
{ACAD_REACTORS
330
E
102
}
330
E
100
AcDbMlineStyle
  2
STANDARD
 70
     0
  3

 62
     0
 51
90.0
 52
90.0
 71
     2
 49
0.5
 62
   256
  6
BYLAYER
 49
-0.5
 62
   256
  6
BYLAYER
  0
ACDBPLACEHOLDER
  5
371
102
{ACAD_REACTORS
330
370
102
}
330
370
100
AcDbPlaceHolder
280
     0
  0
XRECORD
  5
388
102
{ACAD_REACTORS
330
37E
102
}
330
37E
100
AcDbXrecord
 90
        0
  0
XRECORD
  5
389
102
{ACAD_REACTORS
330
37E
102
}
330
37E
100
AcDbXrecord
  1
{43356620-8DB5-11D6-88E6-0090279574E7}
  0
XRECORD
  5
381
102
{ACAD_REACTORS
330
37E
102
}
330
37E
100
AcDbXrecord
  1

  0
XRECORD
  5
387
102
{ACAD_REACTORS
330
37E
102
}
330
37E
100
AcDbXrecord
 90
        0
  0
XRECORD
  5
383
102
{ACAD_REACTORS
330
37E
102
}
330
37E
100
AcDbXrecord
340
372
  0
XRECORD
  5
386
102
{ACAD_REACTORS
330
37E
102
}
330
37E
100
AcDbXrecord
 90
    14877
  0
XRECORD
  5
384
102
{ACAD_REACTORS
330
37E
102
}
330
37E
100
AcDbXrecord
340
373
  0
XRECORD
  5
385
102
{ACAD_REACTORS
330
37E
102
}
330
37E
100
AcDbXrecord
340
370
  0
XRECORD
  5
38B
102
{ACAD_REACTORS
330
37E
102
}
330
37E
100
AcDbXrecord
 40
0.0
  0
XRECORD
  5
38E
102
{ACAD_REACTORS
330
37E
102
}
330
37E
100
AcDbXrecord
340
0
  0
XRECORD
  5
394
102
{ACAD_REACTORS
330
37E
102
}
330
37E
100
AcDbXrecord
 10
0.0
 20
0.0
 30
0.0
  0
XRECORD
  5
390
102
{ACAD_REACTORS
330
37E
102
}
330
37E
100
AcDbXrecord
 10
0.0
 20
0.0
 30
0.0
  0
XRECORD
  5
393
102
{ACAD_REACTORS
330
37E
102
}
330
37E
100
AcDbXrecord
 10
0.0
 20
0.0
 30
0.0
  0
XRECORD
  5
391
102
{ACAD_REACTORS
330
37E
102
}
330
37E
100
AcDbXrecord
 10
0.0
 20
0.0
 30
0.0
  0
XRECORD
  5
392
102
{ACAD_REACTORS
330
37E
102
}
330
37E
100
AcDbXrecord
 10
0.0
 20
0.0
 30
0.0
  0
XRECORD
  5
38F
102
{ACAD_REACTORS
330
37E
102
}
330
37E
100
AcDbXrecord
 10
0.0
 20
0.0
 30
0.0
  0
XRECORD
  5
38C
102
{ACAD_REACTORS
330
37E
102
}
330
37E
100
AcDbXrecord
340
0
  0
XRECORD
  5
38D
102
{ACAD_REACTORS
330
37E
102
}
330
37E
100
AcDbXrecord
 70
     0
  0
XRECORD
  5
382
102
{ACAD_REACTORS
330
37E
102
}
330
37E
100
AcDbXrecord
  1

  0
XRECORD
  5
37F
102
{ACAD_REACTORS
330
37E
102
}
330
37E
100
AcDbXrecord
 90
        1
  0
XRECORD
  5
380
102
{ACAD_REACTORS
330
37E
102
}
330
37E
100
AcDbXrecord
 90
       70
  0
XRECORD
  5
397
102
{ACAD_REACTORS
330
37E
102
}
330
37E
100
AcDbXrecord
340
0
  0
XRECORD
  5
39D
102
{ACAD_REACTORS
330
37E
102
}
330
37E
100
AcDbXrecord
 10
0.0
 20
0.0
 30
0.0
  0
XRECORD
  5
399
102
{ACAD_REACTORS
330
37E
102
}
330
37E
100
AcDbXrecord
 10
0.0
 20
0.0
 30
0.0
  0
XRECORD
  5
39C
102
{ACAD_REACTORS
330
37E
102
}
330
37E
100
AcDbXrecord
 10
0.0
 20
0.0
 30
0.0
  0
XRECORD
  5
39A
102
{ACAD_REACTORS
330
37E
102
}
330
37E
100
AcDbXrecord
 10
0.0
 20
0.0
 30
0.0
  0
XRECORD
  5
39B
102
{ACAD_REACTORS
330
37E
102
}
330
37E
100
AcDbXrecord
 10
0.0
 20
0.0
 30
0.0
  0
XRECORD
  5
398
102
{ACAD_REACTORS
330
37E
102
}
330
37E
100
AcDbXrecord
 10
0.0
 20
0.0
 30
0.0
  0
XRECORD
  5
395
102
{ACAD_REACTORS
330
37E
102
}
330
37E
100
AcDbXrecord
340
0
  0
XRECORD
  5
396
102
{ACAD_REACTORS
330
37E
102
}
330
37E
100
AcDbXrecord
 70
     0
  0
XRECORD
  5
38A
102
{ACAD_REACTORS
330
37E
102
}
330
37E
100
AcDbXrecord
  1
{43356622-8DB5-11D6-88E6-0090279574E7}
  0
DICTIONARYVAR
  5
37C
102
{ACAD_REACTORS
330
37B
102
}
330
37B
100
DictionaryVariables
280
     0
  1
1
  0
ENDSEC
  0
EOF
