  0
SECTION
  2
HEADER
  9
$ACADVER
  1
AC1014
  9
$ACADMAINTVER
 70
     9
  9
$DWGCODEPAGE
  3
ANSI_1252
  9
$INSBASE
 10
1.746189016569323
 20
1.675981385508274
 30
0.0
  9
$EXTMIN
 10
0.0032074373421806
 20
0.6436131161599877
 30
0.0
  9
$EXTMAX
 10
3.488426759089308
 20
1.682453472420354
 30
0.0
  9
$LIMMIN
 10
0.0
 20
0.0
  9
$LIMMAX
 10
18.0
 20
12.0
  9
$ORTHOMODE
 70
     1
  9
$REGENMODE
 70
     1
  9
$FILLMODE
 70
     1
  9
$QTEXTMODE
 70
     0
  9
$MIRRTEXT
 70
     0
  9
$DRAGMODE
 70
     2
  9
$LTSCALE
 40
1.0
  9
$OSMODE
 70
    39
  9
$ATTMODE
 70
     1
  9
$TEXTSIZE
 40
0.125
  9
$TRACEWID
 40
0.05
  9
$TEXTSTYLE
  7
ROMANS
  9
$CLAYER
  8
0
  9
$CELTYPE
  6
BYLAYER
  9
$CECOLOR
 62
   256
  9
$CELTSCALE
 40
1.0
  9
$DELOBJ
 70
     1
  9
$DISPSILH
 70
     1
  9
$DIMSCALE
 40
1.0
  9
$DIMASZ
 40
0.125
  9
$DIMEXO
 40
0.125
  9
$DIMDLI
 40
0.375
  9
$DIMRND
 40
0.0
  9
$DIMDLE
 40
0.0
  9
$DIMEXE
 40
0.125
  9
$DIMTP
 40
0.0
  9
$DIMTM
 40
0.0
  9
$DIMTXT
 40
0.125
  9
$DIMCEN
 40
-0.125
  9
$DIMTSZ
 40
0.0
  9
$DIMTOL
 70
     0
  9
$DIMLIM
 70
     0
  9
$DIMTIH
 70
     1
  9
$DIMTOH
 70
     1
  9
$DIMSE1
 70
     0
  9
$DIMSE2
 70
     0
  9
$DIMTAD
 70
     0
  9
$DIMZIN
 70
     4
  9
$DIMBLK
  1

  9
$DIMASO
 70
     1
  9
$DIMSHO
 70
     1
  9
$DIMPOST
  1

  9
$DIMAPOST
  1

  9
$DIMALT
 70
     0
  9
$DIMALTD
 70
     2
  9
$DIMALTF
 40
25.4
  9
$DIMLFAC
 40
1.0
  9
$DIMTOFL
 70
     0
  9
$DIMTVP
 40
0.0
  9
$DIMTIX
 70
     1
  9
$DIMSOXD
 70
     0
  9
$DIMSAH
 70
     0
  9
$DIMBLK1
  1

  9
$DIMBLK2
  1

  9
$DIMSTYLE
  2
STANDARD
  9
$DIMCLRD
 70
     0
  9
$DIMCLRE
 70
     0
  9
$DIMCLRT
 70
     0
  9
$DIMTFAC
 40
1.0
  9
$DIMGAP
 40
0.09
  9
$DIMJUST
 70
     0
  9
$DIMSD1
 70
     0
  9
$DIMSD2
 70
     0
  9
$DIMTOLJ
 70
     1
  9
$DIMTZIN
 70
     4
  9
$DIMALTZ
 70
     0
  9
$DIMALTTZ
 70
     0
  9
$DIMFIT
 70
     3
  9
$DIMUPT
 70
     0
  9
$DIMUNIT
 70
     2
  9
$DIMDEC
 70
     3
  9
$DIMTDEC
 70
     3
  9
$DIMALTU
 70
     2
  9
$DIMALTTD
 70
     2
  9
$DIMTXSTY
  7
ROMANS
  9
$DIMAUNIT
 70
     0
  9
$LUNITS
 70
     2
  9
$LUPREC
 70
     3
  9
$SKETCHINC
 40
0.1
  9
$FILLETRAD
 40
0.03125
  9
$AUNITS
 70
     0
  9
$AUPREC
 70
     0
  9
$MENU
  1
ACAD
  9
$ELEVATION
 40
0.0
  9
$PELEVATION
 40
0.0
  9
$THICKNESS
 40
0.0
  9
$LIMCHECK
 70
     0
  9
$BLIPMODE
 70
     0
  9
$CHAMFERA
 40
0.0
  9
$CHAMFERB
 40
0.0
  9
$CHAMFERC
 40
0.0
  9
$CHAMFERD
 40
0.0
  9
$SKPOLY
 70
     0
  9
$TDCREATE
 40
2448994.475757060
  9
$TDUPDATE
 40
2452458.301694664
  9
$TDINDWG
 40
0.0008478704
  9
$TDUSRTIMER
 40
0.0008478704
  9
$USRTIMER
 70
     1
  9
$ANGBASE
 50
0.0
  9
$ANGDIR
 70
     0
  9
$PDMODE
 70
     0
  9
$PDSIZE
 40
0.0
  9
$PLINEWID
 40
0.0
  9
$COORDS
 70
     2
  9
$SPLFRAME
 70
     0
  9
$SPLINETYPE
 70
     6
  9
$SPLINESEGS
 70
     8
  9
$ATTDIA
 70
     0
  9
$ATTREQ
 70
     1
  9
$HANDLING
 70
 22529
  9
$HANDSEED
  5
7DE1B343D9DE1D5
  9
$SURFTAB1
 70
     6
  9
$SURFTAB2
 70
     6
  9
$SURFTYPE
 70
     6
  9
$SURFU
 70
     6
  9
$SURFV
 70
     6
  9
$UCSNAME
  2

  9
$UCSORG
 10
0.0
 20
0.0
 30
0.0
  9
$UCSXDIR
 10
1.0
 20
0.0
 30
0.0
  9
$UCSYDIR
 10
0.0
 20
1.0
 30
0.0
  9
$PUCSNAME
  2

  9
$PUCSORG
 10
0.0
 20
0.0
 30
0.0
  9
$PUCSXDIR
 10
1.0
 20
0.0
 30
0.0
  9
$PUCSYDIR
 10
0.0
 20
1.0
 30
0.0
  9
$USERI1
 70
     0
  9
$USERI2
 70
     0
  9
$USERI3
 70
     0
  9
$USERI4
 70
     0
  9
$USERI5
 70
     0
  9
$USERR1
 40
0.0
  9
$USERR2
 40
0.0
  9
$USERR3
 40
0.0
  9
$USERR4
 40
0.0
  9
$USERR5
 40
0.0
  9
$WORLDVIEW
 70
     1
  9
$SHADEDGE
 70
     3
  9
$SHADEDIF
 70
    70
  9
$TILEMODE
 70
     1
  9
$MAXACTVP
 70
    16
  9
$PINSBASE
 10
0.7098867305015723
 20
50.00000000000001
 30
0.7652438978855086
  9
$PLIMCHECK
 70
     0
  9
$PEXTMIN
 10
1.000000000000000E+20
 20
1.000000000000000E+20
 30
1.000000000000000E+20
  9
$PEXTMAX
 10
-1.000000000000000E+20
 20
-1.000000000000000E+20
 30
-1.000000000000000E+20
  9
$PLIMMIN
 10
0.0
 20
0.0
  9
$PLIMMAX
 10
12.0
 20
9.0
  9
$UNITMODE
 70
     0
  9
$VISRETAIN
 70
     0
  9
$PLINEGEN
 70
     1
  9
$PSLTSCALE
 70
     0
  9
$TREEDEPTH
 70
  3020
  9
$PICKSTYLE
 70
     1
  9
$CMLSTYLE
  2
STANDARD
  9
$CMLJUST
 70
     0
  9
$CMLSCALE
 40
1.0
  9
$PROXYGRAPHICS
 70
     1
  9
$MEASUREMENT
 70
     0
  0
ENDSEC
  0
SECTION
  2
CLASSES
  0
CLASS
  1
LWPOLYLINE
  2
AcDbPolyline
  3
AutoCAD 2000
 90
        0
280
     0
281
     1
  0
CLASS
  1
ACDBDICTIONARYWDFLT
  2
AcDbDictionaryWithDefault
  3
AutoCAD 2000
 90
        0
280
     0
281
     0
  0
CLASS
  1
ACDBPLACEHOLDER
  2
AcDbPlaceHolder
  3
AutoCAD 2000
 90
        0
280
     0
281
     0
  0
CLASS
  1
LAYOUT
  2
AcDbLayout
  3
AutoCAD 2000
 90
        0
280
     0
281
     0
  0
CLASS
  1
DICTIONARYVAR
  2
AcDbDictionaryVar
  3
AutoCAD 2000
 90
        0
280
     0
281
     0
  0
CLASS
  1
LONG_TRANSACTION
  2
AcDbLongTransaction
  3
AutoCAD 2000
 90
        0
280
     0
281
     0
  0
CLASS
  1
LWPOLYLINE
  2
AcDbPolyline
  3
AutoCAD 2000
 90
        0
280
     0
281
     1
  0
CLASS
  1
HATCH
  2
AcDbHatch
  3
AutoCAD 2000
 90
        0
280
     0
281
     1
  0
CLASS
  1
XRECORD
  2
AcDbXrecord
  3
AutoCAD 2000
 90
        0
280
     0
281
     0
  0
ENDSEC
  0
SECTION
  2
TABLES
  0
TABLE
  2
VPORT
  5
7DE1B343D9DE161
330
0
100
AcDbSymbolTable
 70
     2
  0
VPORT
  5
7DE1B343D9DE1B0
330
7DE1B343D9DE161
100
AcDbSymbolTableRecord
100
AcDbViewportTableRecord
  2
*ACTIVE
 70
     0
 10
0.0
 20
0.0
 11
1.0
 21
1.0
 12
4.721926532463815
 22
1.163269065277731
 13
0.0
 23
0.0
 14
0.015625
 24
0.015625
 15
0.0
 25
0.0
 16
0.0
 26
0.0
 36
1.0
 17
0.0
 27
0.0
 37
0.0
 40
2.282647215150728
 41
4.320930232558139
 42
50.0
 43
0.0
 44
0.0
 50
0.0
 51
0.0
 71
     0
 72
  2000
 73
     1
 74
     0
 75
     0
 76
     0
 77
     0
 78
     0
  0
ENDTAB
  0
TABLE
  2
LTYPE
  5
7DE1B343D9DE15E
330
0
100
AcDbSymbolTable
 70
     1
  0
LTYPE
  5
7DE1B343D9DE16B
330
7DE1B343D9DE15E
100
AcDbSymbolTableRecord
100
AcDbLinetypeTableRecord
  2
BYBLOCK
 70
     0
  3

 72
    65
 73
     0
 40
0.0
  0
LTYPE
  5
7DE1B343D9DE16C
330
7DE1B343D9DE15E
100
AcDbSymbolTableRecord
100
AcDbLinetypeTableRecord
  2
BYLAYER
 70
     0
  3

 72
    65
 73
     0
 40
0.0
  0
LTYPE
  5
7DE1B343D9DE16D
330
7DE1B343D9DE15E
100
AcDbSymbolTableRecord
100
AcDbLinetypeTableRecord
  2
CONTINUOUS
 70
     0
  3
Solid line
 72
    65
 73
     0
 40
0.0
  0
ENDTAB
  0
TABLE
  2
LAYER
  5
7DE1B343D9DE15B
330
0
100
AcDbSymbolTable
 70
     3
  0
LAYER
  5
7DE1B343D9DE168
330
7DE1B343D9DE15B
100
AcDbSymbolTableRecord
100
AcDbLayerTableRecord
  2
0
 70
     0
 62
     7
  6
CONTINUOUS
  0
LAYER
  5
7DE1B343D9DE178
330
7DE1B343D9DE15B
100
AcDbSymbolTableRecord
100
AcDbLayerTableRecord
  2
TEXT
 70
     0
 62
     3
  6
CONTINUOUS
  0
LAYER
  5
7DE1B343D9DE188
330
7DE1B343D9DE15B
100
AcDbSymbolTableRecord
100
AcDbLayerTableRecord
  2
ASHADE
 70
     4
 62
     7
  6
CONTINUOUS
  0
ENDTAB
  0
TABLE
  2
STYLE
  5
7DE1B343D9DE15C
330
0
100
AcDbSymbolTable
 70
     4
  0
STYLE
  5
7DE1B343D9DE169
330
7DE1B343D9DE15C
100
AcDbSymbolTableRecord
100
AcDbTextStyleTableRecord
  2
STANDARD
 70
     0
 40
0.0
 41
1.0
 50
0.0
 71
     0
 42
0.3125
  3
txt
  4

  0
STYLE
  5
7DE1B343D9DE175
330
7DE1B343D9DE15C
100
AcDbSymbolTableRecord
100
AcDbTextStyleTableRecord
  2
ITALICC
 70
     0
 40
0.0
 41
1.0
 50
0.0
 71
     0
 42
0.125
  3
italicc
  4

  0
STYLE
  5
7DE1B343D9DE185
330
7DE1B343D9DE15C
100
AcDbSymbolTableRecord
100
AcDbTextStyleTableRecord
  2
ASHADE
 70
     0
 40
0.2
 41
1.0
 50
0.0
 71
     0
 42
0.3125
  3
simplex
  4

  0
STYLE
  5
7DE1B343D9DE1A0
330
7DE1B343D9DE15C
100
AcDbSymbolTableRecord
100
AcDbTextStyleTableRecord
  2
ROMANS
 70
     0
 40
0.0
 41
1.0
 50
0.0
 71
     0
 42
0.125
  3
romans.shx
  4

  0
ENDTAB
  0
TABLE
  2
VIEW
  5
7DE1B343D9DE15F
330
0
100
AcDbSymbolTable
 70
     0
  0
ENDTAB
  0
TABLE
  2
UCS
  5
7DE1B343D9DE160
330
0
100
AcDbSymbolTable
 70
     0
  0
ENDTAB
  0
TABLE
  2
APPID
  5
7DE1B343D9DE162
330
0
100
AcDbSymbolTable
 70
     6
  0
APPID
  5
7DE1B343D9DE16A
330
7DE1B343D9DE162
100
AcDbSymbolTableRecord
100
AcDbRegAppTableRecord
  2
ACAD
 70
     0
  0
APPID
  5
7DE1B343D9DE186
330
7DE1B343D9DE162
100
AcDbSymbolTableRecord
100
AcDbRegAppTableRecord
  2
AVE_RENDER
 70
     0
  0
APPID
  5
7DE1B343D9DE187
330
7DE1B343D9DE162
100
AcDbSymbolTableRecord
100
AcDbRegAppTableRecord
  2
AVE_ENTITY_MATERIAL
 70
     0
  0
APPID
  5
7DE1B343D9DE194
330
7DE1B343D9DE162
100
AcDbSymbolTableRecord
100
AcDbRegAppTableRecord
  2
AVE_FINISH
 70
     0
  0
APPID
  5
7DE1B343D9DE195
330
7DE1B343D9DE162
100
AcDbSymbolTableRecord
100
AcDbRegAppTableRecord
  2
AVE_MATERIAL
 70
     0
  0
APPID
  5
7DE1B343D9DE196
330
7DE1B343D9DE162
100
AcDbSymbolTableRecord
100
AcDbRegAppTableRecord
  2
AVE_GLOBAL
 70
     0
  0
ENDTAB
  0
TABLE
  2
DIMSTYLE
  5
7DE1B343D9DE163
330
0
100
AcDbSymbolTable
 70
     1
  0
DIMSTYLE
105
7DE1B343D9DE17D
330
7DE1B343D9DE163
100
AcDbSymbolTableRecord
100
AcDbDimStyleTableRecord
  2
STANDARD
 70
     0
  3

  4

  5

  6

  7

 40
1.0
 41
0.125
 42
0.125
 43
0.375
 44
0.125
 45
0.0
 46
0.0
 47
0.0
 48
0.0
140
0.125
141
-0.125
142
0.0
143
25.4
144
1.0
145
0.0
146
1.0
147
0.09
 71
     0
 72
     0
 73
     1
 74
     1
 75
     0
 76
     0
 77
     0
 78
     4
170
     0
171
     2
172
     0
173
     0
174
     1
175
     0
176
     0
177
     0
178
     0
270
     2
271
     3
272
     3
273
     2
274
     2
340
7DE1B343D9DE1A0
275
     0
280
     0
281
     0
282
     0
283
     1
284
     4
285
     0
286
     0
287
     3
288
     0
  0
ENDTAB
  0
TABLE
  2
BLOCK_RECORD
  5
7DE1B343D9DE15A
330
0
100
AcDbSymbolTable
 70
     2
  0
BLOCK_RECORD
  5
7DE1B343D9DE171
102
{ACAD_XDICTIONARY
360
7DE1B343D9DE1D3
102
}
330
7DE1B343D9DE15A
100
AcDbSymbolTableRecord
100
AcDbBlockTableRecord
  2
*MODEL_SPACE
  0
BLOCK_RECORD
  5
7DE1B343D9DE16E
102
{ACAD_XDICTIONARY
360
7DE1B343D9DE1D1
102
}
330
7DE1B343D9DE15A
100
AcDbSymbolTableRecord
100
AcDbBlockTableRecord
  2
*PAPER_SPACE
  0
BLOCK_RECORD
  5
7DE1B343D9DE189
330
7DE1B343D9DE15A
100
AcDbSymbolTableRecord
100
AcDbBlockTableRecord
  2
AVE_RENDER
  0
BLOCK_RECORD
  5
7DE1B343D9DE197
330
7DE1B343D9DE15A
100
AcDbSymbolTableRecord
100
AcDbBlockTableRecord
  2
AVE_GLOBAL
  0
ENDTAB
  0
ENDSEC
  0
SECTION
  2
BLOCKS
  0
BLOCK
  5
7DE1B343D9DE17B
330
7DE1B343D9DE171
100
AcDbEntity
  8
0
100
AcDbBlockBegin
  2
*MODEL_SPACE
 70
     0
 10
0.0
 20
0.0
 30
0.0
  3
*MODEL_SPACE
  1

  0
ENDBLK
  5
7DE1B343D9DE17C
330
7DE1B343D9DE171
100
AcDbEntity
  8
0
100
AcDbBlockEnd
  0
BLOCK
  5
7DE1B343D9DE179
330
7DE1B343D9DE16E
100
AcDbEntity
 67
     1
  8
0
100
AcDbBlockBegin
  2
*PAPER_SPACE
 70
     0
 10
0.0
 20
0.0
 30
0.0
  3
*PAPER_SPACE
  1

  0
ENDBLK
  5
7DE1B343D9DE17A
330
7DE1B343D9DE16E
100
AcDbEntity
 67
     1
  8
0
100
AcDbBlockEnd
  0
BLOCK
  5
7DE1B343D9DE18A
330
7DE1B343D9DE189
100
AcDbEntity
  8
0
100
AcDbBlockBegin
  2
AVE_RENDER
 70
     0
 10
0.0
 20
0.0
 30
0.0
  3
AVE_RENDER
  1
AVE_RENDER
  0
ENDBLK
  5
7DE1B343D9DE18B
330
7DE1B343D9DE189
100
AcDbEntity
  8
0
100
AcDbBlockEnd
  0
BLOCK
  5
7DE1B343D9DE198
330
7DE1B343D9DE197
100
AcDbEntity
  8
0
100
AcDbBlockBegin
  2
AVE_GLOBAL
 70
     0
 10
0.0
 20
0.0
 30
0.0
  3
AVE_GLOBAL
  1
AVE_GLOBAL
  0
ENDBLK
  5
7DE1B343D9DE199
330
7DE1B343D9DE197
100
AcDbEntity
  8
0
100
AcDbBlockEnd
  0
ENDSEC
  0
SECTION
  2
ENTITIES
  0
LWPOLYLINE
  5
7DE1B343D9DCBBE
330
7DE1B343D9DE171
100
AcDbEntity
  8
0
100
AcDbPolyline
 90
       20
 70
     1
 43
0.0
 10
2.402439016569323
 20
1.675981385508274
 42
-0.4142135623730951
 10
2.433689016569323
 20
1.644731385508274
 10
2.433689016569323
 20
1.379106385508274
 42
-1.0
 10
2.371189016569323
 20
1.379106385508274
 10
2.371189016569323
 20
1.410356385508274
 10
2.305315604305851
 20
1.410356385508274
 42
-0.2679491924311233
 10
2.278252310437587
 20
1.425981385508274
 10
2.251189016569324
 20
1.472856385508274
 10
2.371189016569323
 20
1.472856385508274
 10
2.371189016569323
 20
1.613481385508274
 10
1.121189016569323
 20
1.613481385508274
 10
1.121189016569323
 20
1.472856385508274
 10
1.241189016569324
 20
1.472856385508274
 10
1.21412572270106
 20
1.425981385508274
 42
-0.2679491924311233
 10
1.187062428832796
 20
1.410356385508274
 10
1.121189016569323
 20
1.410356385508274
 10
1.121189016569323
 20
1.379106385508274
 42
-1.0
 10
1.058689016569323
 20
1.379106385508274
 10
1.058689016569323
 20
1.644731385508274
 42
-0.4142135623730951
 10
1.089939016569323
 20
1.675981385508274
  0
TEXT
  5
7DE1B343D9DE01C
330
7DE1B343D9DE171
100
AcDbEntity
  8
TEXT
100
AcDbText
 10
0.9932128260931342
 20
1.101631720242569
 30
0.0
 40
0.125
  1
PART #110223
  7
ITALICC
 72
     1
 11
1.746189016569323
 21
1.101631720242569
 31
0.0
100
AcDbText
  0
TEXT
  5
7DE1B343D9DE01D
330
7DE1B343D9DE171
100
AcDbEntity
  8
TEXT
100
AcDbText
 10
2.159494174819644
 20
0.6547090775701941
 30
0.0
 40
0.0522247191011236
  1
Phone  1-800-328-2495
 41
1.272321428571429
 72
     5
 11
3.488426759089308
 21
0.6547090775701941
 31
0.0
100
AcDbText
  0
TEXT
  5
7DE1B343D9DE01E
330
7DE1B343D9DE171
100
AcDbEntity
  8
TEXT
100
AcDbText
 10
2.159494174819644
 20
0.9344843584690705
 30
0.0
 40
0.0522247191011236
  1
Stylmark  Incorporated
 41
1.221428571428573
 72
     5
 11
3.488426759089308
 21
0.9344843584690705
 31
0.0
100
AcDbText
  0
TEXT
  5
7DE1B343D9DE01F
330
7DE1B343D9DE171
100
AcDbEntity
  8
TEXT
100
AcDbText
 10
2.159494174819644
 20
0.8412259315027784
 30
0.0
 40
0.0522247191011236
  1
6536 Main St. N.E. * P.O. Box 32008
 41
0.8388932496075366
 72
     5
 11
3.488426759089308
 21
0.8412259315027784
 31
0.0
100
AcDbText
  0
TEXT
  5
7DE1B343D9DE020
330
7DE1B343D9DE171
100
AcDbEntity
  8
TEXT
100
AcDbText
 10
2.159494174819644
 20
0.7479675045364863
 30
0.0
 40
0.0522247191011236
  1
Minneapolis, MN 55432-0008
 41
1.11444212721585
 72
     5
 11
3.488426759089308
 21
0.7479675045364863
 31
0.0
100
AcDbText
  0
LWPOLYLINE
  5
7DE1B343D9DE021
330
7DE1B343D9DE171
100
AcDbEntity
  8
TEXT
100
AcDbPolyline
 90
        3
 70
     0
 43
0.0006660908203125
 10
0.0035404827523369
 20
0.768353840207629
 10
0.0035404827523369
 20
0.6551184007545013
 10
0.1167759222054592
 20
0.6551184007545013
  0
LWPOLYLINE
  5
7DE1B343D9DE026
330
7DE1B343D9DE171
100
AcDbEntity
  8
TEXT
100
AcDbPolyline
 90
        3
 70
     0
 43
0.0006660908203125
 10
0.0301841155648344
 20
0.768353840207629
 10
0.0301841155648344
 20
0.6817620335670024
 10
0.1167759222054592
 20
0.6817620335670024
  0
LWPOLYLINE
  5
7DE1B343D9DE02B
330
7DE1B343D9DE171
100
AcDbEntity
  8
TEXT
100
AcDbPolyline
 90
        2
 70
     0
 43
0.0001332181640625
 10
0.0768104729867112
 20
0.7783452025123142
 10
0.0035404827523369
 20
0.768353840207629
  0
LWPOLYLINE
  5
7DE1B343D9DE02F
330
7DE1B343D9DE171
100
AcDbEntity
  8
TEXT
100
AcDbPolyline
 90
        2
 70
     0
 43
0.0001332181640625
 10
0.0301841155648344
 20
0.768353840207629
 10
0.0901322893929617
 20
0.7783452025123142
  0
LWPOLYLINE
  5
7DE1B343D9DE033
330
7DE1B343D9DE171
100
AcDbEntity
  8
TEXT
100
AcDbPolyline
 90
        2
 70
     0
 43
0.0001332181640625
 10
0.0301841155648344
 20
0.6817620335670024
 10
0.0901322893929617
 20
0.7417102073951279
  0
LWPOLYLINE
  5
7DE1B343D9DE037
330
7DE1B343D9DE171
100
AcDbEntity
  8
TEXT
100
AcDbPolyline
 90
        3
 70
     0
 43
0.0006660908203125
 10
0.1167759222054592
 20
0.9215547288795045
 10
0.0035404827523369
 20
0.9215547288795045
 10
0.0035404827523369
 20
0.8083192894263769
  0
LWPOLYLINE
  5
7DE1B343D9DE03C
330
7DE1B343D9DE171
100
AcDbEntity
  8
TEXT
100
AcDbPolyline
 90
        3
 70
     0
 43
0.0006660908203125
 10
0.1167759222054592
 20
0.8949110960670035
 10
0.0301841155648344
 20
0.8949110960670035
 10
0.0301841155648344
 20
0.8083192894263769
  0
LWPOLYLINE
  5
7DE1B343D9DE041
330
7DE1B343D9DE171
100
AcDbEntity
  8
TEXT
100
AcDbPolyline
 90
        2
 70
     0
 43
0.0001332181640625
 10
0.0301841155648344
 20
0.8949110960670035
 10
0.0901322893929599
 20
0.8349629222388779
  0
LWPOLYLINE
  5
7DE1B343D9DE045
330
7DE1B343D9DE171
100
AcDbEntity
  8
TEXT
100
AcDbPolyline
 90
        2
 70
     0
 43
0.0001332181640625
 10
0.0301841155648344
 20
0.8083192894263769
 10
0.0901322893929599
 20
0.7983279271216882
  0
LWPOLYLINE
  5
7DE1B343D9DE049
330
7DE1B343D9DE171
100
AcDbEntity
  8
TEXT
100
AcDbPolyline
 90
        2
 70
     0
 43
0.0001332181640625
 10
0.0035404827523369
 20
0.8083192894263769
 10
0.0768104729867112
 20
0.7983279271216882
  0
LWPOLYLINE
  5
7DE1B343D9DE04D
330
7DE1B343D9DE171
100
AcDbEntity
  8
TEXT
100
AcDbPolyline
 90
        2
 70
     0
 43
0.0006660908203125
 10
0.0301841155648344
 20
0.768353840207629
 10
0.0035404827523369
 20
0.768353840207629
  0
LWPOLYLINE
  5
7DE1B343D9DE051
330
7DE1B343D9DE171
100
AcDbEntity
  8
TEXT
100
AcDbPolyline
 90
        2
 70
     0
 43
0.0006660908203125
 10
0.0301841155648344
 20
0.8083192894263769
 10
0.0035404827523369
 20
0.8083192894263769
  0
LINE
  5
7DE1B343D9DE055
330
7DE1B343D9DE171
100
AcDbEntity
  8
TEXT
100
AcDbLine
 10
1.518730911878834
 20
0.8572780342227355
 30
0.0
 11
1.411524638491544
 21
0.8572780342227355
 31
0.0
  0
LINE
  5
7DE1B343D9DE056
330
7DE1B343D9DE171
100
AcDbEntity
  8
TEXT
100
AcDbLine
 10
1.547761810223312
 20
0.921554728879501
 30
0.0
 11
1.412929901006253
 21
0.921554728879501
 31
0.0
  0
ARC
  5
7DE1B343D9DE057
330
7DE1B343D9DE171
100
AcDbEntity
  8
TEXT
100
AcDbCircle
 10
1.47224399739957
 20
0.7523174796164847
 30
0.0
 40
0.0676855811441166
100
AcDbArc
 50
90.0
 51
153.7768192527749
  0
LWPOLYLINE
  5
7DE1B343D9DE058
330
7DE1B343D9DE171
100
AcDbEntity
  8
TEXT
100
AcDbPolyline
 90
        2
 70
     0
 43
0.0
 10
1.410492143036734
 20
0.6985726408414282
 42
0.2901071551932823
 10
1.45356807590437
 20
0.6550816958909901
 42
5.328517124445801
  0
ARC
  5
7DE1B343D9DE05C
330
7DE1B343D9DE171
100
AcDbEntity
  8
TEXT
100
AcDbCircle
 10
0.7671126197280849
 20
0.7148740872290399
 30
0.0
 40
0.0601160179737537
100
AcDbArc
 50
180.0000000000003
 51
264.0521544866073
  0
LINE
  5
7DE1B343D9DE05D
330
7DE1B343D9DE171
100
AcDbEntity
  8
TEXT
100
AcDbLine
 10
0.7706279753536327
 20
0.9559426464736391
 30
0.0
 11
0.7105853705096257
 21
0.9559426464736391
 31
0.0
  0
ARC
  5
7DE1B343D9DE05E
330
7DE1B343D9DE171
100
AcDbEntity
  8
TEXT
100
AcDbCircle
 10
0.5348536176111143
 20
0.8394672694329992
 30
0.0
 40
0.0820874594465043
100
AcDbArc
 50
90.0
 51
270.0
  0
LWPOLYLINE
  5
7DE1B343D9DE05F
330
7DE1B343D9DE171
100
AcDbEntity
  8
TEXT
100
AcDbPolyline
 90
        2
 70
     0
 43
0.0001332181640625
 10
0.1267672845101497
 20
0.8482847386451249
 10
0.1167759222054592
 20
0.9215547288795045
  0
LWPOLYLINE
  5
7DE1B343D9DE063
330
7DE1B343D9DE171
100
AcDbEntity
  8
TEXT
100
AcDbPolyline
 90
        2
 70
     0
 43
0.0001332181640625
 10
0.1167759222054592
 20
0.8949110960670035
 10
0.1267672845101497
 20
0.8349629222388779
  0
LWPOLYLINE
  5
7DE1B343D9DE067
330
7DE1B343D9DE171
100
AcDbEntity
  8
TEXT
100
AcDbPolyline
 90
        3
 70
     0
 43
0.0006660908203125
 10
0.2699768108773366
 20
0.8083192894263769
 10
0.2699768108773366
 20
0.9215547288795045
 10
0.1567413714242107
 20
0.9215547288795045
  0
LWPOLYLINE
  5
7DE1B343D9DE06C
330
7DE1B343D9DE171
100
AcDbEntity
  8
TEXT
100
AcDbPolyline
 90
        3
 70
     0
 43
0.0006660908203125
 10
0.2433331780648356
 20
0.8083192894263769
 10
0.2433331780648356
 20
0.8949110960670035
 10
0.1567413714242107
 20
0.8949110960670035
  0
LWPOLYLINE
  5
7DE1B343D9DE071
330
7DE1B343D9DE171
100
AcDbEntity
  8
TEXT
100
AcDbPolyline
 90
        2
 70
     0
 43
0.0001332181640625
 10
0.2433331780648356
 20
0.8949110960670035
 10
0.1833850042367118
 20
0.8349629222388779
  0
LWPOLYLINE
  5
7DE1B343D9DE075
330
7DE1B343D9DE171
100
AcDbEntity
  8
TEXT
100
AcDbPolyline
 90
        2
 70
     0
 43
0.0001332181640625
 10
0.1567413714242107
 20
0.8949110960670035
 10
0.146750009119522
 20
0.8349629222388779
  0
LWPOLYLINE
  5
7DE1B343D9DE079
330
7DE1B343D9DE171
100
AcDbEntity
  8
TEXT
100
AcDbPolyline
 90
        2
 70
     0
 43
0.0001332181640625
 10
0.1567413714242107
 20
0.9215547288795045
 10
0.146750009119522
 20
0.8482847386451249
  0
LWPOLYLINE
  5
7DE1B343D9DE07D
330
7DE1B343D9DE171
100
AcDbEntity
  8
TEXT
100
AcDbPolyline
 90
        2
 70
     0
 43
0.0001332181640625
 10
0.1967068206429605
 20
0.7983279271216882
 10
0.2699768108773366
 20
0.8083192894263769
  0
LWPOLYLINE
  5
7DE1B343D9DE081
330
7DE1B343D9DE171
100
AcDbEntity
  8
TEXT
100
AcDbPolyline
 90
        2
 70
     0
 43
0.0001332181640625
 10
0.2433331780648356
 20
0.8083192894263769
 10
0.1833850042367118
 20
0.7983279271216882
  0
LWPOLYLINE
  5
7DE1B343D9DE085
330
7DE1B343D9DE171
100
AcDbEntity
  8
TEXT
100
AcDbPolyline
 90
        2
 70
     0
 43
0.0001332181640625
 10
0.2699768108773366
 20
0.768353840207629
 10
0.1967068206429605
 20
0.7783452025123142
  0
LWPOLYLINE
  5
7DE1B343D9DE089
330
7DE1B343D9DE171
100
AcDbEntity
  8
TEXT
100
AcDbPolyline
 90
        2
 70
     0
 43
0.0001332181640625
 10
0.2433331780648356
 20
0.768353840207629
 10
0.1833850042367118
 20
0.7783452025123142
  0
LWPOLYLINE
  5
7DE1B343D9DE08D
330
7DE1B343D9DE171
100
AcDbEntity
  8
TEXT
100
AcDbPolyline
 90
        2
 70
     0
 43
0.0001332181640625
 10
0.2433331780648356
 20
0.6817620335670024
 10
0.1833850042367118
 20
0.7417102073951279
  0
LWPOLYLINE
  5
7DE1B343D9DE091
330
7DE1B343D9DE171
100
AcDbEntity
  8
TEXT
100
AcDbPolyline
 90
        3
 70
     0
 43
0.0006660908203125
 10
0.1567413714242107
 20
0.6817620335670024
 10
0.2433331780648356
 20
0.6817620335670024
 10
0.2433331780648356
 20
0.768353840207629
  0
LWPOLYLINE
  5
7DE1B343D9DE096
330
7DE1B343D9DE171
100
AcDbEntity
  8
TEXT
100
AcDbPolyline
 90
        3
 70
     0
 43
0.0006660908203125
 10
0.1567413714242107
 20
0.6551184007545013
 10
0.2699768108773366
 20
0.6551184007545013
 10
0.2699768108773366
 20
0.768353840207629
  0
LWPOLYLINE
  5
7DE1B343D9DE09B
330
7DE1B343D9DE171
100
AcDbEntity
  8
TEXT
100
AcDbPolyline
 90
        5
 70
     0
 43
0.0001332181640625
 10
0.1267672845101497
 20
0.7283883909888774
 10
0.1267672845101497
 20
0.7417102073951279
 10
0.0901322893929617
 20
0.7417102073951279
 10
0.0901322893929617
 20
0.7783452025123142
 10
0.0768104729867112
 20
0.7783452025123142
  0
LWPOLYLINE
  5
7DE1B343D9DE0A2
330
7DE1B343D9DE171
100
AcDbEntity
  8
TEXT
100
AcDbPolyline
 90
        2
 70
     0
 43
0.0006660908203125
 10
0.1167759222054592
 20
0.6817620335670024
 10
0.1167759222054592
 20
0.6551184007545013
  0
LWPOLYLINE
  5
7DE1B343D9DE0A6
330
7DE1B343D9DE171
100
AcDbEntity
  8
TEXT
100
AcDbPolyline
 90
        2
 70
     0
 43
0.0001332181640625
 10
0.1167759222054592
 20
0.6817620335670024
 10
0.1267672845101497
 20
0.7417102073951279
  0
LWPOLYLINE
  5
7DE1B343D9DE0AA
330
7DE1B343D9DE171
100
AcDbEntity
  8
TEXT
100
AcDbPolyline
 90
        2
 70
     0
 43
0.0001332181640625
 10
0.1167759222054592
 20
0.6551184007545013
 10
0.1267672845101497
 20
0.7283883909888774
  0
LWPOLYLINE
  5
7DE1B343D9DE0AE
330
7DE1B343D9DE171
100
AcDbEntity
  8
TEXT
100
AcDbPolyline
 90
        5
 70
     0
 43
0.0001332181640625
 10
0.0768104729867112
 20
0.7983279271216882
 10
0.0901322893929599
 20
0.7983279271216882
 10
0.0901322893929599
 20
0.8349629222388779
 10
0.1267672845101497
 20
0.8349629222388779
 10
0.1267672845101497
 20
0.8482847386451249
  0
LWPOLYLINE
  5
7DE1B343D9DE0B5
330
7DE1B343D9DE171
100
AcDbEntity
  8
TEXT
100
AcDbPolyline
 90
        5
 70
     0
 43
0.0001332181640625
 10
0.146750009119522
 20
0.8482847386451249
 10
0.146750009119522
 20
0.8349629222388779
 10
0.1833850042367118
 20
0.8349629222388779
 10
0.1833850042367118
 20
0.7983279271216882
 10
0.1967068206429605
 20
0.7983279271216882
  0
LWPOLYLINE
  5
7DE1B343D9DE0BC
330
7DE1B343D9DE171
100
AcDbEntity
  8
TEXT
100
AcDbPolyline
 90
        2
 70
     0
 43
0.0001332181640625
 10
0.1567413714242107
 20
0.6817620335670024
 10
0.146750009119522
 20
0.7417102073951279
  0
LWPOLYLINE
  5
7DE1B343D9DE0C0
330
7DE1B343D9DE171
100
AcDbEntity
  8
TEXT
100
AcDbPolyline
 90
        2
 70
     0
 43
0.0001332181640625
 10
0.146750009119522
 20
0.7283883909888774
 10
0.1567413714242107
 20
0.6551184007545013
  0
LWPOLYLINE
  5
7DE1B343D9DE0C4
330
7DE1B343D9DE171
100
AcDbEntity
  8
TEXT
100
AcDbPolyline
 90
        2
 70
     0
 43
0.0006660908203125
 10
0.1567413714242107
 20
0.6817620335670024
 10
0.1567413714242107
 20
0.6551184007545013
  0
LWPOLYLINE
  5
7DE1B343D9DE0C8
330
7DE1B343D9DE171
100
AcDbEntity
  8
TEXT
100
AcDbPolyline
 90
        5
 70
     0
 43
0.0001332181640625
 10
0.1967068206429605
 20
0.7783452025123142
 10
0.1833850042367118
 20
0.7783452025123142
 10
0.1833850042367118
 20
0.7417102073951279
 10
0.146750009119522
 20
0.7417102073951279
 10
0.146750009119522
 20
0.7283883909888774
  0
LWPOLYLINE
  5
7DE1B343D9DE0CF
330
7DE1B343D9DE171
100
AcDbEntity
  8
TEXT
100
AcDbPolyline
 90
        2
 70
     0
 43
0.0006660908203125
 10
0.2433331780648356
 20
0.8083192894263769
 10
0.2699768108773366
 20
0.8083192894263769
  0
LWPOLYLINE
  5
7DE1B343D9DE0D3
330
7DE1B343D9DE171
100
AcDbEntity
  8
TEXT
100
AcDbPolyline
 90
        2
 70
     0
 43
0.0006660908203125
 10
0.2433331780648356
 20
0.768353840207629
 10
0.2699768108773366
 20
0.768353840207629
  0
LINE
  5
7DE1B343D9DE0D7
330
7DE1B343D9DE171
100
AcDbEntity
  8
TEXT
100
AcDbLine
 10
0.5400909477253615
 20
0.8572780342227355
 30
0.0
 11
0.7069966017543328
 21
0.8572780342227355
 31
0.0
  0
LINE
  5
7DE1B343D9DE0D8
330
7DE1B343D9DE171
100
AcDbEntity
  8
TEXT
100
AcDbLine
 10
0.6056910839696626
 20
0.8214733126121076
 30
0.0
 11
0.5400909477253615
 21
0.8214733126121076
 31
0.0
  0
LINE
  5
7DE1B343D9DE0D9
330
7DE1B343D9DE171
100
AcDbEntity
  8
TEXT
100
AcDbLine
 10
0.4527661581646099
 20
0.6550816958909901
 30
0.0
 11
0.6056910839696626
 21
0.6550816958909901
 31
0.0
  0
LINE
  5
7DE1B343D9DE0DA
330
7DE1B343D9DE171
100
AcDbEntity
  8
TEXT
100
AcDbLine
 10
0.6106314578759422
 20
0.7234387022244294
 30
0.0
 11
0.4527661581646081
 21
0.7234387022244294
 31
0.0
  0
LINE
  5
7DE1B343D9DE0DB
330
7DE1B343D9DE171
100
AcDbEntity
  8
TEXT
100
AcDbLine
 10
0.5348536176111134
 20
0.757379809986494
 30
0.0
 11
0.6106314578759422
 21
0.757379809986494
 31
0.0
  0
ARC
  5
7DE1B343D9DE0DC
330
7DE1B343D9DE171
100
AcDbEntity
  8
TEXT
100
AcDbCircle
 10
0.5400909477253624
 20
0.8393756734174234
 30
0.0
 40
0.017902360805315
100
AcDbArc
 50
90.0
 51
270.0
  0
LINE
  5
7DE1B343D9DE0DD
330
7DE1B343D9DE171
100
AcDbEntity
  8
TEXT
100
AcDbLine
 10
0.4527661581646081
 20
0.7234387022244294
 30
0.0
 11
0.4527661581646099
 21
0.6550816958909901
 31
0.0
  0
LINE
  5
7DE1B343D9DE0DE
330
7DE1B343D9DE171
100
AcDbEntity
  8
TEXT
100
AcDbLine
 10
0.7069966017543328
 20
0.8572780342227355
 30
0.0
 11
0.7069966017543328
 21
0.7148740872290399
 31
0.0
  0
ARC
  5
7DE1B343D9DE0DF
330
7DE1B343D9DE171
100
AcDbEntity
  8
TEXT
100
AcDbCircle
 10
0.6056910839696635
 20
0.7382775042515471
 30
0.0
 40
0.0831958083605586
100
AcDbArc
 50
270.0
 51
90.0
  0
ARC
  5
7DE1B343D9DE0E0
330
7DE1B343D9DE171
100
AcDbEntity
  8
TEXT
100
AcDbCircle
 10
0.6106314578759431
 20
0.7404092561054635
 30
0.0
 40
0.0169705538810321
100
AcDbArc
 50
270.0
 51
90.0
  0
LWPOLYLINE
  5
7DE1B343D9DE0E1
330
7DE1B343D9DE171
100
AcDbEntity
  8
TEXT
100
AcDbPolyline
 90
        2
 70
     0
 43
0.0006660908203125
 10
0.1167759222054592
 20
0.8949110960670035
 10
0.1167759222054592
 20
0.9215547288795045
  0
LWPOLYLINE
  5
7DE1B343D9DE0E5
330
7DE1B343D9DE171
100
AcDbEntity
  8
TEXT
100
AcDbPolyline
 90
        2
 70
     0
 43
0.0006660908203125
 10
0.1567413714242107
 20
0.8949110960670035
 10
0.1567413714242107
 20
0.9215547288795045
  0
LINE
  5
7DE1B343D9DE0E9
330
7DE1B343D9DE171
100
AcDbEntity
  8
TEXT
100
AcDbLine
 10
0.7105853705096257
 20
0.921554728879501
 30
0.0
 11
0.5348536176111134
 21
0.921554728879501
 31
0.0
  0
LINE
  5
7DE1B343D9DE0EA
330
7DE1B343D9DE171
100
AcDbEntity
  8
TEXT
100
AcDbLine
 10
0.7105853705096257
 20
0.9559426464736391
 30
0.0
 11
0.7105853705096257
 21
0.921554728879501
 31
0.0
  0
LINE
  5
7DE1B343D9DE0EB
330
7DE1B343D9DE171
100
AcDbEntity
  8
TEXT
100
AcDbLine
 10
0.9010572625294779
 20
0.8206827327663804
 30
0.0
 11
0.84242694149754
 21
0.921554728879501
 31
0.0
  0
LINE
  5
7DE1B343D9DE0EC
330
7DE1B343D9DE171
100
AcDbEntity
  8
TEXT
100
AcDbLine
 10
0.9598058253353434
 20
0.921554728879501
 30
0.0
 11
0.9010572625294779
 21
0.8206827327663804
 31
0.0
  0
LINE
  5
7DE1B343D9DE0ED
330
7DE1B343D9DE171
100
AcDbEntity
  8
TEXT
100
AcDbLine
 10
1.056736450695084
 20
0.7374695339939893
 30
0.0
 11
1.056736450695084
 21
0.9895662066183115
 31
0.0
  0
LINE
  5
7DE1B343D9DE0EE
330
7DE1B343D9DE171
100
AcDbEntity
  8
TEXT
100
AcDbLine
 10
1.089048304832744
 20
0.921554728879501
 30
0.0
 11
1.089048304832744
 21
0.7206905221470928
 31
0.0
  0
LINE
  5
7DE1B343D9DE0EF
330
7DE1B343D9DE171
100
AcDbEntity
  8
TEXT
100
AcDbLine
 10
1.089048304832744
 20
0.7206905221470928
 30
0.0
 11
1.072054667948143
 21
0.7206905221470928
 31
0.0
  0
LINE
  5
7DE1B343D9DE0F0
330
7DE1B343D9DE171
100
AcDbEntity
  8
TEXT
100
AcDbLine
 10
1.057876024191279
 20
0.6550816958909901
 30
0.0
 11
1.155879357890714
 21
0.6550816958909901
 31
0.0
  0
LINE
  5
7DE1B343D9DE0F1
330
7DE1B343D9DE171
100
AcDbEntity
  8
TEXT
100
AcDbLine
 10
0.8914570255325235
 20
0.675040201996003
 30
0.0
 11
0.9887567316259682
 21
0.839390412931271
 31
0.0
  0
ARC
  5
7DE1B343D9DE0F2
330
7DE1B343D9DE171
100
AcDbEntity
  8
TEXT
100
AcDbCircle
 10
0.8574134656203096
 20
0.6946294181646858
 30
0.0
 40
0.0392772371940762
100
AcDbArc
 50
270.1604552698595
 51
330.0831797321295
  0
LINE
  5
7DE1B343D9DE0F3
330
7DE1B343D9DE171
100
AcDbEntity
  8
TEXT
100
AcDbLine
 10
0.7608832092344385
 20
0.6550816958909901
 30
0.0
 11
0.8575234603094328
 21
0.6553523349892723
 31
0.0
  0
LWPOLYLINE
  5
7DE1B343D9DE0F4
330
7DE1B343D9DE171
100
AcDbEntity
  8
TEXT
100
AcDbPolyline
 90
        6
 70
     1
 43
0.0
 10
0.803407012809588
 20
0.8572780342227355
 10
0.7730904185893799
 20
0.8572780342227355
 10
0.7730904185893799
 20
0.7341670361678413
 42
0.407328721240804
 10
0.7846340697508563
 20
0.7223481214914552
 10
0.845255768795587
 20
0.7223481214914552
 10
0.862721109202905
 20
0.7551603505349343
  0
LINE
  5
7DE1B343D9DE0FC
330
7DE1B343D9DE171
100
AcDbEntity
  8
TEXT
100
AcDbLine
 10
0.9887567316259682
 20
0.839390412931271
 30
0.0
 11
0.9887567316259682
 21
0.7066330381059148
 31
0.0
  0
ARC
  5
7DE1B343D9DE0FD
330
7DE1B343D9DE171
100
AcDbEntity
  8
TEXT
100
AcDbCircle
 10
1.072054667948141
 20
0.7360723283905183
 30
0.0
 40
0.0153818062434269
100
AcDbArc
 50
174.7883570302258
 51
270.0
  0
LWPOLYLINE
  5
7DE1B343D9DE0FE
330
7DE1B343D9DE171
100
AcDbEntity
  8
TEXT
100
AcDbPolyline
 90
        2
 70
     0
 43
0.0
 10
0.9887567316259664
 20
0.7066330381059183
 42
0.3318488747599744
 10
1.057876024191279
 20
0.6550816958909901
 42
-6.868794160588311
  0
LINE
  5
7DE1B343D9DE102
330
7DE1B343D9DE171
100
AcDbEntity
  8
TEXT
100
AcDbLine
 10
1.213268426879975
 20
0.6550816958909901
 30
0.0
 11
1.280326473661815
 21
0.6550816958909901
 31
0.0
  0
LINE
  5
7DE1B343D9DE103
330
7DE1B343D9DE171
100
AcDbEntity
  8
TEXT
100
AcDbLine
 10
1.213268426879975
 20
0.8497242450566256
 30
0.0
 11
1.213268426879975
 21
0.6550816958909901
 31
0.0
  0
LINE
  5
7DE1B343D9DE104
330
7DE1B343D9DE171
100
AcDbEntity
  8
TEXT
100
AcDbLine
 10
1.155879357890714
 20
0.8572780342227355
 30
0.0
 11
1.205714637713861
 21
0.8572780342227355
 31
0.0
  0
LINE
  5
7DE1B343D9DE105
330
7DE1B343D9DE171
100
AcDbEntity
  8
TEXT
100
AcDbLine
 10
1.155879357890714
 20
0.6550816958909901
 30
0.0
 11
1.155879357890714
 21
0.8572780342227355
 31
0.0
  0
LWPOLYLINE
  5
7DE1B343D9DE106
330
7DE1B343D9DE171
100
AcDbEntity
  8
TEXT
100
AcDbPolyline
 90
        2
 70
     0
 43
0.0
 10
1.205714637713859
 20
0.8572780342227355
 42
-0.4142135623731017
 10
1.213268426879973
 20
0.8497242450566256
 42
-0.9999999999999998
  0
LINE
  5
7DE1B343D9DE10A
330
7DE1B343D9DE171
100
AcDbEntity
  8
TEXT
100
AcDbLine
 10
1.411524638491544
 20
0.8572780342227355
 30
0.0
 11
1.411524638491544
 21
0.782225628148529
 31
0.0
  0
LINE
  5
7DE1B343D9DE10B
330
7DE1B343D9DE171
100
AcDbEntity
  8
TEXT
100
AcDbLine
 10
1.280326473661815
 20
0.8572780342227355
 30
0.0
 11
1.334460070582765
 21
0.8572780342227355
 31
0.0
  0
LINE
  5
7DE1B343D9DE10C
330
7DE1B343D9DE171
100
AcDbEntity
  8
TEXT
100
AcDbLine
 10
1.280326473661815
 20
0.6550816958909901
 30
0.0
 11
1.280326473661815
 21
0.8572780342227355
 31
0.0
  0
LWPOLYLINE
  5
7DE1B343D9DE10D
330
7DE1B343D9DE171
100
AcDbEntity
  8
TEXT
100
AcDbPolyline
 90
        2
 70
     0
 43
0.0
 10
1.334460070582763
 20
0.8572780342227355
 42
-0.4142135623731017
 10
1.342013859748877
 20
0.8497242450566256
 42
-0.9999999999999998
  0
LWPOLYLINE
  5
7DE1B343D9DE111
330
7DE1B343D9DE171
100
AcDbEntity
  8
TEXT
100
AcDbPolyline
 90
        4
 70
     0
 43
0.0
 10
1.342013859748877
 20
0.8497242450566256
 10
1.342013859748877
 20
0.6550816958909901
 10
1.410492143036734
 20
0.6550816958909901
 10
1.410492143036734
 20
0.6985726408414282
 42
-1.714843617202739
  0
LINE
  5
7DE1B343D9DE117
330
7DE1B343D9DE171
100
AcDbEntity
  8
TEXT
100
AcDbLine
 10
0.7706279753536327
 20
0.921554728879501
 30
0.0
 11
0.7706279753536327
 21
0.9559426464736391
 31
0.0
  0
LINE
  5
7DE1B343D9DE118
330
7DE1B343D9DE171
100
AcDbEntity
  8
TEXT
100
AcDbLine
 10
0.84242694149754
 20
0.921554728879501
 30
0.0
 11
0.7706279753536327
 21
0.921554728879501
 31
0.0
  0
LINE
  5
7DE1B343D9DE119
330
7DE1B343D9DE171
100
AcDbEntity
  8
TEXT
100
AcDbLine
 10
0.9899277381287197
 20
0.921554728879501
 30
0.0
 11
0.9598058253353434
 21
0.921554728879501
 31
0.0
  0
LINE
  5
7DE1B343D9DE11A
330
7DE1B343D9DE171
100
AcDbEntity
  8
TEXT
100
AcDbLine
 10
0.9899277381287197
 20
0.9895662066183115
 30
0.0
 11
0.9899277381287197
 21
0.921554728879501
 31
0.0
  0
LINE
  5
7DE1B343D9DE11B
330
7DE1B343D9DE171
100
AcDbEntity
  8
TEXT
100
AcDbLine
 10
1.056736450695084
 20
0.9895662066183115
 30
0.0
 11
0.9899277381287197
 21
0.9895662066183115
 31
0.0
  0
LWPOLYLINE
  5
7DE1B343D9DE11C
330
7DE1B343D9DE171
100
AcDbEntity
  8
TEXT
100
AcDbPolyline
 90
        3
 70
     0
 43
0.0
 10
1.377148210293086
 20
0.9215547288795045
 10
1.258848051477042
 20
0.9215547288795045
 10
1.258848051477042
 20
0.8943872321186086
 42
-1.960274751411753
  0
LINE
  5
7DE1B343D9DE121
330
7DE1B343D9DE171
100
AcDbEntity
  8
TEXT
100
AcDbLine
 10
1.223066360763881
 20
0.921554728879501
 30
0.0
 11
1.089048304832744
 21
0.921554728879501
 31
0.0
  0
LWPOLYLINE
  5
7DE1B343D9DE122
330
7DE1B343D9DE171
100
AcDbEntity
  8
TEXT
100
AcDbPolyline
 90
        2
 70
     0
 43
0.0
 10
1.223066360763881
 20
0.9215547288795045
 42
-0.3328679258950098
 10
1.258848051477042
 20
0.8943872321186086
 42
6.772930709997214
  0
LINE
  5
7DE1B343D9DE126
330
7DE1B343D9DE171
100
AcDbEntity
  8
TEXT
100
AcDbLine
 10
1.412929901006253
 20
0.921554728879501
 30
0.0
 11
1.412929901006253
 21
0.8932321831098571
 31
0.0
  0
LWPOLYLINE
  5
7DE1B343D9DE127
330
7DE1B343D9DE171
100
AcDbEntity
  8
TEXT
100
AcDbPolyline
 90
        2
 70
     0
 43
0.0
 10
1.377148210293086
 20
0.9215547288795045
 42
-0.3277054968067132
 10
1.412929901006251
 20
0.8932321831098606
 42
6.667889725900311
  0
LINE
  5
7DE1B343D9DE12B
330
7DE1B343D9DE171
100
AcDbEntity
  8
TEXT
100
AcDbLine
 10
1.626721749098353
 20
0.8163427503260736
 30
0.0
 11
1.582970977916452
 21
0.8985930263222188
 31
0.0
  0
LINE
  5
7DE1B343D9DE12C
330
7DE1B343D9DE171
100
AcDbEntity
  8
TEXT
100
AcDbLine
 10
1.626721749098353
 20
0.921554728879501
 30
0.0
 11
1.626721749098353
 21
0.8163427503260736
 31
0.0
  0
LINE
  5
7DE1B343D9DE12D
330
7DE1B343D9DE171
100
AcDbEntity
  8
TEXT
100
AcDbLine
 10
1.854405488036722
 20
0.8456894024679629
 30
0.0
 11
1.854405488036722
 21
0.9870189346471017
 31
0.0
  0
LINE
  5
7DE1B343D9DE12E
330
7DE1B343D9DE171
100
AcDbEntity
  8
TEXT
100
AcDbLine
 10
1.901503646592707
 20
0.921554728879501
 30
0.0
 11
1.854405488036722
 21
0.8456894024679629
 31
0.0
  0
LINE
  5
7DE1B343D9DE12F
330
7DE1B343D9DE171
100
AcDbEntity
  8
TEXT
100
AcDbLine
 10
1.91193836335663
 20
0.8116614859385274
 30
0.0
 11
1.976495479322335
 21
0.921554728879501
 31
0.0
  0
LINE
  5
7DE1B343D9DE130
330
7DE1B343D9DE171
100
AcDbEntity
  8
TEXT
100
AcDbLine
 10
1.790570496813949
 20
0.6550816958909901
 30
0.0
 11
1.85494868113257
 21
0.6550816958909901
 31
0.0
  0
LWPOLYLINE
  5
7DE1B343D9DE131
330
7DE1B343D9DE171
100
AcDbEntity
  8
TEXT
100
AcDbPolyline
 90
        2
 70
     0
 43
0.0
 10
1.630661426403391
 20
0.6985726408414282
 42
-0.2901071551932486
 10
1.587585493535747
 20
0.6550816958909901
 42
-5.328517124445184
  0
ARC
  5
7DE1B343D9DE135
330
7DE1B343D9DE171
100
AcDbEntity
  8
TEXT
100
AcDbCircle
 10
1.518730911878832
 20
0.8289186592227382
 30
0.0
 40
0.028359375
100
AcDbArc
 50
25.78218179591245
 51
90.0
  0
LINE
  5
7DE1B343D9DE136
330
7DE1B343D9DE171
100
AcDbEntity
  8
TEXT
100
AcDbLine
 10
1.554531987182955
 20
0.8200030607606032
 30
0.0
 11
1.544267226769391
 21
0.8412536003332975
 31
0.0
  0
LINE
  5
7DE1B343D9DE137
330
7DE1B343D9DE171
100
AcDbEntity
  8
TEXT
100
AcDbLine
 10
1.472243997399572
 20
0.8200030607606032
 30
0.0
 11
1.554531987182955
 21
0.8200030607606032
 31
0.0
  0
LWPOLYLINE
  5
7DE1B343D9DE138
330
7DE1B343D9DE171
100
AcDbEntity
  8
TEXT
100
AcDbPolyline
 90
        4
 70
     1
 43
0.0
 10
1.567463028465854
 20
0.7580456738750153
 10
1.478802709805996
 20
0.7580456738750153
 42
0.9999999999999998
 10
1.478802709805996
 20
0.7156471333711546
 10
1.567463028465854
 20
0.7156471333711546
 42
1.0
  0
LWPOLYLINE
  5
7DE1B343D9DE13E
330
7DE1B343D9DE171
100
AcDbEntity
  8
TEXT
100
AcDbPolyline
 90
        2
 70
     0
 43
0.0
 10
1.45356807590437
 20
0.6550816958909901
 10
1.587585493535747
 20
0.6550816958909901
 42
0.9999999999999998
  0
LINE
  5
7DE1B343D9DE142
330
7DE1B343D9DE171
100
AcDbEntity
  8
TEXT
100
AcDbLine
 10
1.713922515521386
 20
0.8572780342227355
 30
0.0
 11
1.790570496813944
 21
0.8572780342227355
 31
0.0
  0
LINE
  5
7DE1B343D9DE143
330
7DE1B343D9DE171
100
AcDbEntity
  8
TEXT
100
AcDbLine
 10
1.790570496813944
 20
0.8572780342227355
 30
0.0
 11
1.790570496813949
 21
0.6550816958909901
 31
0.0
  0
ARC
  5
7DE1B343D9DE144
330
7DE1B343D9DE171
100
AcDbEntity
  8
TEXT
100
AcDbCircle
 10
1.713922515521384
 20
0.8323721589400728
 30
0.0
 40
0.0249058752826653
100
AcDbArc
 50
89.99971217465335
 51
179.9999999999985
  0
LINE
  5
7DE1B343D9DE145
330
7DE1B343D9DE171
100
AcDbEntity
  8
TEXT
100
AcDbLine
 10
1.689016640238727
 20
0.6550816958909901
 30
0.0
 11
1.689016640238722
 21
0.8323722013224584
 31
0.0
  0
LWPOLYLINE
  5
7DE1B343D9DE146
330
7DE1B343D9DE171
100
AcDbEntity
  8
TEXT
100
AcDbPolyline
 90
        2
 70
     0
 43
0.0
 10
1.630661426403391
 20
0.6550816958909901
 10
1.689016640238725
 20
0.6550816958909901
  0
LWPOLYLINE
  5
7DE1B343D9DE14A
330
7DE1B343D9DE171
100
AcDbEntity
  8
TEXT
100
AcDbPolyline
 90
        2
 70
     0
 43
0.0
 10
1.630661426403391
 20
0.6985726408414282
 10
1.630661426403391
 20
0.6550816958909901
  0
LINE
  5
7DE1B343D9DE14E
330
7DE1B343D9DE171
100
AcDbEntity
  8
TEXT
100
AcDbLine
 10
2.00743058672024
 20
0.6550816958909901
 30
0.0
 11
1.91193836335663
 21
0.8116614859385274
 31
0.0
  0
LINE
  5
7DE1B343D9DE14F
330
7DE1B343D9DE171
100
AcDbEntity
  8
TEXT
100
AcDbLine
 10
1.930852214344034
 20
0.6550816958909901
 30
0.0
 11
2.00743058672024
 21
0.6550816958909901
 31
0.0
  0
LINE
  5
7DE1B343D9DE150
330
7DE1B343D9DE171
100
AcDbEntity
  8
TEXT
100
AcDbLine
 10
1.85494868113257
 20
0.7866612643671703
 30
0.0
 11
1.930852214344034
 21
0.6550816958909901
 31
0.0
  0
LINE
  5
7DE1B343D9DE151
330
7DE1B343D9DE171
100
AcDbEntity
  8
TEXT
100
AcDbLine
 10
1.85494868113257
 20
0.6550816958909901
 30
0.0
 11
1.85494868113257
 21
0.7866612643671703
 31
0.0
  0
LINE
  5
7DE1B343D9DE152
330
7DE1B343D9DE171
100
AcDbEntity
  8
TEXT
100
AcDbLine
 10
1.854405488036722
 20
0.9870189346471017
 30
0.0
 11
1.786090609487449
 21
0.9870189346471017
 31
0.0
  0
ARC
  5
7DE1B343D9DE153
330
7DE1B343D9DE171
100
AcDbEntity
  8
TEXT
100
AcDbCircle
 10
1.545734870446243
 20
0.8799711617585986
 30
0.0
 40
0.0416329381542859
100
AcDbArc
 50
26.56974201007528
 51
87.20939649401342
  0
LINE
  5
7DE1B343D9DE154
330
7DE1B343D9DE171
100
AcDbEntity
  8
TEXT
100
AcDbLine
 10
1.690618655397854
 20
0.921554728879501
 30
0.0
 11
1.626721749098353
 21
0.921554728879501
 31
0.0
  0
LINE
  5
7DE1B343D9DE155
330
7DE1B343D9DE171
100
AcDbEntity
  8
TEXT
100
AcDbLine
 10
1.690618655397854
 20
0.8940070790186263
 30
0.0
 11
1.690618655397854
 21
0.921554728879501
 31
0.0
  0
ARC
  5
7DE1B343D9DE156
330
7DE1B343D9DE171
100
AcDbEntity
  8
TEXT
100
AcDbCircle
 10
1.721811472460962
 20
0.8903090015972361
 30
0.0
 40
0.0314112657011332
100
AcDbArc
 50
95.88484768694724
 51
173.2388340632136
  0
LINE
  5
7DE1B343D9DE157
330
7DE1B343D9DE171
100
AcDbEntity
  8
TEXT
100
AcDbLine
 10
1.786090609487444
 20
0.921554728879501
 30
0.0
 11
1.718590891837927
 21
0.921554728879501
 31
0.0
  0
LINE
  5
7DE1B343D9DE158
330
7DE1B343D9DE171
100
AcDbEntity
  8
TEXT
100
AcDbLine
 10
1.786090609487449
 20
0.9870189346471017
 30
0.0
 11
1.786090609487444
 21
0.921554728879501
 31
0.0
  0
LINE
  5
7DE1B343D9DE159
330
7DE1B343D9DE171
100
AcDbEntity
  8
TEXT
100
AcDbLine
 10
1.976495479322335
 20
0.921554728879501
 30
0.0
 11
1.901503646592709
 21
0.921554728879501
 31
0.0
  0
INSERT
  5
7DE1B343D9DE18C
330
7DE1B343D9DE171
100
AcDbEntity
  8
ASHADE
 62
     1
100
AcDbBlockReference
  2
AVE_RENDER
 10
0.0
 20
0.0
 30
0.0
1001
AVE_RENDER
1002
{
1070
     6
1000
Pref
1070
    30
1070
    20
1070
     1
1070
     0
1000

1070
    10
1070
     1
1070
    30
1040
1.0
1070
     1
1040
0.3
1040
0.7
1040
0.0
1040
10.0
1010
-1.0
1020
-1.0
1030
-1.0
1040
0.3
1070
    49
1070
     0
1070
     0
1010
1.0
1020
1.0
1030
1.0
1040
45.0
1070
     1
1070
     0
1000
WCS
1040
0.0
1002
}
  0
INSERT
  5
7DE1B343D9DE18D
330
7DE1B343D9DE171
100
AcDbEntity
  8
ASHADE
 62
     3
100
AcDbBlockReference
  2
AVE_RENDER
 10
0.0
 20
0.0
 30
0.0
1001
AVE_RENDER
1002
{
1070
     0
1000
Full Opt
1070
     0
1070
     1
1070
     1
1070
     1
1070
     0
1070
     0
1070
     0
1070
     1
1070
     1
1040
0.0001
1040
0.0001
1002
}
  0
INSERT
  5
7DE1B343D9DE18E
330
7DE1B343D9DE171
100
AcDbEntity
  8
ASHADE
 62
     4
100
AcDbBlockReference
  2
AVE_RENDER
 10
0.0
 20
0.0
 30
0.0
1001
AVE_RENDER
1002
{
1070
     0
1000
Quick Opt
1070
     0
1070
     1
1070
     1
1070
     1
1070
     0
1070
     0
1070
     1
1002
}
  0
INSERT
  5
7DE1B343D9DE18F
330
7DE1B343D9DE171
100
AcDbEntity
  8
ASHADE
 62
     5
100
AcDbBlockReference
  2
AVE_RENDER
 10
0.0
 20
0.0
 30
0.0
1001
AVE_RENDER
1002
{
1070
     1
1000
Scanl Opt
1070
     2
1070
     0
1070
     2
1040
2.0
1040
4.0
1070
     0
1070
     1
1070
     0
1040
0.03
1002
}
  0
INSERT
  5
7DE1B343D9DE190
330
7DE1B343D9DE171
100
AcDbEntity
  8
ASHADE
 62
     6
100
AcDbBlockReference
  2
AVE_RENDER
 10
0.0
 20
0.0
 30
0.0
1001
AVE_RENDER
1002
{
1070
     2
1000
Raytr Opt
1070
     2
1070
     0
1070
     2
1040
2.0
1040
4.0
1070
     0
1070
     1
1070
     1
1040
0.03
1070
     3
1040
0.03
1002
}
  0
INSERT
  5
7DE1B343D9DE191
330
7DE1B343D9DE171
100
AcDbEntity
  8
ASHADE
 62
     7
100
AcDbBlockReference
  2
AVE_RENDER
 10
0.0
 20
0.0
 30
0.0
1001
AVE_RENDER
1002
{
1070
     0
1000
RFile Opt
1070
     5
1070
   640
1070
   480
1070
 10000
1070
     3
1070
    32
1070
    24
1070
     0
1070
     0
1070
     0
1070
     1
1070
     0
1070
     0
1070
     0
1002
}
  0
INSERT
  5
7DE1B343D9DE192
330
7DE1B343D9DE171
100
AcDbEntity
  8
ASHADE
 62
     8
100
AcDbBlockReference
  2
AVE_RENDER
 10
0.0
 20
0.0
 30
0.0
1001
AVE_RENDER
1002
{
1070
     0
1000
Fog Opt
1070
     0
1070
     0
1040
0.0
1040
1.0
1040
0.0
1040
1.0
1010
0.5
1020
0.5
1030
0.5
1002
}
  0
INSERT
  5
7DE1B343D9DE193
330
7DE1B343D9DE171
100
AcDbEntity
  8
ASHADE
 62
     9
100
AcDbBlockReference
  2
AVE_RENDER
 10
0.0
 20
0.0
 30
0.0
1001
AVE_RENDER
1002
{
1070
     0
1000
BG Opt
1070
     0
1070
     1
1010
0.0
1020
0.0
1030
0.0
1010
1.0
1020
0.0
1030
0.0
1010
0.0
1020
1.0
1030
0.0
1010
0.0
1020
0.0
1030
1.0
1040
0.5
1040
0.33
1040
0.0
1000

1070
     1
1000

1070
     1
1070
     1
1040
1.0
1040
1.0
1040
0.0
1040
0.0
1070
     0
1002
}
  0
INSERT
  5
7DE1B343D9DE19A
330
7DE1B343D9DE171
100
AcDbEntity
  8
ASHADE
 62
     1
100
AcDbBlockReference
  2
AVE_GLOBAL
 10
0.0
 20
0.0
 30
0.0
1001
AVE_MATERIAL
1002
{
1000
*GLOBAL*
1000
1
1000
Global finish.
1002
{
1002
}
1002
{
1070
    63
1002
{
1002
{
1010
-1.0
1020
-1.0
1030
-1.0
1002
}
1040
0.1000000014901161
1000

1040
0.0
1002
{
1002
}
1040
0.0
1002
{
1002
}
1040
0.0
1002
}
1002
{
1002
{
1010
-1.0
1020
-1.0
1030
-1.0
1002
}
1040
0.6999999880790711
1000

1040
0.0
1002
{
1002
}
1040
0.0
1002
{
1002
}
1040
0.0
1002
}
1002
{
1002
{
1010
-1.0
1020
-1.0
1030
-1.0
1002
}
1040
0.2000000029802322
1000

1040
0.0
1002
{
1002
}
1040
0.0
1002
{
1002
}
1040
0.0
1002
}
1002
{
1070
     0
1002
{
1070
     1
1002
{
1040
1.0
1040
1.0
1000

1040
0.0
1002
{
1002
}
1040
0.0
1002
{
1002
}
1040
0.0
1002
}
1002
}
1040
1.0
1040
0.0
1040
0.0
1002
}
1002
{
1040
1.0
1040
1.0
1000

1040
0.0
1002
{
1002
}
1040
0.0
1002
{
1002
}
1040
0.0
1002
}
1002
{
1040
0.5
1040
1.0
1000

1040
0.0
1002
{
1002
}
1040
0.0
1002
{
1002
}
1040
0.0
1002
}
1002
{
1070
     0
1040
0.0
1002
{
1002
}
1040
1.0
1002
{
1002
}
1040
0.0
1002
}
1002
{
1040
0.0
1002
{
1002
{
1010
0.0
1020
0.0
1030
0.0
1002
}
1040
1.0
1000

1040
0.0
1002
{
1002
}
1040
0.0
1002
{
1002
}
1040
0.0
1002
}
1002
}
1002
{
1002
{
1070
     1
1002
{
1040
0.0
1040
1.0
1000

1040
0.0
1002
{
1002
}
1040
0.0
1002
{
1002
}
1040
0.0
1002
}
1002
}
1040
0.0
1002
{
1002
}
1010
1.0
1020
0.0
1030
0.0
1010
0.0
1020
1.0
1030
0.0
1010
0.0
1020
0.0
1030
1.0
1070
     0
1002
}
1002
{
1002
{
1040
1.0
1040
1.0
1002
{
1070
     1
1002
{
1040
1.0
1040
1.0
1000

1040
0.0
1002
{
1002
}
1040
0.0
1002
{
1002
}
1040
0.0
1002
}
1002
}
1002
}
1070
     0
1040
0.0
1002
{
1002
}
1002
}
1002
{
1002
}
1002
}
1002
{
1071
        3
1070
     3
1070
     0
1002
{
1070
     2
1070
     0
1070
     0
1040
0.0
1002
}
1070
     0
1070
     2
1002
{
1002
}
1002
}
1002
{
1040
8030.0
1040
190.3000030517578
1040
0.3050000071525574
1040
228.0
1040
545.0
1040
14.0
1040
17.39999961853027
1040
0.4560000002384186
1002
}
1002
}
  0
ENDSEC
  0
SECTION
  2
OBJECTS
  0
DICTIONARY
  5
7DE1B343D9DE165
330
0
100
AcDbDictionary
  3
ACAD_GROUP
350
7DE1B343D9DE166
  3
ACAD_LAYOUT
350
7DE1B343D9DE1A6
  3
ACAD_MLINESTYLE
350
7DE1B343D9DE167
  3
ACAD_PLOTSETTINGS
350
7DE1B343D9DE1A7
  3
ACAD_PLOTSTYLENAME
350
7DE1B343D9DE1A4
  3
ACDBHEADERROUNDTRIPXREC
350
7DE1B343D9DE1B1
  3
ACDBVARIABLEDICTIONARY
350
7DE1B343D9DE1AE
  0
DICTIONARY
  5
7DE1B343D9DE1D3
330
7DE1B343D9DE171
100
AcDbDictionary
280
     1
  3
ACAD_LAYOUTSELFREF
360
7DE1B343D9DE1D4
  0
DICTIONARY
  5
7DE1B343D9DE1D1
330
7DE1B343D9DE16E
100
AcDbDictionary
280
     1
  3
ACAD_LAYOUTSELFREF
360
7DE1B343D9DE1D2
  0
DICTIONARY
  5
7DE1B343D9DE166
102
{ACAD_REACTORS
330
7DE1B343D9DE165
102
}
330
7DE1B343D9DE165
100
AcDbDictionary
  0
DICTIONARY
  5
7DE1B343D9DE1A6
102
{ACAD_REACTORS
330
7DE1B343D9DE165
102
}
330
7DE1B343D9DE165
100
AcDbDictionary
  0
DICTIONARY
  5
7DE1B343D9DE167
102
{ACAD_REACTORS
330
7DE1B343D9DE165
102
}
330
7DE1B343D9DE165
100
AcDbDictionary
  3
STANDARD
350
7DE1B343D9DE174
  0
DICTIONARY
  5
7DE1B343D9DE1A7
102
{ACAD_REACTORS
330
7DE1B343D9DE165
102
}
330
7DE1B343D9DE165
100
AcDbDictionary
  0
ACDBDICTIONARYWDFLT
  5
7DE1B343D9DE1A4
102
{ACAD_REACTORS
330
7DE1B343D9DE165
102
}
330
7DE1B343D9DE165
100
AcDbDictionary
281
     1
  3
Normal
350
7DE1B343D9DE1A5
100
AcDbDictionaryWithDefault
340
7DE1B343D9DE1A5
  0
DICTIONARY
  5
7DE1B343D9DE1B1
102
{ACAD_REACTORS
330
7DE1B343D9DE165
102
}
330
7DE1B343D9DE165
100
AcDbDictionary
  3
CEPSNTYPE
350
7DE1B343D9DE1BB
  3
FINGERPRINTGUID
350
7DE1B343D9DE1BC
  3
HYPERLINKBASE
350
7DE1B343D9DE1B4
  3
INSUNITS
350
7DE1B343D9DE1BA
  3
LAYOUTDICT
350
7DE1B343D9DE1B6
  3
LWETCUNION
350
7DE1B343D9DE1B9
  3
PLOTSETDICT
350
7DE1B343D9DE1B7
  3
PLOTSTYLNAMDICT
350
7DE1B343D9DE1B8
  3
PSVPSCALE
350
7DE1B343D9DE1BE
  3
PUCSBASE
350
7DE1B343D9DE1C1
  3
PUCSORGBACK
350
7DE1B343D9DE1C7
  3
PUCSORGBOTTOM
350
7DE1B343D9DE1C3
  3
PUCSORGFRONT
350
7DE1B343D9DE1C6
  3
PUCSORGLEFT
350
7DE1B343D9DE1C4
  3
PUCSORGRIGHT
350
7DE1B343D9DE1C5
  3
PUCSORGTOP
350
7DE1B343D9DE1C2
  3
PUCSORTHOREF
350
7DE1B343D9DE1BF
  3
PUCSORTHOVIEW
350
7DE1B343D9DE1C0
  3
STYLESHEET
350
7DE1B343D9DE1B5
  3
TSTACKALIGN
350
7DE1B343D9DE1B2
  3
TSTACKSIZE
350
7DE1B343D9DE1B3
  3
UCSBASE
350
7DE1B343D9DE1CA
  3
UCSORGBACK
350
7DE1B343D9DE1D0
  3
UCSORGBOTTOM
350
7DE1B343D9DE1CC
  3
UCSORGFRONT
350
7DE1B343D9DE1CF
  3
UCSORGLEFT
350
7DE1B343D9DE1CD
  3
UCSORGRIGHT
350
7DE1B343D9DE1CE
  3
UCSORGTOP
350
7DE1B343D9DE1CB
  3
UCSORTHOREF
350
7DE1B343D9DE1C8
  3
UCSORTHOVIEW
350
7DE1B343D9DE1C9
  3
VERSIONGUID
350
7DE1B343D9DE1BD
  0
DICTIONARY
  5
7DE1B343D9DE1AE
102
{ACAD_REACTORS
330
7DE1B343D9DE165
102
}
330
7DE1B343D9DE165
100
AcDbDictionary
  3
DIMASSOC
350
7DE1B343D9DE1AF
  0
XRECORD
  5
7DE1B343D9DE1D4
102
{ACAD_REACTORS
330
7DE1B343D9DE1D3
102
}
330
7DE1B343D9DE1D3
100
AcDbXrecord
340
7DE1B343D9DE171
  0
XRECORD
  5
7DE1B343D9DE1D2
102
{ACAD_REACTORS
330
7DE1B343D9DE1D1
102
}
330
7DE1B343D9DE1D1
100
AcDbXrecord
340
7DE1B343D9DE16E
  0
MLINESTYLE
  5
7DE1B343D9DE174
102
{ACAD_REACTORS
330
7DE1B343D9DE167
102
}
330
7DE1B343D9DE167
100
AcDbMlineStyle
  2
STANDARD
 70
     0
  3

 62
     0
 51
90.0
 52
90.0
 71
     2
 49
0.5
 62
   256
  6
BYLAYER
 49
-0.5
 62
   256
  6
BYLAYER
  0
ACDBPLACEHOLDER
  5
7DE1B343D9DE1A5
102
{ACAD_REACTORS
330
7DE1B343D9DE1A4
102
}
330
7DE1B343D9DE1A4
100
AcDbPlaceHolder
280
     0
  0
XRECORD
  5
7DE1B343D9DE1BB
102
{ACAD_REACTORS
330
7DE1B343D9DE1B1
102
}
330
7DE1B343D9DE1B1
100
AcDbXrecord
 90
        0
  0
XRECORD
  5
7DE1B343D9DE1BC
102
{ACAD_REACTORS
330
7DE1B343D9DE1B1
102
}
330
7DE1B343D9DE1B1
100
AcDbXrecord
  1
{3EE92F20-8DB5-11D6-88E6-0090279574E7}
  0
XRECORD
  5
7DE1B343D9DE1B4
102
{ACAD_REACTORS
330
7DE1B343D9DE1B1
102
}
330
7DE1B343D9DE1B1
100
AcDbXrecord
  1

  0
XRECORD
  5
7DE1B343D9DE1BA
102
{ACAD_REACTORS
330
7DE1B343D9DE1B1
102
}
330
7DE1B343D9DE1B1
100
AcDbXrecord
 90
        0
  0
XRECORD
  5
7DE1B343D9DE1B6
102
{ACAD_REACTORS
330
7DE1B343D9DE1B1
102
}
330
7DE1B343D9DE1B1
100
AcDbXrecord
340
7DE1B343D9DE1A6
  0
XRECORD
  5
7DE1B343D9DE1B9
102
{ACAD_REACTORS
330
7DE1B343D9DE1B1
102
}
330
7DE1B343D9DE1B1
100
AcDbXrecord
 90
    14877
  0
XRECORD
  5
7DE1B343D9DE1B7
102
{ACAD_REACTORS
330
7DE1B343D9DE1B1
102
}
330
7DE1B343D9DE1B1
100
AcDbXrecord
340
7DE1B343D9DE1A7
  0
XRECORD
  5
7DE1B343D9DE1B8
102
{ACAD_REACTORS
330
7DE1B343D9DE1B1
102
}
330
7DE1B343D9DE1B1
100
AcDbXrecord
340
7DE1B343D9DE1A4
  0
XRECORD
  5
7DE1B343D9DE1BE
102
{ACAD_REACTORS
330
7DE1B343D9DE1B1
102
}
330
7DE1B343D9DE1B1
100
AcDbXrecord
 40
0.0
  0
XRECORD
  5
7DE1B343D9DE1C1
102
{ACAD_REACTORS
330
7DE1B343D9DE1B1
102
}
330
7DE1B343D9DE1B1
100
AcDbXrecord
340
0
  0
XRECORD
  5
7DE1B343D9DE1C7
102
{ACAD_REACTORS
330
7DE1B343D9DE1B1
102
}
330
7DE1B343D9DE1B1
100
AcDbXrecord
 10
0.0
 20
0.0
 30
0.0
  0
XRECORD
  5
7DE1B343D9DE1C3
102
{ACAD_REACTORS
330
7DE1B343D9DE1B1
102
}
330
7DE1B343D9DE1B1
100
AcDbXrecord
 10
0.0
 20
0.0
 30
0.0
  0
XRECORD
  5
7DE1B343D9DE1C6
102
{ACAD_REACTORS
330
7DE1B343D9DE1B1
102
}
330
7DE1B343D9DE1B1
100
AcDbXrecord
 10
0.0
 20
0.0
 30
0.0
  0
XRECORD
  5
7DE1B343D9DE1C4
102
{ACAD_REACTORS
330
7DE1B343D9DE1B1
102
}
330
7DE1B343D9DE1B1
100
AcDbXrecord
 10
0.0
 20
0.0
 30
0.0
  0
XRECORD
  5
7DE1B343D9DE1C5
102
{ACAD_REACTORS
330
7DE1B343D9DE1B1
102
}
330
7DE1B343D9DE1B1
100
AcDbXrecord
 10
0.0
 20
0.0
 30
0.0
  0
XRECORD
  5
7DE1B343D9DE1C2
102
{ACAD_REACTORS
330
7DE1B343D9DE1B1
102
}
330
7DE1B343D9DE1B1
100
AcDbXrecord
 10
0.0
 20
0.0
 30
0.0
  0
XRECORD
  5
7DE1B343D9DE1BF
102
{ACAD_REACTORS
330
7DE1B343D9DE1B1
102
}
330
7DE1B343D9DE1B1
100
AcDbXrecord
340
0
  0
XRECORD
  5
7DE1B343D9DE1C0
102
{ACAD_REACTORS
330
7DE1B343D9DE1B1
102
}
330
7DE1B343D9DE1B1
100
AcDbXrecord
 70
     0
  0
XRECORD
  5
7DE1B343D9DE1B5
102
{ACAD_REACTORS
330
7DE1B343D9DE1B1
102
}
330
7DE1B343D9DE1B1
100
AcDbXrecord
  1

  0
XRECORD
  5
7DE1B343D9DE1B2
102
{ACAD_REACTORS
330
7DE1B343D9DE1B1
102
}
330
7DE1B343D9DE1B1
100
AcDbXrecord
 90
        1
  0
XRECORD
  5
7DE1B343D9DE1B3
102
{ACAD_REACTORS
330
7DE1B343D9DE1B1
102
}
330
7DE1B343D9DE1B1
100
AcDbXrecord
 90
       70
  0
XRECORD
  5
7DE1B343D9DE1CA
102
{ACAD_REACTORS
330
7DE1B343D9DE1B1
102
}
330
7DE1B343D9DE1B1
100
AcDbXrecord
340
0
  0
XRECORD
  5
7DE1B343D9DE1D0
102
{ACAD_REACTORS
330
7DE1B343D9DE1B1
102
}
330
7DE1B343D9DE1B1
100
AcDbXrecord
 10
0.0
 20
0.0
 30
0.0
  0
XRECORD
  5
7DE1B343D9DE1CC
102
{ACAD_REACTORS
330
7DE1B343D9DE1B1
102
}
330
7DE1B343D9DE1B1
100
AcDbXrecord
 10
0.0
 20
0.0
 30
0.0
  0
XRECORD
  5
7DE1B343D9DE1CF
102
{ACAD_REACTORS
330
7DE1B343D9DE1B1
102
}
330
7DE1B343D9DE1B1
100
AcDbXrecord
 10
0.0
 20
0.0
 30
0.0
  0
XRECORD
  5
7DE1B343D9DE1CD
102
{ACAD_REACTORS
330
7DE1B343D9DE1B1
102
}
330
7DE1B343D9DE1B1
100
AcDbXrecord
 10
0.0
 20
0.0
 30
0.0
  0
XRECORD
  5
7DE1B343D9DE1CE
102
{ACAD_REACTORS
330
7DE1B343D9DE1B1
102
}
330
7DE1B343D9DE1B1
100
AcDbXrecord
 10
0.0
 20
0.0
 30
0.0
  0
XRECORD
  5
7DE1B343D9DE1CB
102
{ACAD_REACTORS
330
7DE1B343D9DE1B1
102
}
330
7DE1B343D9DE1B1
100
AcDbXrecord
 10
0.0
 20
0.0
 30
0.0
  0
XRECORD
  5
7DE1B343D9DE1C8
102
{ACAD_REACTORS
330
7DE1B343D9DE1B1
102
}
330
7DE1B343D9DE1B1
100
AcDbXrecord
340
0
  0
XRECORD
  5
7DE1B343D9DE1C9
102
{ACAD_REACTORS
330
7DE1B343D9DE1B1
102
}
330
7DE1B343D9DE1B1
100
AcDbXrecord
 70
     0
  0
XRECORD
  5
7DE1B343D9DE1BD
102
{ACAD_REACTORS
330
7DE1B343D9DE1B1
102
}
330
7DE1B343D9DE1B1
100
AcDbXrecord
  1
{3EE92F22-8DB5-11D6-88E6-0090279574E7}
  0
DICTIONARYVAR
  5
7DE1B343D9DE1AF
102
{ACAD_REACTORS
330
7DE1B343D9DE1AE
102
}
330
7DE1B343D9DE1AE
100
DictionaryVariables
280
     0
  1
1
  0
ENDSEC
  0
EOF
