  0
SECTION
  2
HEADER
  9
$ACADVER
  1
AC1014
  9
$ACADMAINTVER
 70
     9
  9
$DWGCODEPAGE
  3
ANSI_1252
  9
$INSBASE
 10
0.0
 20
0.0
 30
0.0
  9
$EXTMIN
 10
0.780900603154268
 20
0.0755332425046691
 30
0.0
  9
$EXTMAX
 10
4.266119924901397
 20
1.649776738598928
 30
0.0
  9
$LIMMIN
 10
0.0
 20
0.0
  9
$LIMMAX
 10
8.5
 20
11.0
  9
$ORTHOMODE
 70
     1
  9
$REGENMODE
 70
     1
  9
$FILLMODE
 70
     1
  9
$QTEXTMODE
 70
     0
  9
$MIRRTEXT
 70
     0
  9
$DRAGMODE
 70
     2
  9
$LTSCALE
 40
1.0
  9
$OSMODE
 70
    39
  9
$ATTMODE
 70
     1
  9
$TEXTSIZE
 40
0.125
  9
$TRACEWID
 40
0.05
  9
$TEXTSTYLE
  7
ROMANS
  9
$CLAYER
  8
DIM
  9
$CELTYPE
  6
BYLAYER
  9
$CECOLOR
 62
   256
  9
$CELTSCALE
 40
1.0
  9
$DELOBJ
 70
     1
  9
$DISPSILH
 70
     1
  9
$DIMSCALE
 40
1.0
  9
$DIMASZ
 40
0.125
  9
$DIMEXO
 40
0.125
  9
$DIMDLI
 40
0.375
  9
$DIMRND
 40
0.0
  9
$DIMDLE
 40
0.0
  9
$DIMEXE
 40
0.125
  9
$DIMTP
 40
0.0
  9
$DIMTM
 40
0.0
  9
$DIMTXT
 40
0.125
  9
$DIMCEN
 40
-0.125
  9
$DIMTSZ
 40
0.0
  9
$DIMTOL
 70
     0
  9
$DIMLIM
 70
     0
  9
$DIMTIH
 70
     1
  9
$DIMTOH
 70
     1
  9
$DIMSE1
 70
     0
  9
$DIMSE2
 70
     0
  9
$DIMTAD
 70
     0
  9
$DIMZIN
 70
     4
  9
$DIMBLK
  1

  9
$DIMASO
 70
     1
  9
$DIMSHO
 70
     1
  9
$DIMPOST
  1

  9
$DIMAPOST
  1

  9
$DIMALT
 70
     0
  9
$DIMALTD
 70
     2
  9
$DIMALTF
 40
25.4
  9
$DIMLFAC
 40
0.5
  9
$DIMTOFL
 70
     0
  9
$DIMTVP
 40
0.0
  9
$DIMTIX
 70
     0
  9
$DIMSOXD
 70
     0
  9
$DIMSAH
 70
     0
  9
$DIMBLK1
  1

  9
$DIMBLK2
  1

  9
$DIMSTYLE
  2
STANDARD
  9
$DIMCLRD
 70
     0
  9
$DIMCLRE
 70
     0
  9
$DIMCLRT
 70
     0
  9
$DIMTFAC
 40
1.0
  9
$DIMGAP
 40
0.09
  9
$DIMJUST
 70
     0
  9
$DIMSD1
 70
     0
  9
$DIMSD2
 70
     0
  9
$DIMTOLJ
 70
     1
  9
$DIMTZIN
 70
     4
  9
$DIMALTZ
 70
     0
  9
$DIMALTTZ
 70
     0
  9
$DIMFIT
 70
     3
  9
$DIMUPT
 70
     0
  9
$DIMUNIT
 70
     2
  9
$DIMDEC
 70
     3
  9
$DIMTDEC
 70
     3
  9
$DIMALTU
 70
     2
  9
$DIMALTTD
 70
     2
  9
$DIMTXSTY
  7
ROMANS
  9
$DIMAUNIT
 70
     0
  9
$LUNITS
 70
     2
  9
$LUPREC
 70
     3
  9
$SKETCHINC
 40
0.1
  9
$FILLETRAD
 40
0.0
  9
$AUNITS
 70
     0
  9
$AUPREC
 70
     0
  9
$MENU
  1
ACAD
  9
$ELEVATION
 40
0.0
  9
$PELEVATION
 40
0.0
  9
$THICKNESS
 40
0.0
  9
$LIMCHECK
 70
     0
  9
$BLIPMODE
 70
     0
  9
$CHAMFERA
 40
0.0
  9
$CHAMFERB
 40
0.0
  9
$CHAMFERC
 40
0.0
  9
$CHAMFERD
 40
0.0
  9
$SKPOLY
 70
     0
  9
$TDCREATE
 40
2448302.358495602
  9
$TDUPDATE
 40
2452458.301610289
  9
$TDINDWG
 40
0.4616458565
  9
$TDUSRTIMER
 40
0.4616458565
  9
$USRTIMER
 70
     1
  9
$ANGBASE
 50
0.0
  9
$ANGDIR
 70
     0
  9
$PDMODE
 70
     0
  9
$PDSIZE
 40
0.0
  9
$PLINEWID
 40
0.0
  9
$COORDS
 70
     2
  9
$SPLFRAME
 70
     0
  9
$SPLINETYPE
 70
     6
  9
$SPLINESEGS
 70
     8
  9
$ATTDIA
 70
     0
  9
$ATTREQ
 70
     1
  9
$HANDLING
 70
 22529
  9
$HANDSEED
  5
9C5
  9
$SURFTAB1
 70
     6
  9
$SURFTAB2
 70
     6
  9
$SURFTYPE
 70
     6
  9
$SURFU
 70
     6
  9
$SURFV
 70
     6
  9
$UCSNAME
  2

  9
$UCSORG
 10
0.0
 20
0.0
 30
0.0
  9
$UCSXDIR
 10
1.0
 20
0.0
 30
0.0
  9
$UCSYDIR
 10
0.0
 20
1.0
 30
0.0
  9
$PUCSNAME
  2

  9
$PUCSORG
 10
0.0
 20
0.0
 30
0.0
  9
$PUCSXDIR
 10
1.0
 20
0.0
 30
0.0
  9
$PUCSYDIR
 10
0.0
 20
1.0
 30
0.0
  9
$USERI1
 70
     0
  9
$USERI2
 70
     0
  9
$USERI3
 70
     0
  9
$USERI4
 70
     0
  9
$USERI5
 70
     0
  9
$USERR1
 40
0.0
  9
$USERR2
 40
0.0
  9
$USERR3
 40
0.0
  9
$USERR4
 40
0.0
  9
$USERR5
 40
0.0
  9
$WORLDVIEW
 70
     1
  9
$SHADEDGE
 70
     3
  9
$SHADEDIF
 70
    70
  9
$TILEMODE
 70
     1
  9
$MAXACTVP
 70
    16
  9
$PINSBASE
 10
0.0
 20
0.0
 30
0.0
  9
$PLIMCHECK
 70
     0
  9
$PEXTMIN
 10
1.000000000000000E+20
 20
1.000000000000000E+20
 30
1.000000000000000E+20
  9
$PEXTMAX
 10
-1.000000000000000E+20
 20
-1.000000000000000E+20
 30
-1.000000000000000E+20
  9
$PLIMMIN
 10
0.0
 20
0.0
  9
$PLIMMAX
 10
12.0
 20
9.0
  9
$UNITMODE
 70
     0
  9
$VISRETAIN
 70
     0
  9
$PLINEGEN
 70
     1
  9
$PSLTSCALE
 70
     0
  9
$TREEDEPTH
 70
  3020
  9
$PICKSTYLE
 70
     1
  9
$CMLSTYLE
  2
STANDARD
  9
$CMLJUST
 70
     0
  9
$CMLSCALE
 40
1.0
  9
$PROXYGRAPHICS
 70
     1
  9
$MEASUREMENT
 70
     0
  0
ENDSEC
  0
SECTION
  2
CLASSES
  0
CLASS
  1
LWPOLYLINE
  2
AcDbPolyline
  3
AutoCAD 2000
 90
        0
280
     0
281
     1
  0
CLASS
  1
ACDBDICTIONARYWDFLT
  2
AcDbDictionaryWithDefault
  3
AutoCAD 2000
 90
        0
280
     0
281
     0
  0
CLASS
  1
ACDBPLACEHOLDER
  2
AcDbPlaceHolder
  3
AutoCAD 2000
 90
        0
280
     0
281
     0
  0
CLASS
  1
LAYOUT
  2
AcDbLayout
  3
AutoCAD 2000
 90
        0
280
     0
281
     0
  0
CLASS
  1
DICTIONARYVAR
  2
AcDbDictionaryVar
  3
AutoCAD 2000
 90
        0
280
     0
281
     0
  0
CLASS
  1
LONG_TRANSACTION
  2
AcDbLongTransaction
  3
AutoCAD 2000
 90
        0
280
     0
281
     0
  0
CLASS
  1
LWPOLYLINE
  2
AcDbPolyline
  3
AutoCAD 2000
 90
        0
280
     0
281
     1
  0
CLASS
  1
HATCH
  2
AcDbHatch
  3
AutoCAD 2000
 90
        0
280
     0
281
     1
  0
CLASS
  1
XRECORD
  2
AcDbXrecord
  3
AutoCAD 2000
 90
        0
280
     0
281
     0
  0
ENDSEC
  0
SECTION
  2
TABLES
  0
TABLE
  2
VPORT
  5
8
330
0
100
AcDbSymbolTable
 70
     2
  0
VPORT
  5
9A0
330
8
100
AcDbSymbolTableRecord
100
AcDbViewportTableRecord
  2
*ACTIVE
 70
     0
 10
0.0
 20
0.0
 11
1.0
 21
1.0
 12
5.445392037011675
 22
0.8628402149442582
 13
0.0
 23
0.0
 14
0.25
 24
0.25
 15
0.0
 25
0.0
 16
0.0
 26
0.0
 36
1.0
 17
0.0
 27
0.0
 37
0.0
 40
2.163479863837083
 41
4.320930232558139
 42
50.0
 43
0.0
 44
0.0
 50
0.0
 51
0.0
 71
     0
 72
  2000
 73
     1
 74
     1
 75
     0
 76
     0
 77
     0
 78
     0
  0
ENDTAB
  0
TABLE
  2
LTYPE
  5
5
330
0
100
AcDbSymbolTable
 70
     1
  0
LTYPE
  5
12
330
5
100
AcDbSymbolTableRecord
100
AcDbLinetypeTableRecord
  2
BYBLOCK
 70
     0
  3

 72
    65
 73
     0
 40
0.0
  0
LTYPE
  5
13
330
5
100
AcDbSymbolTableRecord
100
AcDbLinetypeTableRecord
  2
BYLAYER
 70
     0
  3

 72
    65
 73
     0
 40
0.0
  0
LTYPE
  5
14
330
5
100
AcDbSymbolTableRecord
100
AcDbLinetypeTableRecord
  2
CONTINUOUS
 70
     0
  3
Solid line
 72
    65
 73
     0
 40
0.0
  0
ENDTAB
  0
TABLE
  2
LAYER
  5
2
330
0
100
AcDbSymbolTable
 70
     3
  0
LAYER
  5
F
330
2
100
AcDbSymbolTableRecord
100
AcDbLayerTableRecord
  2
0
 70
     0
 62
     7
  6
CONTINUOUS
  0
LAYER
  5
3A
330
2
100
AcDbSymbolTableRecord
100
AcDbLayerTableRecord
  2
TEXT
 70
     0
 62
     3
  6
CONTINUOUS
  0
LAYER
  5
3D
330
2
100
AcDbSymbolTableRecord
100
AcDbLayerTableRecord
  2
DIM
 70
     0
 62
     4
  6
CONTINUOUS
  0
ENDTAB
  0
TABLE
  2
STYLE
  5
3
330
0
100
AcDbSymbolTable
 70
     3
  0
STYLE
  5
10
330
3
100
AcDbSymbolTableRecord
100
AcDbTextStyleTableRecord
  2
STANDARD
 70
     0
 40
0.0
 41
1.0
 50
0.0
 71
     0
 42
0.125
  3
txt
  4

  0
STYLE
  5
33C
330
3
100
AcDbSymbolTableRecord
100
AcDbTextStyleTableRecord
  2
ROMANS
 70
     0
 40
0.0
 41
1.0
 50
0.0
 71
     0
 42
0.125
  3
romans.shx
  4

  0
STYLE
  5
88E
330
3
100
AcDbSymbolTableRecord
100
AcDbTextStyleTableRecord
  2
ITALICC
 70
     0
 40
0.0
 41
1.0
 50
0.0
 71
     0
 42
0.125
  3
italicc
  4

  0
ENDTAB
  0
TABLE
  2
VIEW
  5
6
330
0
100
AcDbSymbolTable
 70
     0
  0
ENDTAB
  0
TABLE
  2
UCS
  5
7
330
0
100
AcDbSymbolTable
 70
     0
  0
ENDTAB
  0
TABLE
  2
APPID
  5
9
330
0
100
AcDbSymbolTable
 70
     1
  0
APPID
  5
11
330
9
100
AcDbSymbolTableRecord
100
AcDbRegAppTableRecord
  2
ACAD
 70
     0
  0
ENDTAB
  0
TABLE
  2
DIMSTYLE
  5
A
330
0
100
AcDbSymbolTable
 70
     1
  0
DIMSTYLE
105
335
330
A
100
AcDbSymbolTableRecord
100
AcDbDimStyleTableRecord
  2
STANDARD
 70
     0
  3

  4

  5

  6

  7

 40
1.0
 41
0.125
 42
0.125
 43
0.375
 44
0.125
 45
0.0
 46
0.0
 47
0.0
 48
0.0
140
0.125
141
-0.125
142
0.0
143
25.4
144
0.5
145
0.0
146
1.0
147
0.09
 71
     0
 72
     0
 73
     1
 74
     1
 75
     0
 76
     0
 77
     0
 78
     4
170
     0
171
     2
172
     0
173
     0
174
     0
175
     0
176
     0
177
     0
178
     0
270
     2
271
     3
272
     3
273
     2
274
     2
340
33C
275
     0
280
     0
281
     0
282
     0
283
     1
284
     4
285
     0
286
     0
287
     3
288
     0
  0
ENDTAB
  0
TABLE
  2
BLOCK_RECORD
  5
1
330
0
100
AcDbSymbolTable
 70
     0
  0
BLOCK_RECORD
  5
18
102
{ACAD_XDICTIONARY
360
9C3
102
}
330
1
100
AcDbSymbolTableRecord
100
AcDbBlockTableRecord
  2
*MODEL_SPACE
  0
BLOCK_RECORD
  5
15
102
{ACAD_XDICTIONARY
360
9C1
102
}
330
1
100
AcDbSymbolTableRecord
100
AcDbBlockTableRecord
  2
*PAPER_SPACE
  0
ENDTAB
  0
ENDSEC
  0
SECTION
  2
BLOCKS
  0
BLOCK
  5
4A
330
18
100
AcDbEntity
  8
0
100
AcDbBlockBegin
  2
*MODEL_SPACE
 70
     0
 10
0.0
 20
0.0
 30
0.0
  3
*MODEL_SPACE
  1

  0
ENDBLK
  5
4B
330
18
100
AcDbEntity
  8
0
100
AcDbBlockEnd
  0
BLOCK
  5
48
330
15
100
AcDbEntity
 67
     1
  8
0
100
AcDbBlockBegin
  2
*PAPER_SPACE
 70
     0
 10
0.0
 20
0.0
 30
0.0
  3
*PAPER_SPACE
  1

  0
ENDBLK
  5
49
330
15
100
AcDbEntity
 67
     1
  8
0
100
AcDbBlockEnd
  0
ENDSEC
  0
SECTION
  2
ENTITIES
  0
LWPOLYLINE
  5
73C
330
18
100
AcDbEntity
  8
0
100
AcDbPolyline
 90
       27
 70
     1
 43
0.0
 10
2.07657724806501
 20
1.449776738598927
 10
2.098013183459499
 20
1.529776738598927
 10
2.077583735820319
 20
1.529776738598927
 10
2.146865768123074
 20
1.649776738598927
 10
2.182237638912056
 20
1.649776738598928
 10
2.140437564892799
 20
1.493776738598927
 10
2.410083735820318
 20
1.493776738598927
 10
2.410083735820318
 20
1.087776738598927
 10
2.58758373582032
 20
1.087776738598927
 10
2.597583735820318
 20
1.077776738598927
 10
2.60758373582032
 20
1.087776738598927
 10
2.785083735820318
 20
1.087776738598927
 10
2.78508373582032
 20
1.493776738598927
 10
3.054729906747841
 20
1.493776738598927
 10
3.012929832728586
 20
1.649776738598928
 10
3.048301703517564
 20
1.649776738598927
 10
3.11758373582032
 20
1.529776738598927
 10
3.09715428818114
 20
1.529776738598927
 10
3.11859022357563
 20
1.449776738598928
 10
3.166333735471832
 20
1.449776738598927
 42
-1.000000009252154
 10
3.166333735706199
 20
1.399776738598927
 10
2.847583735820318
 20
1.399776738598927
 10
2.847583735820318
 20
1.024776738598927
 10
2.347583735820318
 20
1.024776738598927
 10
2.347583735820318
 20
1.399776738598927
 10
2.028833735934439
 20
1.399776738598927
 42
-1.000000009252083
 10
2.028833736168806
 20
1.449776738598927
  0
TEXT
  5
913
330
18
100
AcDbEntity
  8
TEXT
100
AcDbText
 10
1.770905991905221
 20
0.5335518465872507
 30
0.0
 40
0.125
  1
PART #110222
  7
ITALICC
 72
     1
 11
2.52388218238141
 21
0.5335518465872507
 31
0.0
100
AcDbText
  0
LINE
  5
914
330
18
100
AcDbEntity
  8
TEXT
100
AcDbLine
 10
2.491615681333473
 20
0.289198160567417
 30
0.0
 11
2.568263662626031
 21
0.289198160567417
 31
0.0
  0
LINE
  5
915
330
18
100
AcDbEntity
  8
TEXT
100
AcDbLine
 10
2.563783775299531
 20
0.3534748552241824
 30
0.0
 11
2.496284057650014
 21
0.3534748552241824
 31
0.0
  0
LWPOLYLINE
  5
916
330
18
100
AcDbEntity
  8
TEXT
100
AcDbPolyline
 90
        5
 70
     0
 43
0.0001332181640625
 10
0.8545036387987984
 20
0.2302480534663696
 10
0.8678254552050471
 20
0.2302480534663696
 10
0.8678254552050471
 20
0.2668830485835594
 10
0.904460450322237
 20
0.2668830485835594
 10
0.904460450322237
 20
0.2802048649898063
  0
LWPOLYLINE
  5
917
330
18
100
AcDbEntity
  8
TEXT
100
AcDbPolyline
 90
        3
 70
     0
 43
0.0006660908203125
 10
0.8944690880175464
 20
0.3268312224116849
 10
0.8078772813769216
 20
0.3268312224116849
 10
0.8078772813769216
 20
0.2402394157710583
  0
LWPOLYLINE
  5
918
330
18
100
AcDbEntity
  8
TEXT
100
AcDbPolyline
 90
        3
 70
     0
 43
0.0006660908203125
 10
0.8944690880175464
 20
0.353474855224186
 10
0.7812336485644243
 20
0.353474855224186
 10
0.7812336485644243
 20
0.2402394157710583
  0
LWPOLYLINE
  5
919
330
18
100
AcDbEntity
  8
TEXT
100
AcDbPolyline
 90
        5
 70
     0
 43
0.0001332181640625
 10
0.904460450322237
 20
0.1603085173335588
 10
0.904460450322237
 20
0.1736303337398093
 10
0.8678254552050489
 20
0.1736303337398093
 10
0.8678254552050489
 20
0.2102653288569956
 10
0.8545036387987984
 20
0.2102653288569956
  0
LWPOLYLINE
  5
91A
330
18
100
AcDbEntity
  8
TEXT
100
AcDbPolyline
 90
        3
 70
     0
 43
0.0006660908203125
 10
0.8078772813769216
 20
0.2002739665523103
 10
0.8078772813769216
 20
0.1136821599116837
 10
0.8944690880175464
 20
0.1136821599116837
  0
LWPOLYLINE
  5
91B
330
18
100
AcDbEntity
  8
TEXT
100
AcDbPolyline
 90
        3
 70
     0
 43
0.0006660908203125
 10
0.7812336485644243
 20
0.2002739665523103
 10
0.7812336485644243
 20
0.0870385270991827
 10
0.8944690880175464
 20
0.0870385270991827
  0
LWPOLYLINE
  5
91C
330
18
100
AcDbEntity
  8
TEXT
100
AcDbPolyline
 90
        2
 70
     0
 43
0.0001332181640625
 10
0.8078772813769216
 20
0.2002739665523103
 10
0.8678254552050489
 20
0.2102653288569956
  0
LWPOLYLINE
  5
91D
330
18
100
AcDbEntity
  8
TEXT
100
AcDbPolyline
 90
        2
 70
     0
 43
0.0001332181640625
 10
0.8545036387987984
 20
0.2102653288569956
 10
0.7812336485644243
 20
0.2002739665523103
  0
LWPOLYLINE
  5
91E
330
18
100
AcDbEntity
  8
TEXT
100
AcDbPolyline
 90
        2
 70
     0
 43
0.0006660908203125
 10
0.8078772813769216
 20
0.2002739665523103
 10
0.7812336485644243
 20
0.2002739665523103
  0
LWPOLYLINE
  5
91F
330
18
100
AcDbEntity
  8
TEXT
100
AcDbPolyline
 90
        2
 70
     0
 43
0.0001332181640625
 10
0.8078772813769216
 20
0.1136821599116837
 10
0.8678254552050489
 20
0.1736303337398093
  0
LWPOLYLINE
  5
920
330
18
100
AcDbEntity
  8
TEXT
100
AcDbPolyline
 90
        2
 70
     0
 43
0.0006660908203125
 10
0.8078772813769216
 20
0.2402394157710583
 10
0.7812336485644243
 20
0.2402394157710583
  0
LWPOLYLINE
  5
921
330
18
100
AcDbEntity
  8
TEXT
100
AcDbPolyline
 90
        2
 70
     0
 43
0.0001332181640625
 10
0.7812336485644243
 20
0.2402394157710583
 10
0.8545036387987984
 20
0.2302480534663696
  0
LWPOLYLINE
  5
922
330
18
100
AcDbEntity
  8
TEXT
100
AcDbPolyline
 90
        2
 70
     0
 43
0.0001332181640625
 10
0.8078772813769216
 20
0.2402394157710583
 10
0.8678254552050471
 20
0.2302480534663696
  0
LWPOLYLINE
  5
923
330
18
100
AcDbEntity
  8
TEXT
100
AcDbPolyline
 90
        2
 70
     0
 43
0.0001332181640625
 10
0.8078772813769216
 20
0.3268312224116849
 10
0.8678254552050471
 20
0.2668830485835594
  0
LWPOLYLINE
  5
924
330
18
100
AcDbEntity
  8
TEXT
100
AcDbPolyline
 90
        5
 70
     0
 43
0.0001332181640625
 10
0.9743999864550477
 20
0.2102653288569956
 10
0.961078170048799
 20
0.2102653288569956
 10
0.961078170048799
 20
0.1736303337398093
 10
0.9244431749316092
 20
0.1736303337398093
 10
0.9244431749316092
 20
0.1603085173335588
  0
LWPOLYLINE
  5
925
330
18
100
AcDbEntity
  8
TEXT
100
AcDbPolyline
 90
        2
 70
     0
 43
0.0001332181640625
 10
1.021026343876922
 20
0.2002739665523103
 10
0.961078170048799
 20
0.2102653288569956
  0
LWPOLYLINE
  5
926
330
18
100
AcDbEntity
  8
TEXT
100
AcDbPolyline
 90
        2
 70
     0
 43
0.0001332181640625
 10
1.047669976689423
 20
0.2002739665523103
 10
0.9743999864550477
 20
0.2102653288569956
  0
LWPOLYLINE
  5
927
330
18
100
AcDbEntity
  8
TEXT
100
AcDbPolyline
 90
        3
 70
     0
 43
0.0006660908203125
 10
0.934434537236298
 20
0.0870385270991827
 10
1.047669976689423
 20
0.0870385270991827
 10
1.047669976689423
 20
0.2002739665523103
  0
LWPOLYLINE
  5
928
330
18
100
AcDbEntity
  8
TEXT
100
AcDbPolyline
 90
        3
 70
     0
 43
0.0006660908203125
 10
0.934434537236298
 20
0.1136821599116837
 10
1.021026343876922
 20
0.1136821599116837
 10
1.021026343876922
 20
0.2002739665523103
  0
LWPOLYLINE
  5
929
330
18
100
AcDbEntity
  8
TEXT
100
AcDbPolyline
 90
        2
 70
     0
 43
0.0001332181640625
 10
1.021026343876922
 20
0.1136821599116837
 10
0.961078170048799
 20
0.1736303337398093
  0
LWPOLYLINE
  5
92A
330
18
100
AcDbEntity
  8
TEXT
100
AcDbPolyline
 90
        2
 70
     0
 43
0.0006660908203125
 10
0.934434537236298
 20
0.1136821599116837
 10
0.934434537236298
 20
0.0870385270991827
  0
LWPOLYLINE
  5
92B
330
18
100
AcDbEntity
  8
TEXT
100
AcDbPolyline
 90
        2
 70
     0
 43
0.0001332181640625
 10
0.9244431749316092
 20
0.1603085173335588
 10
0.934434537236298
 20
0.0870385270991827
  0
LWPOLYLINE
  5
92C
330
18
100
AcDbEntity
  8
TEXT
100
AcDbPolyline
 90
        2
 70
     0
 43
0.0001332181640625
 10
0.934434537236298
 20
0.1136821599116837
 10
0.9244431749316092
 20
0.1736303337398093
  0
LWPOLYLINE
  5
92D
330
18
100
AcDbEntity
  8
TEXT
100
AcDbPolyline
 90
        2
 70
     0
 43
0.0001332181640625
 10
0.8944690880175464
 20
0.0870385270991827
 10
0.904460450322237
 20
0.1603085173335588
  0
LWPOLYLINE
  5
92E
330
18
100
AcDbEntity
  8
TEXT
100
AcDbPolyline
 90
        2
 70
     0
 43
0.0001332181640625
 10
0.8944690880175464
 20
0.1136821599116837
 10
0.904460450322237
 20
0.1736303337398093
  0
LWPOLYLINE
  5
92F
330
18
100
AcDbEntity
  8
TEXT
100
AcDbPolyline
 90
        2
 70
     0
 43
0.0006660908203125
 10
0.8944690880175464
 20
0.1136821599116837
 10
0.8944690880175464
 20
0.0870385270991827
  0
LWPOLYLINE
  5
930
330
18
100
AcDbEntity
  8
TEXT
100
AcDbPolyline
 90
        2
 70
     0
 43
0.0006660908203125
 10
1.021026343876922
 20
0.2002739665523103
 10
1.047669976689423
 20
0.2002739665523103
  0
LWPOLYLINE
  5
931
330
18
100
AcDbEntity
  8
TEXT
100
AcDbPolyline
 90
        2
 70
     0
 43
0.0001332181640625
 10
1.021026343876922
 20
0.3268312224116849
 10
0.961078170048799
 20
0.2668830485835594
  0
LWPOLYLINE
  5
932
330
18
100
AcDbEntity
  8
TEXT
100
AcDbPolyline
 90
        2
 70
     0
 43
0.0001332181640625
 10
1.021026343876922
 20
0.2402394157710583
 10
0.961078170048799
 20
0.2302480534663696
  0
LWPOLYLINE
  5
933
330
18
100
AcDbEntity
  8
TEXT
100
AcDbPolyline
 90
        2
 70
     0
 43
0.0001332181640625
 10
0.9743999864550477
 20
0.2302480534663696
 10
1.047669976689423
 20
0.2402394157710583
  0
LWPOLYLINE
  5
934
330
18
100
AcDbEntity
  8
TEXT
100
AcDbPolyline
 90
        3
 70
     0
 43
0.0006660908203125
 10
1.021026343876922
 20
0.2402394157710583
 10
1.021026343876922
 20
0.3268312224116849
 10
0.934434537236298
 20
0.3268312224116849
  0
LWPOLYLINE
  5
935
330
18
100
AcDbEntity
  8
TEXT
100
AcDbPolyline
 90
        3
 70
     0
 43
0.0006660908203125
 10
1.047669976689423
 20
0.2402394157710583
 10
1.047669976689423
 20
0.353474855224186
 10
0.934434537236298
 20
0.353474855224186
  0
LWPOLYLINE
  5
936
330
18
100
AcDbEntity
  8
TEXT
100
AcDbPolyline
 90
        2
 70
     0
 43
0.0001332181640625
 10
0.934434537236298
 20
0.353474855224186
 10
0.9244431749316092
 20
0.2802048649898063
  0
LWPOLYLINE
  5
937
330
18
100
AcDbEntity
  8
TEXT
100
AcDbPolyline
 90
        2
 70
     0
 43
0.0001332181640625
 10
0.934434537236298
 20
0.3268312224116849
 10
0.9244431749316092
 20
0.2668830485835594
  0
LWPOLYLINE
  5
938
330
18
100
AcDbEntity
  8
TEXT
100
AcDbPolyline
 90
        2
 70
     0
 43
0.0006660908203125
 10
0.934434537236298
 20
0.3268312224116849
 10
0.934434537236298
 20
0.353474855224186
  0
LWPOLYLINE
  5
939
330
18
100
AcDbEntity
  8
TEXT
100
AcDbPolyline
 90
        5
 70
     0
 43
0.0001332181640625
 10
0.9244431749316092
 20
0.2802048649898063
 10
0.9244431749316092
 20
0.2668830485835594
 10
0.961078170048799
 20
0.2668830485835594
 10
0.961078170048799
 20
0.2302480534663696
 10
0.9743999864550477
 20
0.2302480534663696
  0
LWPOLYLINE
  5
93A
330
18
100
AcDbEntity
  8
TEXT
100
AcDbPolyline
 90
        2
 70
     0
 43
0.0001332181640625
 10
0.8944690880175464
 20
0.3268312224116849
 10
0.904460450322237
 20
0.2668830485835594
  0
LWPOLYLINE
  5
93B
330
18
100
AcDbEntity
  8
TEXT
100
AcDbPolyline
 90
        2
 70
     0
 43
0.0001332181640625
 10
0.904460450322237
 20
0.2802048649898063
 10
0.8944690880175464
 20
0.353474855224186
  0
LWPOLYLINE
  5
93C
330
18
100
AcDbEntity
  8
TEXT
100
AcDbPolyline
 90
        2
 70
     0
 43
0.0006660908203125
 10
0.8944690880175464
 20
0.3268312224116849
 10
0.8944690880175464
 20
0.353474855224186
  0
LWPOLYLINE
  5
93D
330
18
100
AcDbEntity
  8
TEXT
100
AcDbPolyline
 90
        2
 70
     0
 43
0.0006660908203125
 10
1.021026343876922
 20
0.2402394157710583
 10
1.047669976689423
 20
0.2402394157710583
  0
LWPOLYLINE
  5
93E
330
18
100
AcDbEntity
  8
TEXT
100
AcDbPolyline
 90
        2
 70
     0
 43
0.0
 10
1.766449897438054
 20
0.1385531644505997
 42
0.3318488747599744
 10
1.835569190003367
 20
0.0870018222356715
 42
-6.868794160588311
  0
LINE
  5
93F
330
18
100
AcDbEntity
  8
TEXT
100
AcDbLine
 10
1.834429616507171
 20
0.421486332962993
 30
0.0
 11
1.767620903940806
 21
0.421486332962993
 31
0.0
  0
LINE
  5
940
330
18
100
AcDbEntity
  8
TEXT
100
AcDbLine
 10
1.488278536321712
 20
0.3534748552241824
 30
0.0
 11
1.312546783423201
 21
0.3534748552241824
 31
0.0
  0
ARC
  5
941
330
18
100
AcDbEntity
  8
TEXT
100
AcDbCircle
 10
1.38338424978175
 20
0.1701976305962285
 30
0.0
 40
0.0831958083605586
100
AcDbArc
 50
270.0
 51
90.0
  0
LINE
  5
942
330
18
100
AcDbEntity
  8
TEXT
100
AcDbLine
 10
1.317784113537449
 20
0.289198160567417
 30
0.0
 11
1.484689767566419
 21
0.289198160567417
 31
0.0
  0
LINE
  5
943
330
18
100
AcDbEntity
  8
TEXT
100
AcDbLine
 10
1.38832462368803
 20
0.1553588285691108
 30
0.0
 11
1.230459323976695
 21
0.1553588285691108
 31
0.0
  0
LINE
  5
944
330
18
100
AcDbEntity
  8
TEXT
100
AcDbLine
 10
1.230459323976697
 20
0.0870018222356715
 30
0.0
 11
1.38338424978175
 21
0.0870018222356715
 31
0.0
  0
ARC
  5
945
330
18
100
AcDbEntity
  8
TEXT
100
AcDbCircle
 10
1.312546783423201
 20
0.2713873957776807
 30
0.0
 40
0.0820874594465043
100
AcDbArc
 50
90.0
 51
270.0
  0
LINE
  5
946
330
18
100
AcDbEntity
  8
TEXT
100
AcDbLine
 10
1.230459323976695
 20
0.1553588285691108
 30
0.0
 11
1.230459323976697
 21
0.0870018222356715
 31
0.0
  0
LINE
  5
947
330
18
100
AcDbEntity
  8
TEXT
100
AcDbLine
 10
1.312546783423201
 20
0.1892999363311754
 30
0.0
 11
1.38832462368803
 21
0.1892999363311754
 31
0.0
  0
ARC
  5
948
330
18
100
AcDbEntity
  8
TEXT
100
AcDbCircle
 10
1.38832462368803
 20
0.1723293824501448
 30
0.0
 40
0.0169705538810321
100
AcDbArc
 50
270.0
 51
90.0
  0
LINE
  5
949
330
18
100
AcDbEntity
  8
TEXT
100
AcDbLine
 10
1.38338424978175
 20
0.2533934389567891
 30
0.0
 11
1.317784113537449
 21
0.2533934389567891
 31
0.0
  0
ARC
  5
94A
330
18
100
AcDbEntity
  8
TEXT
100
AcDbCircle
 10
1.317784113537449
 20
0.2712957997621048
 30
0.0
 40
0.017902360805315
100
AcDbArc
 50
90.0
 51
270.0
  0
LINE
  5
94B
330
18
100
AcDbEntity
  8
TEXT
100
AcDbLine
 10
1.678750428341564
 20
0.2526028591110618
 30
0.0
 11
1.620120107309626
 21
0.3534748552241824
 31
0.0
  0
LINE
  5
94C
330
18
100
AcDbEntity
  8
TEXT
100
AcDbLine
 10
1.538576375046525
 20
0.0870018222356715
 30
0.0
 11
1.635216626121519
 21
0.0872724613339537
 31
0.0
  0
LWPOLYLINE
  5
94D
330
18
100
AcDbEntity
  8
TEXT
100
AcDbPolyline
 90
        6
 70
     1
 43
0.0
 10
1.581100178621675
 20
0.289198160567417
 10
1.550783584401467
 20
0.289198160567417
 10
1.550783584401467
 20
0.1660871625125226
 42
0.407328721240804
 10
1.562327235562943
 20
0.1542682478361366
 10
1.622948934607674
 20
0.1542682478361366
 10
1.640414275014992
 20
0.1870804768796157
  0
LINE
  5
94E
330
18
100
AcDbEntity
  8
TEXT
100
AcDbLine
 10
1.484689767566419
 20
0.289198160567417
 30
0.0
 11
1.484689767566419
 21
0.1467942135737212
 31
0.0
  0
ARC
  5
94F
330
18
100
AcDbEntity
  8
TEXT
100
AcDbCircle
 10
1.544805785540172
 20
0.1467942135737212
 30
0.0
 40
0.0601160179737537
100
AcDbArc
 50
180.0000000000003
 51
264.0521544866073
  0
LINE
  5
950
330
18
100
AcDbEntity
  8
TEXT
100
AcDbLine
 10
1.548321141165719
 20
0.3878627728183206
 30
0.0
 11
1.488278536321712
 21
0.3878627728183206
 31
0.0
  0
LINE
  5
951
330
18
100
AcDbEntity
  8
TEXT
100
AcDbLine
 10
1.488278536321712
 20
0.3878627728183206
 30
0.0
 11
1.488278536321712
 21
0.3534748552241824
 31
0.0
  0
LINE
  5
952
330
18
100
AcDbEntity
  8
TEXT
100
AcDbLine
 10
1.548321141165719
 20
0.3534748552241824
 30
0.0
 11
1.548321141165719
 21
0.3878627728183206
 31
0.0
  0
LINE
  5
953
330
18
100
AcDbEntity
  8
TEXT
100
AcDbLine
 10
1.620120107309626
 20
0.3534748552241824
 30
0.0
 11
1.548321141165719
 21
0.3534748552241824
 31
0.0
  0
LINE
  5
954
330
18
100
AcDbEntity
  8
TEXT
100
AcDbLine
 10
1.66915019134461
 20
0.1069603283406844
 30
0.0
 11
1.766449897438055
 21
0.2713105392759525
 31
0.0
  0
LINE
  5
955
330
18
100
AcDbEntity
  8
TEXT
100
AcDbLine
 10
1.766449897438055
 20
0.2713105392759525
 30
0.0
 11
1.766449897438055
 21
0.1385531644505962
 31
0.0
  0
ARC
  5
956
330
18
100
AcDbEntity
  8
TEXT
100
AcDbCircle
 10
1.635106631432396
 20
0.1265495445093672
 30
0.0
 40
0.0392772371940762
100
AcDbArc
 50
270.1604552698595
 51
330.0831797321295
  0
LINE
  5
957
330
18
100
AcDbEntity
  8
TEXT
100
AcDbLine
 10
1.73749899114743
 20
0.3534748552241824
 30
0.0
 11
1.678750428341564
 21
0.2526028591110618
 31
0.0
  0
LINE
  5
958
330
18
100
AcDbEntity
  8
TEXT
100
AcDbLine
 10
1.767620903940806
 20
0.421486332962993
 30
0.0
 11
1.767620903940806
 21
0.3534748552241824
 31
0.0
  0
LINE
  5
959
330
18
100
AcDbEntity
  8
TEXT
100
AcDbLine
 10
1.767620903940806
 20
0.3534748552241824
 30
0.0
 11
1.73749899114743
 21
0.3534748552241824
 31
0.0
  0
LWPOLYLINE
  5
95A
330
18
100
AcDbEntity
  8
TEXT
100
AcDbPolyline
 90
        4
 70
     0
 43
0.0
 10
2.119707025560964
 20
0.281644371401307
 10
2.119707025560964
 20
0.0870018222356715
 10
2.188185308848822
 20
0.0870018222356715
 10
2.188185308848822
 20
0.1304927671861096
 42
-1.714843617202739
  0
LWPOLYLINE
  5
95B
330
18
100
AcDbEntity
  8
TEXT
100
AcDbPolyline
 90
        2
 70
     0
 43
0.0
 10
2.154841376105174
 20
0.353474855224186
 42
-0.3277054968067132
 10
2.190623066818339
 20
0.3251523094545421
 42
6.667889725900311
  0
LWPOLYLINE
  5
95C
330
18
100
AcDbEntity
  8
TEXT
100
AcDbPolyline
 90
        2
 70
     0
 43
0.0
 10
1.983407803525947
 20
0.289198160567417
 42
-0.4142135623731017
 10
1.990961592692061
 20
0.281644371401307
 42
-0.9999999999999998
  0
LINE
  5
95D
330
18
100
AcDbEntity
  8
TEXT
100
AcDbLine
 10
2.000759526575968
 20
0.3534748552241824
 30
0.0
 11
1.866741470644831
 21
0.3534748552241824
 31
0.0
  0
LINE
  5
95E
330
18
100
AcDbEntity
  8
TEXT
100
AcDbLine
 10
1.9335725237028
 20
0.0870018222356715
 30
0.0
 11
1.9335725237028
 21
0.289198160567417
 31
0.0
  0
LINE
  5
95F
330
18
100
AcDbEntity
  8
TEXT
100
AcDbLine
 10
1.866741470644831
 20
0.3534748552241824
 30
0.0
 11
1.866741470644831
 21
0.1526106484917742
 31
0.0
  0
LINE
  5
960
330
18
100
AcDbEntity
  8
TEXT
100
AcDbLine
 10
1.834429616507171
 20
0.1693896603386706
 30
0.0
 11
1.834429616507171
 21
0.421486332962993
 31
0.0
  0
LINE
  5
961
330
18
100
AcDbEntity
  8
TEXT
100
AcDbLine
 10
1.835569190003366
 20
0.0870018222356715
 30
0.0
 11
1.9335725237028
 21
0.0870018222356715
 31
0.0
  0
LINE
  5
962
330
18
100
AcDbEntity
  8
TEXT
100
AcDbLine
 10
1.866741470644831
 20
0.1526106484917742
 30
0.0
 11
1.84974783376023
 21
0.1526106484917742
 31
0.0
  0
ARC
  5
963
330
18
100
AcDbEntity
  8
TEXT
100
AcDbCircle
 10
1.849747833760229
 20
0.1679924547351996
 30
0.0
 40
0.0153818062434269
100
AcDbArc
 50
174.7883570302258
 51
270.0
  0
LINE
  5
964
330
18
100
AcDbEntity
  8
TEXT
100
AcDbLine
 10
1.9335725237028
 20
0.289198160567417
 30
0.0
 11
1.983407803525948
 21
0.289198160567417
 31
0.0
  0
LINE
  5
965
330
18
100
AcDbEntity
  8
TEXT
100
AcDbLine
 10
1.990961592692062
 20
0.281644371401307
 30
0.0
 11
1.990961592692062
 21
0.0870018222356715
 31
0.0
  0
LINE
  5
966
330
18
100
AcDbEntity
  8
TEXT
100
AcDbLine
 10
2.058019639473902
 20
0.0870018222356715
 30
0.0
 11
2.058019639473902
 21
0.289198160567417
 31
0.0
  0
LINE
  5
967
330
18
100
AcDbEntity
  8
TEXT
100
AcDbLine
 10
1.990961592692062
 20
0.0870018222356715
 30
0.0
 11
2.058019639473902
 21
0.0870018222356715
 31
0.0
  0
LWPOLYLINE
  5
968
330
18
100
AcDbEntity
  8
TEXT
100
AcDbPolyline
 90
        3
 70
     0
 43
0.0
 10
2.154841376105174
 20
0.353474855224186
 10
2.03654121728913
 20
0.353474855224186
 10
2.03654121728913
 20
0.3263073584632901
 42
-1.960274751411753
  0
LINE
  5
969
330
18
100
AcDbEntity
  8
TEXT
100
AcDbLine
 10
2.058019639473902
 20
0.289198160567417
 30
0.0
 11
2.112153236394852
 21
0.289198160567417
 31
0.0
  0
LWPOLYLINE
  5
96A
330
18
100
AcDbEntity
  8
TEXT
100
AcDbPolyline
 90
        2
 70
     0
 43
0.0
 10
2.000759526575969
 20
0.353474855224186
 42
-0.3328679258950098
 10
2.03654121728913
 20
0.3263073584632901
 42
6.772930709997214
  0
LWPOLYLINE
  5
96B
330
18
100
AcDbEntity
  8
TEXT
100
AcDbPolyline
 90
        2
 70
     0
 43
0.0
 10
2.112153236394851
 20
0.289198160567417
 42
-0.4142135623731017
 10
2.119707025560964
 20
0.281644371401307
 42
-0.9999999999999998
  0
ARC
  5
96C
330
18
100
AcDbEntity
  8
TEXT
100
AcDbCircle
 10
2.323428036258331
 20
0.31189128810328
 30
0.0
 40
0.0416329381542859
100
AcDbArc
 50
26.56974201007528
 51
87.20939649401342
  0
LWPOLYLINE
  5
96D
330
18
100
AcDbEntity
  8
TEXT
100
AcDbPolyline
 90
        2
 70
     0
 43
0.0
 10
2.231261241716458
 20
0.0870018222356715
 10
2.365278659347834
 20
0.0870018222356715
 42
0.9999999999999998
  0
LWPOLYLINE
  5
96E
330
18
100
AcDbEntity
  8
TEXT
100
AcDbPolyline
 90
        4
 70
     1
 43
0.0
 10
2.345156194277942
 20
0.1899658002196967
 10
2.256495875618083
 20
0.1899658002196967
 42
0.9999999999999998
 10
2.256495875618083
 20
0.1475672597158359
 10
2.345156194277942
 20
0.1475672597158359
 42
1.0
  0
LWPOLYLINE
  5
96F
330
18
100
AcDbEntity
  8
TEXT
100
AcDbPolyline
 90
        2
 70
     0
 43
0.0
 10
2.188185308848822
 20
0.1304927671861096
 42
0.2901071551932823
 10
2.231261241716458
 20
0.0870018222356715
 42
5.328517124445801
  0
LINE
  5
970
330
18
100
AcDbEntity
  8
TEXT
100
AcDbLine
 10
2.325454976035399
 20
0.3534748552241824
 30
0.0
 11
2.19062306681834
 21
0.3534748552241824
 31
0.0
  0
LINE
  5
971
330
18
100
AcDbEntity
  8
TEXT
100
AcDbLine
 10
2.249937163211659
 20
0.2519231871052847
 30
0.0
 11
2.332225152995042
 21
0.2519231871052847
 31
0.0
  0
LINE
  5
972
330
18
100
AcDbEntity
  8
TEXT
100
AcDbLine
 10
2.296424077690921
 20
0.289198160567417
 30
0.0
 11
2.189217804303631
 21
0.289198160567417
 31
0.0
  0
LINE
  5
973
330
18
100
AcDbEntity
  8
TEXT
100
AcDbLine
 10
2.19062306681834
 20
0.3534748552241824
 30
0.0
 11
2.19062306681834
 21
0.3251523094545385
 31
0.0
  0
ARC
  5
974
330
18
100
AcDbEntity
  8
TEXT
100
AcDbCircle
 10
2.249937163211658
 20
0.1842376059611661
 30
0.0
 40
0.0676855811441166
100
AcDbArc
 50
90.0
 51
153.7768192527749
  0
LINE
  5
975
330
18
100
AcDbEntity
  8
TEXT
100
AcDbLine
 10
2.189217804303631
 20
0.289198160567417
 30
0.0
 11
2.189217804303631
 21
0.2141457544932104
 31
0.0
  0
LINE
  5
976
330
18
100
AcDbEntity
  8
TEXT
100
AcDbLine
 10
2.332225152995042
 20
0.2519231871052847
 30
0.0
 11
2.321960392581478
 21
0.273173726677979
 31
0.0
  0
ARC
  5
977
330
18
100
AcDbEntity
  8
TEXT
100
AcDbCircle
 10
2.29642407769092
 20
0.2608387855674197
 30
0.0
 40
0.028359375
100
AcDbArc
 50
25.78218179591245
 51
90.0
  0
LINE
  5
978
330
18
100
AcDbEntity
  8
TEXT
100
AcDbLine
 10
2.466709806050814
 20
0.0870018222356715
 30
0.0
 11
2.466709806050809
 21
0.2642923276671398
 31
0.0
  0
LWPOLYLINE
  5
979
330
18
100
AcDbEntity
  8
TEXT
100
AcDbPolyline
 90
        2
 70
     0
 43
0.0
 10
2.408354592215479
 20
0.0870018222356715
 10
2.466709806050813
 20
0.0870018222356715
  0
LWPOLYLINE
  5
97A
330
18
100
AcDbEntity
  8
TEXT
100
AcDbPolyline
 90
        2
 70
     0
 43
0.0
 10
2.408354592215479
 20
0.1304927671861096
 42
-0.2901071551932486
 10
2.365278659347834
 20
0.0870018222356715
 42
-5.328517124445184
  0
LWPOLYLINE
  5
97B
330
18
100
AcDbEntity
  8
TEXT
100
AcDbPolyline
 90
        2
 70
     0
 43
0.0
 10
2.408354592215479
 20
0.1304927671861096
 10
2.408354592215479
 20
0.0870018222356715
  0
LINE
  5
97C
330
18
100
AcDbEntity
  8
TEXT
100
AcDbLine
 10
2.468311821209941
 20
0.3534748552241824
 30
0.0
 11
2.40441491491044
 21
0.3534748552241824
 31
0.0
  0
LINE
  5
97D
330
18
100
AcDbEntity
  8
TEXT
100
AcDbLine
 10
2.40441491491044
 20
0.3534748552241824
 30
0.0
 11
2.40441491491044
 21
0.2482628766707551
 31
0.0
  0
LINE
  5
97E
330
18
100
AcDbEntity
  8
TEXT
100
AcDbLine
 10
2.40441491491044
 20
0.2482628766707551
 30
0.0
 11
2.360664143728539
 21
0.3305131526669003
 31
0.0
  0
ARC
  5
97F
330
18
100
AcDbEntity
  8
TEXT
100
AcDbCircle
 10
2.491615681333472
 20
0.2642922852847542
 30
0.0
 40
0.0249058752826653
100
AcDbArc
 50
89.99971217465335
 51
179.9999999999985
  0
ARC
  5
980
330
18
100
AcDbEntity
  8
TEXT
100
AcDbCircle
 10
2.49950463827305
 20
0.3222291279419176
 30
0.0
 40
0.0314112657011332
100
AcDbArc
 50
95.88484768694724
 51
173.2388340632136
  0
LINE
  5
981
330
18
100
AcDbEntity
  8
TEXT
100
AcDbLine
 10
2.468311821209941
 20
0.3259272053633078
 30
0.0
 11
2.468311821209941
 21
0.3534748552241824
 31
0.0
  0
TEXT
  5
982
330
18
100
AcDbEntity
  8
TEXT
100
AcDbText
 10
2.937187340631732
 20
0.1798876308811677
 30
0.0
 40
0.0522247191011236
  1
Minneapolis, MN 55432-0008
 41
1.11444212721585
 72
     5
 11
4.266119924901396
 21
0.1798876308811677
 31
0.0
100
AcDbText
  0
TEXT
  5
983
330
18
100
AcDbEntity
  8
TEXT
100
AcDbText
 10
2.937187340631732
 20
0.2731460578474598
 30
0.0
 40
0.0522247191011236
  1
6536 Main St. N.E. * P.O. Box 32008
 41
0.8388932496075355
 72
     5
 11
4.266119924901396
 21
0.2731460578474598
 31
0.0
100
AcDbText
  0
TEXT
  5
984
330
18
100
AcDbEntity
  8
TEXT
100
AcDbText
 10
2.937187340631732
 20
0.366404484813752
 30
0.0
 40
0.0522247191011236
  1
Stylmark  Incorporated
 41
1.221428571428571
 72
     5
 11
4.266119924901396
 21
0.366404484813752
 31
0.0
100
AcDbText
  0
TEXT
  5
985
330
18
100
AcDbEntity
  8
TEXT
100
AcDbText
 10
2.937187340631732
 20
0.0866292039148755
 30
0.0
 40
0.0522247191011236
  1
Phone  1-800-328-2495
 41
1.272321428571429
 72
     5
 11
4.266119924901396
 21
0.0866292039148755
 31
0.0
100
AcDbText
  0
LINE
  5
986
330
18
100
AcDbEntity
  8
TEXT
100
AcDbLine
 10
2.689631529168717
 20
0.2435816122832088
 30
0.0
 11
2.754188645134422
 21
0.3534748552241824
 31
0.0
  0
LINE
  5
987
330
18
100
AcDbEntity
  8
TEXT
100
AcDbLine
 10
2.754188645134422
 20
0.3534748552241824
 30
0.0
 11
2.679196812404796
 21
0.3534748552241824
 31
0.0
  0
LINE
  5
988
330
18
100
AcDbEntity
  8
TEXT
100
AcDbLine
 10
2.708545380156121
 20
0.0870018222356715
 30
0.0
 11
2.785123752532327
 21
0.0870018222356715
 31
0.0
  0
LINE
  5
989
330
18
100
AcDbEntity
  8
TEXT
100
AcDbLine
 10
2.785123752532327
 20
0.0870018222356715
 30
0.0
 11
2.689631529168717
 21
0.2435816122832088
 31
0.0
  0
LINE
  5
98A
330
18
100
AcDbEntity
  8
TEXT
100
AcDbLine
 10
2.632641846944657
 20
0.0870018222356715
 30
0.0
 11
2.632641846944657
 21
0.2185813907118517
 31
0.0
  0
LINE
  5
98B
330
18
100
AcDbEntity
  8
TEXT
100
AcDbLine
 10
2.632641846944657
 20
0.2185813907118517
 30
0.0
 11
2.708545380156121
 21
0.0870018222356715
 31
0.0
  0
LINE
  5
98C
330
18
100
AcDbEntity
  8
TEXT
100
AcDbLine
 10
2.568263662626031
 20
0.289198160567417
 30
0.0
 11
2.568263662626036
 21
0.0870018222356715
 31
0.0
  0
LINE
  5
98D
330
18
100
AcDbEntity
  8
TEXT
100
AcDbLine
 10
2.568263662626036
 20
0.0870018222356715
 30
0.0
 11
2.632641846944657
 21
0.0870018222356715
 31
0.0
  0
LINE
  5
98E
330
18
100
AcDbEntity
  8
TEXT
100
AcDbLine
 10
2.632098653848809
 20
0.4189390609917832
 30
0.0
 11
2.563783775299536
 21
0.4189390609917832
 31
0.0
  0
LINE
  5
98F
330
18
100
AcDbEntity
  8
TEXT
100
AcDbLine
 10
2.563783775299536
 20
0.4189390609917832
 30
0.0
 11
2.563783775299531
 21
0.3534748552241824
 31
0.0
  0
LINE
  5
990
330
18
100
AcDbEntity
  8
TEXT
100
AcDbLine
 10
2.679196812404794
 20
0.3534748552241824
 30
0.0
 11
2.632098653848809
 21
0.2776095288126443
 31
0.0
  0
LINE
  5
991
330
18
100
AcDbEntity
  8
TEXT
100
AcDbLine
 10
2.632098653848809
 20
0.2776095288126443
 30
0.0
 11
2.632098653848809
 21
0.4189390609917832
 31
0.0
  0
ENDSEC
  0
SECTION
  2
OBJECTS
  0
DICTIONARY
  5
C
330
0
100
AcDbDictionary
  3
ACAD_GROUP
350
D
  3
ACAD_LAYOUT
350
996
  3
ACAD_MLINESTYLE
350
E
  3
ACAD_PLOTSETTINGS
350
997
  3
ACAD_PLOTSTYLENAME
350
994
  3
ACDBHEADERROUNDTRIPXREC
350
9A1
  3
ACDBVARIABLEDICTIONARY
350
99E
  0
DICTIONARY
  5
9C3
330
18
100
AcDbDictionary
280
     1
  3
ACAD_LAYOUTSELFREF
360
9C4
  0
DICTIONARY
  5
9C1
330
15
100
AcDbDictionary
280
     1
  3
ACAD_LAYOUTSELFREF
360
9C2
  0
DICTIONARY
  5
D
102
{ACAD_REACTORS
330
C
102
}
330
C
100
AcDbDictionary
  3
*A1
350
33D
  3
*A2
350
6A9
  0
DICTIONARY
  5
996
102
{ACAD_REACTORS
330
C
102
}
330
C
100
AcDbDictionary
  0
DICTIONARY
  5
E
102
{ACAD_REACTORS
330
C
102
}
330
C
100
AcDbDictionary
  3
STANDARD
350
1B
  0
DICTIONARY
  5
997
102
{ACAD_REACTORS
330
C
102
}
330
C
100
AcDbDictionary
  0
ACDBDICTIONARYWDFLT
  5
994
102
{ACAD_REACTORS
330
C
102
}
330
C
100
AcDbDictionary
281
     1
  3
Normal
350
995
100
AcDbDictionaryWithDefault
340
995
  0
DICTIONARY
  5
9A1
102
{ACAD_REACTORS
330
C
102
}
330
C
100
AcDbDictionary
  3
CEPSNTYPE
350
9AB
  3
FINGERPRINTGUID
350
9AC
  3
HYPERLINKBASE
350
9A4
  3
INSUNITS
350
9AA
  3
LAYOUTDICT
350
9A6
  3
LWETCUNION
350
9A9
  3
PLOTSETDICT
350
9A7
  3
PLOTSTYLNAMDICT
350
9A8
  3
PSVPSCALE
350
9AE
  3
PUCSBASE
350
9B1
  3
PUCSORGBACK
350
9B7
  3
PUCSORGBOTTOM
350
9B3
  3
PUCSORGFRONT
350
9B6
  3
PUCSORGLEFT
350
9B4
  3
PUCSORGRIGHT
350
9B5
  3
PUCSORGTOP
350
9B2
  3
PUCSORTHOREF
350
9AF
  3
PUCSORTHOVIEW
350
9B0
  3
STYLESHEET
350
9A5
  3
TSTACKALIGN
350
9A2
  3
TSTACKSIZE
350
9A3
  3
UCSBASE
350
9BA
  3
UCSORGBACK
350
9C0
  3
UCSORGBOTTOM
350
9BC
  3
UCSORGFRONT
350
9BF
  3
UCSORGLEFT
350
9BD
  3
UCSORGRIGHT
350
9BE
  3
UCSORGTOP
350
9BB
  3
UCSORTHOREF
350
9B8
  3
UCSORTHOVIEW
350
9B9
  3
VERSIONGUID
350
9AD
  0
DICTIONARY
  5
99E
102
{ACAD_REACTORS
330
C
102
}
330
C
100
AcDbDictionary
  3
DIMASSOC
350
99F
  0
XRECORD
  5
9C4
102
{ACAD_REACTORS
330
9C3
102
}
330
9C3
100
AcDbXrecord
340
18
  0
XRECORD
  5
9C2
102
{ACAD_REACTORS
330
9C1
102
}
330
9C1
100
AcDbXrecord
340
15
  0
GROUP
  5
33D
102
{ACAD_REACTORS
330
D
102
}
330
D
100
AcDbGroup
300
BORDER FRAME 10-1-95
 70
     3
 71
     1
  0
GROUP
  5
6A9
102
{ACAD_REACTORS
330
D
102
}
330
D
100
AcDbGroup
300

 70
     1
 71
     1
  0
MLINESTYLE
  5
1B
102
{ACAD_REACTORS
330
E
102
}
330
E
100
AcDbMlineStyle
  2
STANDARD
 70
     0
  3

 62
     0
 51
90.0
 52
90.0
 71
     2
 49
0.5
 62
   256
  6
BYLAYER
 49
-0.5
 62
   256
  6
BYLAYER
  0
ACDBPLACEHOLDER
  5
995
102
{ACAD_REACTORS
330
994
102
}
330
994
100
AcDbPlaceHolder
280
     0
  0
XRECORD
  5
9AB
102
{ACAD_REACTORS
330
9A1
102
}
330
9A1
100
AcDbXrecord
 90
        0
  0
XRECORD
  5
9AC
102
{ACAD_REACTORS
330
9A1
102
}
330
9A1
100
AcDbXrecord
  1
{3A90BEA0-8DB5-11D6-88E6-0090279574E7}
  0
XRECORD
  5
9A4
102
{ACAD_REACTORS
330
9A1
102
}
330
9A1
100
AcDbXrecord
  1

  0
XRECORD
  5
9AA
102
{ACAD_REACTORS
330
9A1
102
}
330
9A1
100
AcDbXrecord
 90
        0
  0
XRECORD
  5
9A6
102
{ACAD_REACTORS
330
9A1
102
}
330
9A1
100
AcDbXrecord
340
996
  0
XRECORD
  5
9A9
102
{ACAD_REACTORS
330
9A1
102
}
330
9A1
100
AcDbXrecord
 90
    14877
  0
XRECORD
  5
9A7
102
{ACAD_REACTORS
330
9A1
102
}
330
9A1
100
AcDbXrecord
340
997
  0
XRECORD
  5
9A8
102
{ACAD_REACTORS
330
9A1
102
}
330
9A1
100
AcDbXrecord
340
994
  0
XRECORD
  5
9AE
102
{ACAD_REACTORS
330
9A1
102
}
330
9A1
100
AcDbXrecord
 40
0.0
  0
XRECORD
  5
9B1
102
{ACAD_REACTORS
330
9A1
102
}
330
9A1
100
AcDbXrecord
340
0
  0
XRECORD
  5
9B7
102
{ACAD_REACTORS
330
9A1
102
}
330
9A1
100
AcDbXrecord
 10
0.0
 20
0.0
 30
0.0
  0
XRECORD
  5
9B3
102
{ACAD_REACTORS
330
9A1
102
}
330
9A1
100
AcDbXrecord
 10
0.0
 20
0.0
 30
0.0
  0
XRECORD
  5
9B6
102
{ACAD_REACTORS
330
9A1
102
}
330
9A1
100
AcDbXrecord
 10
0.0
 20
0.0
 30
0.0
  0
XRECORD
  5
9B4
102
{ACAD_REACTORS
330
9A1
102
}
330
9A1
100
AcDbXrecord
 10
0.0
 20
0.0
 30
0.0
  0
XRECORD
  5
9B5
102
{ACAD_REACTORS
330
9A1
102
}
330
9A1
100
AcDbXrecord
 10
0.0
 20
0.0
 30
0.0
  0
XRECORD
  5
9B2
102
{ACAD_REACTORS
330
9A1
102
}
330
9A1
100
AcDbXrecord
 10
0.0
 20
0.0
 30
0.0
  0
XRECORD
  5
9AF
102
{ACAD_REACTORS
330
9A1
102
}
330
9A1
100
AcDbXrecord
340
0
  0
XRECORD
  5
9B0
102
{ACAD_REACTORS
330
9A1
102
}
330
9A1
100
AcDbXrecord
 70
     0
  0
XRECORD
  5
9A5
102
{ACAD_REACTORS
330
9A1
102
}
330
9A1
100
AcDbXrecord
  1

  0
XRECORD
  5
9A2
102
{ACAD_REACTORS
330
9A1
102
}
330
9A1
100
AcDbXrecord
 90
        1
  0
XRECORD
  5
9A3
102
{ACAD_REACTORS
330
9A1
102
}
330
9A1
100
AcDbXrecord
 90
       70
  0
XRECORD
  5
9BA
102
{ACAD_REACTORS
330
9A1
102
}
330
9A1
100
AcDbXrecord
340
0
  0
XRECORD
  5
9C0
102
{ACAD_REACTORS
330
9A1
102
}
330
9A1
100
AcDbXrecord
 10
0.0
 20
0.0
 30
0.0
  0
XRECORD
  5
9BC
102
{ACAD_REACTORS
330
9A1
102
}
330
9A1
100
AcDbXrecord
 10
0.0
 20
0.0
 30
0.0
  0
XRECORD
  5
9BF
102
{ACAD_REACTORS
330
9A1
102
}
330
9A1
100
AcDbXrecord
 10
0.0
 20
0.0
 30
0.0
  0
XRECORD
  5
9BD
102
{ACAD_REACTORS
330
9A1
102
}
330
9A1
100
AcDbXrecord
 10
0.0
 20
0.0
 30
0.0
  0
XRECORD
  5
9BE
102
{ACAD_REACTORS
330
9A1
102
}
330
9A1
100
AcDbXrecord
 10
0.0
 20
0.0
 30
0.0
  0
XRECORD
  5
9BB
102
{ACAD_REACTORS
330
9A1
102
}
330
9A1
100
AcDbXrecord
 10
0.0
 20
0.0
 30
0.0
  0
XRECORD
  5
9B8
102
{ACAD_REACTORS
330
9A1
102
}
330
9A1
100
AcDbXrecord
340
0
  0
XRECORD
  5
9B9
102
{ACAD_REACTORS
330
9A1
102
}
330
9A1
100
AcDbXrecord
 70
     0
  0
XRECORD
  5
9AD
102
{ACAD_REACTORS
330
9A1
102
}
330
9A1
100
AcDbXrecord
  1
{3A90BEA2-8DB5-11D6-88E6-0090279574E7}
  0
DICTIONARYVAR
  5
99F
102
{ACAD_REACTORS
330
99E
102
}
330
99E
100
DictionaryVariables
280
     0
  1
1
  0
ENDSEC
  0
EOF
