  0
SECTION
  2
HEADER
  9
$ACADVER
  1
AC1014
  9
$ACADMAINTVER
 70
     9
  9
$DWGCODEPAGE
  3
ANSI_1252
  9
$INSBASE
 10
0.0
 20
0.0
 30
0.0
  9
$EXTMIN
 10
-0.4595517171301438
 20
-0.301314951918126
 30
0.0
  9
$EXTMAX
 10
3.025667604616984
 20
0.8818391689111196
 30
0.0
  9
$LIMMIN
 10
0.0
 20
0.0
  9
$LIMMAX
 10
8.5
 20
11.0
  9
$ORTHOMODE
 70
     1
  9
$REGENMODE
 70
     1
  9
$FILLMODE
 70
     1
  9
$QTEXTMODE
 70
     0
  9
$MIRRTEXT
 70
     0
  9
$DRAGMODE
 70
     2
  9
$LTSCALE
 40
1.0
  9
$OSMODE
 70
    39
  9
$ATTMODE
 70
     1
  9
$TEXTSIZE
 40
0.125
  9
$TRACEWID
 40
0.05
  9
$TEXTSTYLE
  7
ROMANS
  9
$CLAYER
  8
DIM
  9
$CELTYPE
  6
BYLAYER
  9
$CECOLOR
 62
   256
  9
$CELTSCALE
 40
1.0
  9
$DELOBJ
 70
     1
  9
$DISPSILH
 70
     1
  9
$DIMSCALE
 40
1.0
  9
$DIMASZ
 40
0.125
  9
$DIMEXO
 40
0.125
  9
$DIMDLI
 40
0.375
  9
$DIMRND
 40
0.0
  9
$DIMDLE
 40
0.0
  9
$DIMEXE
 40
0.125
  9
$DIMTP
 40
0.017
  9
$DIMTM
 40
0.0
  9
$DIMTXT
 40
0.125
  9
$DIMCEN
 40
-0.125
  9
$DIMTSZ
 40
0.0
  9
$DIMTOL
 70
     0
  9
$DIMLIM
 70
     0
  9
$DIMTIH
 70
     1
  9
$DIMTOH
 70
     1
  9
$DIMSE1
 70
     0
  9
$DIMSE2
 70
     0
  9
$DIMTAD
 70
     0
  9
$DIMZIN
 70
     4
  9
$DIMBLK
  1

  9
$DIMASO
 70
     1
  9
$DIMSHO
 70
     1
  9
$DIMPOST
  1

  9
$DIMAPOST
  1

  9
$DIMALT
 70
     0
  9
$DIMALTD
 70
     2
  9
$DIMALTF
 40
25.4
  9
$DIMLFAC
 40
0.5
  9
$DIMTOFL
 70
     0
  9
$DIMTVP
 40
0.0
  9
$DIMTIX
 70
     1
  9
$DIMSOXD
 70
     0
  9
$DIMSAH
 70
     0
  9
$DIMBLK1
  1

  9
$DIMBLK2
  1

  9
$DIMSTYLE
  2
STANDARD
  9
$DIMCLRD
 70
     0
  9
$DIMCLRE
 70
     0
  9
$DIMCLRT
 70
     0
  9
$DIMTFAC
 40
1.0
  9
$DIMGAP
 40
0.09
  9
$DIMJUST
 70
     0
  9
$DIMSD1
 70
     0
  9
$DIMSD2
 70
     0
  9
$DIMTOLJ
 70
     1
  9
$DIMTZIN
 70
     0
  9
$DIMALTZ
 70
     0
  9
$DIMALTTZ
 70
     0
  9
$DIMFIT
 70
     3
  9
$DIMUPT
 70
     0
  9
$DIMUNIT
 70
     2
  9
$DIMDEC
 70
     3
  9
$DIMTDEC
 70
     4
  9
$DIMALTU
 70
     2
  9
$DIMALTTD
 70
     2
  9
$DIMTXSTY
  7
ROMANS
  9
$DIMAUNIT
 70
     0
  9
$LUNITS
 70
     2
  9
$LUPREC
 70
     4
  9
$SKETCHINC
 40
0.1
  9
$FILLETRAD
 40
0.0
  9
$AUNITS
 70
     0
  9
$AUPREC
 70
     1
  9
$MENU
  1
AUTOMSTR
  9
$ELEVATION
 40
0.0
  9
$PELEVATION
 40
0.0
  9
$THICKNESS
 40
0.0
  9
$LIMCHECK
 70
     0
  9
$BLIPMODE
 70
     0
  9
$CHAMFERA
 40
0.0
  9
$CHAMFERB
 40
0.0
  9
$CHAMFERC
 40
0.0
  9
$CHAMFERD
 40
0.0
  9
$SKPOLY
 70
     0
  9
$TDCREATE
 40
2448496.590121644
  9
$TDUPDATE
 40
2452458.301527291
  9
$TDINDWG
 40
0.0034258912
  9
$TDUSRTIMER
 40
0.0034258912
  9
$USRTIMER
 70
     1
  9
$ANGBASE
 50
0.0
  9
$ANGDIR
 70
     0
  9
$PDMODE
 70
     0
  9
$PDSIZE
 40
0.0
  9
$PLINEWID
 40
0.0
  9
$COORDS
 70
     2
  9
$SPLFRAME
 70
     0
  9
$SPLINETYPE
 70
     6
  9
$SPLINESEGS
 70
     8
  9
$ATTDIA
 70
     0
  9
$ATTREQ
 70
     1
  9
$HANDLING
 70
 22529
  9
$HANDSEED
  5
3C9
  9
$SURFTAB1
 70
     6
  9
$SURFTAB2
 70
     6
  9
$SURFTYPE
 70
     6
  9
$SURFU
 70
     6
  9
$SURFV
 70
     6
  9
$UCSNAME
  2

  9
$UCSORG
 10
0.0
 20
0.0
 30
0.0
  9
$UCSXDIR
 10
1.0
 20
0.0
 30
0.0
  9
$UCSYDIR
 10
0.0
 20
1.0
 30
0.0
  9
$PUCSNAME
  2

  9
$PUCSORG
 10
0.0
 20
0.0
 30
0.0
  9
$PUCSXDIR
 10
1.0
 20
0.0
 30
0.0
  9
$PUCSYDIR
 10
0.0
 20
1.0
 30
0.0
  9
$USERI1
 70
     0
  9
$USERI2
 70
     0
  9
$USERI3
 70
     0
  9
$USERI4
 70
     0
  9
$USERI5
 70
     0
  9
$USERR1
 40
0.0
  9
$USERR2
 40
0.0
  9
$USERR3
 40
0.0
  9
$USERR4
 40
0.0
  9
$USERR5
 40
0.0
  9
$WORLDVIEW
 70
     1
  9
$SHADEDGE
 70
     3
  9
$SHADEDIF
 70
    70
  9
$TILEMODE
 70
     1
  9
$MAXACTVP
 70
    16
  9
$PINSBASE
 10
0.0
 20
0.0
 30
0.0
  9
$PLIMCHECK
 70
     0
  9
$PEXTMIN
 10
1.000000000000000E+20
 20
1.000000000000000E+20
 30
1.000000000000000E+20
  9
$PEXTMAX
 10
-1.000000000000000E+20
 20
-1.000000000000000E+20
 30
-1.000000000000000E+20
  9
$PLIMMIN
 10
0.0
 20
0.0
  9
$PLIMMAX
 10
12.0
 20
9.0
  9
$UNITMODE
 70
     0
  9
$VISRETAIN
 70
     0
  9
$PLINEGEN
 70
     1
  9
$PSLTSCALE
 70
     0
  9
$TREEDEPTH
 70
  3020
  9
$PICKSTYLE
 70
     1
  9
$CMLSTYLE
  2
STANDARD
  9
$CMLJUST
 70
     0
  9
$CMLSCALE
 40
1.0
  9
$PROXYGRAPHICS
 70
     1
  9
$MEASUREMENT
 70
     0
  0
ENDSEC
  0
SECTION
  2
CLASSES
  0
CLASS
  1
LWPOLYLINE
  2
AcDbPolyline
  3
AutoCAD 2000
 90
        0
280
     0
281
     1
  0
CLASS
  1
ACDBDICTIONARYWDFLT
  2
AcDbDictionaryWithDefault
  3
AutoCAD 2000
 90
        0
280
     0
281
     0
  0
CLASS
  1
ACDBPLACEHOLDER
  2
AcDbPlaceHolder
  3
AutoCAD 2000
 90
        0
280
     0
281
     0
  0
CLASS
  1
LAYOUT
  2
AcDbLayout
  3
AutoCAD 2000
 90
        0
280
     0
281
     0
  0
CLASS
  1
DICTIONARYVAR
  2
AcDbDictionaryVar
  3
AutoCAD 2000
 90
        0
280
     0
281
     0
  0
CLASS
  1
LONG_TRANSACTION
  2
AcDbLongTransaction
  3
AutoCAD 2000
 90
        0
280
     0
281
     0
  0
CLASS
  1
LWPOLYLINE
  2
AcDbPolyline
  3
AutoCAD 2000
 90
        0
280
     0
281
     1
  0
CLASS
  1
HATCH
  2
AcDbHatch
  3
AutoCAD 2000
 90
        0
280
     0
281
     1
  0
CLASS
  1
XRECORD
  2
AcDbXrecord
  3
AutoCAD 2000
 90
        0
280
     0
281
     0
  0
ENDSEC
  0
SECTION
  2
TABLES
  0
TABLE
  2
VPORT
  5
8
330
0
100
AcDbSymbolTable
 70
     2
  0
VPORT
  5
3A4
330
8
100
AcDbSymbolTableRecord
100
AcDbViewportTableRecord
  2
*ACTIVE
 70
     0
 10
0.0
 20
0.0
 11
1.0
 21
1.0
 12
5.005091622543366
 22
0.3874876717367206
 13
0.0
 23
0.0
 14
0.015625
 24
0.015625
 15
0.0
 25
0.0
 16
0.0
 26
0.0
 36
1.0
 17
0.0
 27
0.0
 37
0.0
 40
2.829981959004648
 41
4.320930232558139
 42
50.0
 43
0.0
 44
0.0
 50
0.0
 51
0.0
 71
     0
 72
  2000
 73
     1
 74
     1
 75
     0
 76
     0
 77
     0
 78
     0
  0
ENDTAB
  0
TABLE
  2
LTYPE
  5
5
330
0
100
AcDbSymbolTable
 70
     1
  0
LTYPE
  5
12
330
5
100
AcDbSymbolTableRecord
100
AcDbLinetypeTableRecord
  2
BYBLOCK
 70
     0
  3

 72
    65
 73
     0
 40
0.0
  0
LTYPE
  5
13
330
5
100
AcDbSymbolTableRecord
100
AcDbLinetypeTableRecord
  2
BYLAYER
 70
     0
  3

 72
    65
 73
     0
 40
0.0
  0
LTYPE
  5
14
330
5
100
AcDbSymbolTableRecord
100
AcDbLinetypeTableRecord
  2
CONTINUOUS
 70
     0
  3
Solid line
 72
    65
 73
     0
 40
0.0
  0
ENDTAB
  0
TABLE
  2
LAYER
  5
2
330
0
100
AcDbSymbolTable
 70
     3
  0
LAYER
  5
F
330
2
100
AcDbSymbolTableRecord
100
AcDbLayerTableRecord
  2
0
 70
     0
 62
     7
  6
CONTINUOUS
  0
LAYER
  5
2A
330
2
100
AcDbSymbolTableRecord
100
AcDbLayerTableRecord
  2
DIM
 70
     0
 62
     4
  6
CONTINUOUS
  0
LAYER
  5
2B
330
2
100
AcDbSymbolTableRecord
100
AcDbLayerTableRecord
  2
TEXT
 70
     0
 62
     3
  6
CONTINUOUS
  0
ENDTAB
  0
TABLE
  2
STYLE
  5
3
330
0
100
AcDbSymbolTable
 70
     3
  0
STYLE
  5
10
330
3
100
AcDbSymbolTableRecord
100
AcDbTextStyleTableRecord
  2
STANDARD
 70
     0
 40
0.0
 41
1.0
 50
0.0
 71
     0
 42
0.125
  3
txt
  4

  0
STYLE
  5
290
330
3
100
AcDbSymbolTableRecord
100
AcDbTextStyleTableRecord
  2
ITALICC
 70
     0
 40
0.0
 41
1.0
 50
0.0
 71
     0
 42
0.125
  3
italicc
  4

  0
STYLE
  5
3A0
330
3
100
AcDbSymbolTableRecord
100
AcDbTextStyleTableRecord
  2
ROMANS
 70
     0
 40
0.0
 41
1.0
 50
0.0
 71
     0
 42
0.125
  3
romans.shx
  4

  0
ENDTAB
  0
TABLE
  2
VIEW
  5
6
330
0
100
AcDbSymbolTable
 70
     0
  0
ENDTAB
  0
TABLE
  2
UCS
  5
7
330
0
100
AcDbSymbolTable
 70
     0
  0
ENDTAB
  0
TABLE
  2
APPID
  5
9
330
0
100
AcDbSymbolTable
 70
     1
  0
APPID
  5
11
330
9
100
AcDbSymbolTableRecord
100
AcDbRegAppTableRecord
  2
ACAD
 70
     0
  0
ENDTAB
  0
TABLE
  2
DIMSTYLE
  5
A
330
0
100
AcDbSymbolTable
 70
     1
  0
DIMSTYLE
105
283
330
A
100
AcDbSymbolTableRecord
100
AcDbDimStyleTableRecord
  2
STANDARD
 70
     0
  3

  4

  5

  6

  7

 40
1.0
 41
0.18
 42
0.0625
 43
0.38
 44
0.18
 45
0.0
 46
0.0
 47
0.0
 48
0.0
140
0.18
141
0.09
142
0.0
143
25.4
144
1.0
145
0.0
146
1.0
147
0.09
 71
     0
 72
     0
 73
     1
 74
     1
 75
     0
 76
     0
 77
     0
 78
     0
170
     0
171
     2
172
     0
173
     0
174
     0
175
     0
176
     0
177
     0
178
     0
270
     2
271
     4
272
     4
273
     2
274
     2
340
10
275
     0
280
     0
281
     0
282
     0
283
     1
284
     0
285
     0
286
     0
287
     3
288
     0
  0
ENDTAB
  0
TABLE
  2
BLOCK_RECORD
  5
1
330
0
100
AcDbSymbolTable
 70
     0
  0
BLOCK_RECORD
  5
18
102
{ACAD_XDICTIONARY
360
3C7
102
}
330
1
100
AcDbSymbolTableRecord
100
AcDbBlockTableRecord
  2
*MODEL_SPACE
  0
BLOCK_RECORD
  5
15
102
{ACAD_XDICTIONARY
360
3C5
102
}
330
1
100
AcDbSymbolTableRecord
100
AcDbBlockTableRecord
  2
*PAPER_SPACE
  0
ENDTAB
  0
ENDSEC
  0
SECTION
  2
BLOCKS
  0
BLOCK
  5
34
330
18
100
AcDbEntity
  8
0
100
AcDbBlockBegin
  2
*MODEL_SPACE
 70
     0
 10
0.0
 20
0.0
 30
0.0
  3
*MODEL_SPACE
  1

  0
ENDBLK
  5
35
330
18
100
AcDbEntity
  8
0
100
AcDbBlockEnd
  0
BLOCK
  5
32
330
15
100
AcDbEntity
 67
     1
  8
0
100
AcDbBlockBegin
  2
*PAPER_SPACE
 70
     0
 10
0.0
 20
0.0
 30
0.0
  3
*PAPER_SPACE
  1

  0
ENDBLK
  5
33
330
15
100
AcDbEntity
 67
     1
  8
0
100
AcDbBlockEnd
  0
ENDSEC
  0
SECTION
  2
ENTITIES
  0
LWPOLYLINE
  5
240
330
18
100
AcDbEntity
  8
0
100
AcDbPolyline
 90
       29
 70
     1
 43
0.0
 10
1.932656119244065
 20
0.6843391689111195
 10
1.922656119244066
 20
0.6943391689111197
 10
1.348906119244065
 20
0.6943391689111193
 10
1.338906119244065
 20
0.6843391689111195
 10
1.328906119244066
 20
0.6943391689111195
 10
0.7551561192440657
 20
0.6943391689111193
 10
0.7451561192440659
 20
0.6843391689111195
 10
0.7351561192440661
 20
0.6943391689111193
 10
0.6514061192440659
 20
0.6943391689111193
 10
0.6201561192440659
 20
0.7255891689111197
 10
0.3870390579267027
 20
0.7255891689111197
 10
0.4289061192440653
 20
0.8818391689111196
 10
0.3581881515468215
 20
0.8818391689111196
 10
0.288906119244066
 20
0.7618391689111196
 10
0.3389061192440659
 20
0.7618391689111196
 10
0.3174701838495761
 20
0.6818391689111195
 10
0.2701561192440658
 20
0.6818391689111195
 42
1.0
 10
0.2701561192440658
 20
0.6318391689111197
 10
2.407656119244065
 20
0.6318391689111197
 42
1.0
 10
2.407656119244065
 20
0.6818391689111195
 10
2.360342054638555
 20
0.6818391689111195
 10
2.338906119244065
 20
0.7618391689111196
 10
2.388906119244065
 20
0.7618391689111196
 10
2.31962408694131
 20
0.8818391689111196
 10
2.248906119244066
 20
0.8818391689111196
 10
2.290773180561429
 20
0.7255891689111197
 10
2.057656119244065
 20
0.7255891689111197
 10
2.026406119244065
 20
0.6943391689111193
 10
1.942656119244065
 20
0.6943391689111193
  0
TEXT
  5
316
330
18
100
AcDbEntity
  8
TEXT
100
AcDbText
 10
0.5423584335255712
 20
0.1567036521644556
 30
0.0
 40
0.125
  1
PART #110221
  7
ITALICC
 72
     1
 11
1.283429862096999
 21
0.1567036521644556
 31
0.0
100
AcDbText
  0
LINE
  5
317
330
18
100
AcDbEntity
  8
TEXT
100
AcDbLine
 10
1.251163361049061
 20
-0.0876500338553781
 30
0.0
 11
1.327811342341619
 21
-0.0876500338553781
 31
0.0
  0
LINE
  5
318
330
18
100
AcDbEntity
  8
TEXT
100
AcDbLine
 10
1.323331455015119
 20
-0.0233733391986126
 30
0.0
 11
1.255831737365602
 21
-0.0233733391986126
 31
0.0
  0
LWPOLYLINE
  5
319
330
18
100
AcDbEntity
  8
TEXT
100
AcDbPolyline
 90
        5
 70
     0
 43
0.0001332181640625
 10
-0.3859486814856132
 20
-0.1466001409564255
 10
-0.3726268650793645
 20
-0.1466001409564255
 10
-0.3726268650793645
 20
-0.1099651458392357
 10
-0.3359918699621747
 20
-0.1099651458392357
 10
-0.3359918699621747
 20
-0.0966433294329887
  0
LWPOLYLINE
  5
31A
330
18
100
AcDbEntity
  8
TEXT
100
AcDbPolyline
 90
        3
 70
     0
 43
0.0006660908203125
 10
-0.3459832322668652
 20
-0.0500169720111101
 10
-0.4325750389074901
 20
-0.0500169720111101
 10
-0.4325750389074901
 20
-0.1366087786517367
  0
LWPOLYLINE
  5
31B
330
18
100
AcDbEntity
  8
TEXT
100
AcDbPolyline
 90
        3
 70
     0
 43
0.0006660908203125
 10
-0.3459832322668652
 20
-0.0233733391986091
 10
-0.4592186717199876
 20
-0.0233733391986091
 10
-0.4592186717199876
 20
-0.1366087786517367
  0
LWPOLYLINE
  5
31C
330
18
100
AcDbEntity
  8
TEXT
100
AcDbPolyline
 90
        5
 70
     0
 43
0.0001332181640625
 10
-0.3359918699621747
 20
-0.2165396770892363
 10
-0.3359918699621747
 20
-0.2032178606829857
 10
-0.3726268650793627
 20
-0.2032178606829857
 10
-0.3726268650793627
 20
-0.1665828655657995
 10
-0.3859486814856132
 20
-0.1665828655657995
  0
LWPOLYLINE
  5
31D
330
18
100
AcDbEntity
  8
TEXT
100
AcDbPolyline
 90
        3
 70
     0
 43
0.0006660908203125
 10
-0.4325750389074901
 20
-0.1765742278704847
 10
-0.4325750389074901
 20
-0.2631660345111113
 10
-0.3459832322668652
 20
-0.2631660345111113
  0
LWPOLYLINE
  5
31E
330
18
100
AcDbEntity
  8
TEXT
100
AcDbPolyline
 90
        3
 70
     0
 43
0.0006660908203125
 10
-0.4592186717199876
 20
-0.1765742278704847
 10
-0.4592186717199876
 20
-0.2898096673236123
 10
-0.3459832322668652
 20
-0.2898096673236123
  0
LWPOLYLINE
  5
31F
330
18
100
AcDbEntity
  8
TEXT
100
AcDbPolyline
 90
        2
 70
     0
 43
0.0001332181640625
 10
-0.4325750389074901
 20
-0.1765742278704847
 10
-0.3726268650793627
 20
-0.1665828655657995
  0
LWPOLYLINE
  5
320
330
18
100
AcDbEntity
  8
TEXT
100
AcDbPolyline
 90
        2
 70
     0
 43
0.0001332181640625
 10
-0.3859486814856132
 20
-0.1665828655657995
 10
-0.4592186717199876
 20
-0.1765742278704847
  0
LWPOLYLINE
  5
321
330
18
100
AcDbEntity
  8
TEXT
100
AcDbPolyline
 90
        2
 70
     0
 43
0.0006660908203125
 10
-0.4325750389074901
 20
-0.1765742278704847
 10
-0.4592186717199876
 20
-0.1765742278704847
  0
LWPOLYLINE
  5
322
330
18
100
AcDbEntity
  8
TEXT
100
AcDbPolyline
 90
        2
 70
     0
 43
0.0001332181640625
 10
-0.4325750389074901
 20
-0.2631660345111113
 10
-0.3726268650793627
 20
-0.2032178606829857
  0
LWPOLYLINE
  5
323
330
18
100
AcDbEntity
  8
TEXT
100
AcDbPolyline
 90
        2
 70
     0
 43
0.0006660908203125
 10
-0.4325750389074901
 20
-0.1366087786517367
 10
-0.4592186717199876
 20
-0.1366087786517367
  0
LWPOLYLINE
  5
324
330
18
100
AcDbEntity
  8
TEXT
100
AcDbPolyline
 90
        2
 70
     0
 43
0.0001332181640625
 10
-0.4592186717199876
 20
-0.1366087786517367
 10
-0.3859486814856132
 20
-0.1466001409564255
  0
LWPOLYLINE
  5
325
330
18
100
AcDbEntity
  8
TEXT
100
AcDbPolyline
 90
        2
 70
     0
 43
0.0001332181640625
 10
-0.4325750389074901
 20
-0.1366087786517367
 10
-0.3726268650793645
 20
-0.1466001409564255
  0
LWPOLYLINE
  5
326
330
18
100
AcDbEntity
  8
TEXT
100
AcDbPolyline
 90
        2
 70
     0
 43
0.0001332181640625
 10
-0.4325750389074901
 20
-0.0500169720111101
 10
-0.3726268650793645
 20
-0.1099651458392357
  0
LWPOLYLINE
  5
327
330
18
100
AcDbEntity
  8
TEXT
100
AcDbPolyline
 90
        5
 70
     0
 43
0.0001332181640625
 10
-0.2660523338293639
 20
-0.1665828655657995
 10
-0.2793741502356126
 20
-0.1665828655657995
 10
-0.2793741502356126
 20
-0.2032178606829857
 10
-0.3160091453528024
 20
-0.2032178606829857
 10
-0.3160091453528024
 20
-0.2165396770892363
  0
LWPOLYLINE
  5
328
330
18
100
AcDbEntity
  8
TEXT
100
AcDbPolyline
 90
        2
 70
     0
 43
0.0001332181640625
 10
-0.2194259764074888
 20
-0.1765742278704847
 10
-0.2793741502356126
 20
-0.1665828655657995
  0
LWPOLYLINE
  5
329
330
18
100
AcDbEntity
  8
TEXT
100
AcDbPolyline
 90
        2
 70
     0
 43
0.0001332181640625
 10
-0.1927823435949878
 20
-0.1765742278704847
 10
-0.2660523338293639
 20
-0.1665828655657995
  0
LWPOLYLINE
  5
32A
330
18
100
AcDbEntity
  8
TEXT
100
AcDbPolyline
 90
        3
 70
     0
 43
0.0006660908203125
 10
-0.3060177830481137
 20
-0.2898096673236123
 10
-0.1927823435949878
 20
-0.2898096673236123
 10
-0.1927823435949878
 20
-0.1765742278704847
  0
LWPOLYLINE
  5
32B
330
18
100
AcDbEntity
  8
TEXT
100
AcDbPolyline
 90
        3
 70
     0
 43
0.0006660908203125
 10
-0.3060177830481137
 20
-0.2631660345111113
 10
-0.2194259764074888
 20
-0.2631660345111113
 10
-0.2194259764074888
 20
-0.1765742278704847
  0
LWPOLYLINE
  5
32C
330
18
100
AcDbEntity
  8
TEXT
100
AcDbPolyline
 90
        2
 70
     0
 43
0.0001332181640625
 10
-0.2194259764074888
 20
-0.2631660345111113
 10
-0.2793741502356126
 20
-0.2032178606829857
  0
LWPOLYLINE
  5
32D
330
18
100
AcDbEntity
  8
TEXT
100
AcDbPolyline
 90
        2
 70
     0
 43
0.0006660908203125
 10
-0.3060177830481137
 20
-0.2631660345111113
 10
-0.3060177830481137
 20
-0.2898096673236123
  0
LWPOLYLINE
  5
32E
330
18
100
AcDbEntity
  8
TEXT
100
AcDbPolyline
 90
        2
 70
     0
 43
0.0001332181640625
 10
-0.3160091453528024
 20
-0.2165396770892363
 10
-0.3060177830481137
 20
-0.2898096673236123
  0
LWPOLYLINE
  5
32F
330
18
100
AcDbEntity
  8
TEXT
100
AcDbPolyline
 90
        2
 70
     0
 43
0.0001332181640625
 10
-0.3060177830481137
 20
-0.2631660345111113
 10
-0.3160091453528024
 20
-0.2032178606829857
  0
LWPOLYLINE
  5
330
330
18
100
AcDbEntity
  8
TEXT
100
AcDbPolyline
 90
        2
 70
     0
 43
0.0001332181640625
 10
-0.3459832322668652
 20
-0.2898096673236123
 10
-0.3359918699621747
 20
-0.2165396770892363
  0
LWPOLYLINE
  5
331
330
18
100
AcDbEntity
  8
TEXT
100
AcDbPolyline
 90
        2
 70
     0
 43
0.0001332181640625
 10
-0.3459832322668652
 20
-0.2631660345111113
 10
-0.3359918699621747
 20
-0.2032178606829857
  0
LWPOLYLINE
  5
332
330
18
100
AcDbEntity
  8
TEXT
100
AcDbPolyline
 90
        2
 70
     0
 43
0.0006660908203125
 10
-0.3459832322668652
 20
-0.2631660345111113
 10
-0.3459832322668652
 20
-0.2898096673236123
  0
LWPOLYLINE
  5
333
330
18
100
AcDbEntity
  8
TEXT
100
AcDbPolyline
 90
        2
 70
     0
 43
0.0006660908203125
 10
-0.2194259764074888
 20
-0.1765742278704847
 10
-0.1927823435949878
 20
-0.1765742278704847
  0
LWPOLYLINE
  5
334
330
18
100
AcDbEntity
  8
TEXT
100
AcDbPolyline
 90
        2
 70
     0
 43
0.0001332181640625
 10
-0.2194259764074888
 20
-0.0500169720111101
 10
-0.2793741502356126
 20
-0.1099651458392357
  0
LWPOLYLINE
  5
335
330
18
100
AcDbEntity
  8
TEXT
100
AcDbPolyline
 90
        2
 70
     0
 43
0.0001332181640625
 10
-0.2194259764074888
 20
-0.1366087786517367
 10
-0.2793741502356126
 20
-0.1466001409564255
  0
LWPOLYLINE
  5
336
330
18
100
AcDbEntity
  8
TEXT
100
AcDbPolyline
 90
        2
 70
     0
 43
0.0001332181640625
 10
-0.2660523338293639
 20
-0.1466001409564255
 10
-0.1927823435949878
 20
-0.1366087786517367
  0
LWPOLYLINE
  5
337
330
18
100
AcDbEntity
  8
TEXT
100
AcDbPolyline
 90
        3
 70
     0
 43
0.0006660908203125
 10
-0.2194259764074888
 20
-0.1366087786517367
 10
-0.2194259764074888
 20
-0.0500169720111101
 10
-0.3060177830481137
 20
-0.0500169720111101
  0
LWPOLYLINE
  5
338
330
18
100
AcDbEntity
  8
TEXT
100
AcDbPolyline
 90
        3
 70
     0
 43
0.0006660908203125
 10
-0.1927823435949878
 20
-0.1366087786517367
 10
-0.1927823435949878
 20
-0.0233733391986091
 10
-0.3060177830481137
 20
-0.0233733391986091
  0
LWPOLYLINE
  5
339
330
18
100
AcDbEntity
  8
TEXT
100
AcDbPolyline
 90
        2
 70
     0
 43
0.0001332181640625
 10
-0.3060177830481137
 20
-0.0233733391986091
 10
-0.3160091453528024
 20
-0.0966433294329887
  0
LWPOLYLINE
  5
33A
330
18
100
AcDbEntity
  8
TEXT
100
AcDbPolyline
 90
        2
 70
     0
 43
0.0001332181640625
 10
-0.3060177830481137
 20
-0.0500169720111101
 10
-0.3160091453528024
 20
-0.1099651458392357
  0
LWPOLYLINE
  5
33B
330
18
100
AcDbEntity
  8
TEXT
100
AcDbPolyline
 90
        2
 70
     0
 43
0.0006660908203125
 10
-0.3060177830481137
 20
-0.0500169720111101
 10
-0.3060177830481137
 20
-0.0233733391986091
  0
LWPOLYLINE
  5
33C
330
18
100
AcDbEntity
  8
TEXT
100
AcDbPolyline
 90
        5
 70
     0
 43
0.0001332181640625
 10
-0.3160091453528024
 20
-0.0966433294329887
 10
-0.3160091453528024
 20
-0.1099651458392357
 10
-0.2793741502356126
 20
-0.1099651458392357
 10
-0.2793741502356126
 20
-0.1466001409564255
 10
-0.2660523338293639
 20
-0.1466001409564255
  0
LWPOLYLINE
  5
33D
330
18
100
AcDbEntity
  8
TEXT
100
AcDbPolyline
 90
        2
 70
     0
 43
0.0001332181640625
 10
-0.3459832322668652
 20
-0.0500169720111101
 10
-0.3359918699621747
 20
-0.1099651458392357
  0
LWPOLYLINE
  5
33E
330
18
100
AcDbEntity
  8
TEXT
100
AcDbPolyline
 90
        2
 70
     0
 43
0.0001332181640625
 10
-0.3359918699621747
 20
-0.0966433294329887
 10
-0.3459832322668652
 20
-0.0233733391986091
  0
LWPOLYLINE
  5
33F
330
18
100
AcDbEntity
  8
TEXT
100
AcDbPolyline
 90
        2
 70
     0
 43
0.0006660908203125
 10
-0.3459832322668652
 20
-0.0500169720111101
 10
-0.3459832322668652
 20
-0.0233733391986091
  0
LWPOLYLINE
  5
340
330
18
100
AcDbEntity
  8
TEXT
100
AcDbPolyline
 90
        2
 70
     0
 43
0.0006660908203125
 10
-0.2194259764074888
 20
-0.1366087786517367
 10
-0.1927823435949878
 20
-0.1366087786517367
  0
LWPOLYLINE
  5
341
330
18
100
AcDbEntity
  8
TEXT
100
AcDbPolyline
 90
        2
 70
     0
 43
0.0
 10
0.5259975771536425
 20
-0.2382950299721953
 42
0.3318488747599744
 10
0.5951168697189555
 20
-0.2898463721871236
 42
-6.868794160588311
  0
LINE
  5
342
330
18
100
AcDbEntity
  8
TEXT
100
AcDbLine
 10
0.5939772962227599
 20
0.0446381385401979
 30
0.0
 11
0.5271685836563949
 21
0.0446381385401979
 31
0.0
  0
LINE
  5
343
330
18
100
AcDbEntity
  8
TEXT
100
AcDbLine
 10
0.2478262160373008
 20
-0.0233733391986126
 30
0.0
 11
0.0720944631387894
 21
-0.0233733391986126
 31
0.0
  0
ARC
  5
344
330
18
100
AcDbEntity
  8
TEXT
100
AcDbCircle
 10
0.142931929497339
 20
-0.2066505638265665
 30
0.0
 40
0.0831958083605586
100
AcDbArc
 50
270.0
 51
90.0
  0
LINE
  5
345
330
18
100
AcDbEntity
  8
TEXT
100
AcDbLine
 10
0.0773317932530375
 20
-0.0876500338553781
 30
0.0
 11
0.2442374472820079
 21
-0.0876500338553781
 31
0.0
  0
LINE
  5
346
330
18
100
AcDbEntity
  8
TEXT
100
AcDbLine
 10
0.1478723034036182
 20
-0.2214893658536843
 30
0.0
 11
-0.0099929963077159
 21
-0.2214893658536843
 31
0.0
  0
LINE
  5
347
330
18
100
AcDbEntity
  8
TEXT
100
AcDbLine
 10
-0.0099929963077141
 20
-0.2898463721871236
 30
0.0
 11
0.1429319294973386
 21
-0.2898463721871236
 31
0.0
  0
ARC
  5
348
330
18
100
AcDbEntity
  8
TEXT
100
AcDbCircle
 10
0.0720944631387899
 20
-0.1054607986451144
 30
0.0
 40
0.0820874594465043
100
AcDbArc
 50
90.0
 51
270.0
  0
LINE
  5
349
330
18
100
AcDbEntity
  8
TEXT
100
AcDbLine
 10
-0.0099929963077159
 20
-0.2214893658536843
 30
0.0
 11
-0.0099929963077141
 21
-0.2898463721871236
 31
0.0
  0
LINE
  5
34A
330
18
100
AcDbEntity
  8
TEXT
100
AcDbLine
 10
0.0720944631387894
 20
-0.1875482580916197
 30
0.0
 11
0.1478723034036182
 21
-0.1875482580916197
 31
0.0
  0
ARC
  5
34B
330
18
100
AcDbEntity
  8
TEXT
100
AcDbCircle
 10
0.1478723034036187
 20
-0.2045188119726502
 30
0.0
 40
0.0169705538810321
100
AcDbArc
 50
270.0
 51
90.0
  0
LINE
  5
34C
330
18
100
AcDbEntity
  8
TEXT
100
AcDbLine
 10
0.1429319294973386
 20
-0.1234547554660059
 30
0.0
 11
0.0773317932530375
 21
-0.1234547554660059
 31
0.0
  0
ARC
  5
34D
330
18
100
AcDbEntity
  8
TEXT
100
AcDbCircle
 10
0.077331793253038
 20
-0.1055523946606902
 30
0.0
 40
0.017902360805315
100
AcDbArc
 50
90.0
 51
270.0
  0
LINE
  5
34E
330
18
100
AcDbEntity
  8
TEXT
100
AcDbLine
 10
0.4382981080571531
 20
-0.1242453353117332
 30
0.0
 11
0.3796677870252152
 21
-0.0233733391986126
 31
0.0
  0
LINE
  5
34F
330
18
100
AcDbEntity
  8
TEXT
100
AcDbLine
 10
0.2981240547621136
 20
-0.2898463721871236
 30
0.0
 11
0.394764305837108
 21
-0.2895757330888413
 31
0.0
  0
LWPOLYLINE
  5
350
330
18
100
AcDbEntity
  8
TEXT
100
AcDbPolyline
 90
        6
 70
     1
 43
0.0
 10
0.3406478583372636
 20
-0.0876500338553781
 10
0.3103312641170555
 20
-0.0876500338553781
 10
0.3103312641170555
 20
-0.2107610319102724
 42
0.407328721240804
 10
0.3218749152785318
 20
-0.2225799465866585
 10
0.3824966143232627
 20
-0.2225799465866585
 10
0.3999619547305806
 20
-0.1897677175431793
  0
LINE
  5
351
330
18
100
AcDbEntity
  8
TEXT
100
AcDbLine
 10
0.2442374472820079
 20
-0.0876500338553781
 30
0.0
 11
0.2442374472820079
 21
-0.2300539808490738
 31
0.0
  0
ARC
  5
352
330
18
100
AcDbEntity
  8
TEXT
100
AcDbCircle
 10
0.3043534652557605
 20
-0.2300539808490738
 30
0.0
 40
0.0601160179737537
100
AcDbArc
 50
180.0000000000003
 51
264.0521544866073
  0
LINE
  5
353
330
18
100
AcDbEntity
  8
TEXT
100
AcDbLine
 10
0.3078688208813078
 20
0.0110145783955256
 30
0.0
 11
0.2478262160373008
 21
0.0110145783955256
 31
0.0
  0
LINE
  5
354
330
18
100
AcDbEntity
  8
TEXT
100
AcDbLine
 10
0.2478262160373008
 20
0.0110145783955256
 30
0.0
 11
0.2478262160373008
 21
-0.0233733391986126
 31
0.0
  0
LINE
  5
355
330
18
100
AcDbEntity
  8
TEXT
100
AcDbLine
 10
0.3078688208813078
 20
-0.0233733391986126
 30
0.0
 11
0.3078688208813078
 21
0.0110145783955256
 31
0.0
  0
LINE
  5
356
330
18
100
AcDbEntity
  8
TEXT
100
AcDbLine
 10
0.3796677870252152
 20
-0.0233733391986126
 30
0.0
 11
0.3078688208813078
 21
-0.0233733391986126
 31
0.0
  0
LINE
  5
357
330
18
100
AcDbEntity
  8
TEXT
100
AcDbLine
 10
0.4286978710601988
 20
-0.2698878660821107
 30
0.0
 11
0.5259975771536434
 21
-0.1055376551468425
 31
0.0
  0
LINE
  5
358
330
18
100
AcDbEntity
  8
TEXT
100
AcDbLine
 10
0.5259975771536434
 20
-0.1055376551468425
 30
0.0
 11
0.5259975771536434
 21
-0.2382950299721989
 31
0.0
  0
ARC
  5
359
330
18
100
AcDbEntity
  8
TEXT
100
AcDbCircle
 10
0.3946543111479852
 20
-0.2502986499134279
 30
0.0
 40
0.0392772371940762
100
AcDbArc
 50
270.1604552698595
 51
330.0831797321295
  0
LINE
  5
35A
330
18
100
AcDbEntity
  8
TEXT
100
AcDbLine
 10
0.4970466708630186
 20
-0.0233733391986126
 30
0.0
 11
0.4382981080571531
 21
-0.1242453353117332
 31
0.0
  0
LINE
  5
35B
330
18
100
AcDbEntity
  8
TEXT
100
AcDbLine
 10
0.5271685836563949
 20
0.0446381385401979
 30
0.0
 11
0.5271685836563949
 21
-0.0233733391986126
 31
0.0
  0
LINE
  5
35C
330
18
100
AcDbEntity
  8
TEXT
100
AcDbLine
 10
0.5271685836563949
 20
-0.0233733391986126
 30
0.0
 11
0.4970466708630186
 21
-0.0233733391986126
 31
0.0
  0
LWPOLYLINE
  5
35D
330
18
100
AcDbEntity
  8
TEXT
100
AcDbPolyline
 90
        4
 70
     0
 43
0.0
 10
0.8792547052765531
 20
-0.095203823021488
 10
0.8792547052765531
 20
-0.2898463721871236
 10
0.947732988564411
 20
-0.2898463721871236
 10
0.947732988564411
 20
-0.2463554272366855
 42
-1.714843617202739
  0
LWPOLYLINE
  5
35E
330
18
100
AcDbEntity
  8
TEXT
100
AcDbPolyline
 90
        2
 70
     0
 43
0.0
 10
0.914389055820763
 20
-0.0233733391986091
 42
-0.3277054968067132
 10
0.9501707465339279
 20
-0.051695884968253
 42
6.667889725900311
  0
LWPOLYLINE
  5
35F
330
18
100
AcDbEntity
  8
TEXT
100
AcDbPolyline
 90
        2
 70
     0
 43
0.0
 10
0.742955483241536
 20
-0.0876500338553781
 42
-0.4142135623731017
 10
0.7505092724076495
 20
-0.095203823021488
 42
-0.9999999999999998
  0
LINE
  5
360
330
18
100
AcDbEntity
  8
TEXT
100
AcDbLine
 10
0.7603072062915564
 20
-0.0233733391986126
 30
0.0
 11
0.62628915036042
 21
-0.0233733391986126
 31
0.0
  0
LINE
  5
361
330
18
100
AcDbEntity
  8
TEXT
100
AcDbLine
 10
0.6931202034183892
 20
-0.2898463721871236
 30
0.0
 11
0.6931202034183892
 21
-0.0876500338553781
 31
0.0
  0
LINE
  5
362
330
18
100
AcDbEntity
  8
TEXT
100
AcDbLine
 10
0.62628915036042
 20
-0.0233733391986126
 30
0.0
 11
0.62628915036042
 21
-0.2242375459310208
 31
0.0
  0
LINE
  5
363
330
18
100
AcDbEntity
  8
TEXT
100
AcDbLine
 10
0.5939772962227599
 20
-0.2074585340841244
 30
0.0
 11
0.5939772962227599
 21
0.0446381385401979
 31
0.0
  0
LINE
  5
364
330
18
100
AcDbEntity
  8
TEXT
100
AcDbLine
 10
0.5951168697189546
 20
-0.2898463721871236
 30
0.0
 11
0.6931202034183892
 21
-0.2898463721871236
 31
0.0
  0
LINE
  5
365
330
18
100
AcDbEntity
  8
TEXT
100
AcDbLine
 10
0.62628915036042
 20
-0.2242375459310208
 30
0.0
 11
0.6092955134758187
 21
-0.2242375459310208
 31
0.0
  0
ARC
  5
366
330
18
100
AcDbEntity
  8
TEXT
100
AcDbCircle
 10
0.6092955134758178
 20
-0.2088557396875954
 30
0.0
 40
0.0153818062434269
100
AcDbArc
 50
174.7883570302258
 51
270.0
  0
LINE
  5
367
330
18
100
AcDbEntity
  8
TEXT
100
AcDbLine
 10
0.6931202034183892
 20
-0.0876500338553781
 30
0.0
 11
0.7429554832415369
 21
-0.0876500338553781
 31
0.0
  0
LINE
  5
368
330
18
100
AcDbEntity
  8
TEXT
100
AcDbLine
 10
0.7505092724076503
 20
-0.095203823021488
 30
0.0
 11
0.7505092724076503
 21
-0.2898463721871236
 31
0.0
  0
LINE
  5
369
330
18
100
AcDbEntity
  8
TEXT
100
AcDbLine
 10
0.8175673191894903
 20
-0.2898463721871236
 30
0.0
 11
0.8175673191894903
 21
-0.0876500338553781
 31
0.0
  0
LINE
  5
36A
330
18
100
AcDbEntity
  8
TEXT
100
AcDbLine
 10
0.7505092724076503
 20
-0.2898463721871236
 30
0.0
 11
0.8175673191894903
 21
-0.2898463721871236
 31
0.0
  0
LWPOLYLINE
  5
36B
330
18
100
AcDbEntity
  8
TEXT
100
AcDbPolyline
 90
        3
 70
     0
 43
0.0
 10
0.914389055820763
 20
-0.0233733391986091
 10
0.7960888970047187
 20
-0.0233733391986091
 10
0.7960888970047187
 20
-0.050540835959505
 42
-1.960274751411753
  0
LINE
  5
36C
330
18
100
AcDbEntity
  8
TEXT
100
AcDbLine
 10
0.8175673191894903
 20
-0.0876500338553781
 30
0.0
 11
0.8717009161104405
 21
-0.0876500338553781
 31
0.0
  0
LWPOLYLINE
  5
36D
330
18
100
AcDbEntity
  8
TEXT
100
AcDbPolyline
 90
        2
 70
     0
 43
0.0
 10
0.7603072062915573
 20
-0.0233733391986091
 42
-0.3328679258950098
 10
0.7960888970047187
 20
-0.050540835959505
 42
6.772930709997214
  0
LWPOLYLINE
  5
36E
330
18
100
AcDbEntity
  8
TEXT
100
AcDbPolyline
 90
        2
 70
     0
 43
0.0
 10
0.8717009161104396
 20
-0.0876500338553781
 42
-0.4142135623731017
 10
0.8792547052765531
 20
-0.095203823021488
 42
-0.9999999999999998
  0
ARC
  5
36F
330
18
100
AcDbEntity
  8
TEXT
100
AcDbCircle
 10
1.082975715973919
 20
-0.064956906319515
 30
0.0
 40
0.0416329381542859
100
AcDbArc
 50
26.56974201007528
 51
87.20939649401342
  0
LWPOLYLINE
  5
370
330
18
100
AcDbEntity
  8
TEXT
100
AcDbPolyline
 90
        2
 70
     0
 43
0.0
 10
0.9908089214320465
 20
-0.2898463721871236
 10
1.124826339063423
 20
-0.2898463721871236
 42
0.9999999999999998
  0
LWPOLYLINE
  5
371
330
18
100
AcDbEntity
  8
TEXT
100
AcDbPolyline
 90
        4
 70
     1
 43
0.0
 10
1.10470387399353
 20
-0.1868823942030984
 10
1.016043555333672
 20
-0.1868823942030984
 42
0.9999999999999998
 10
1.016043555333672
 20
-0.2292809347069591
 10
1.10470387399353
 20
-0.2292809347069591
 42
1.0
  0
LWPOLYLINE
  5
372
330
18
100
AcDbEntity
  8
TEXT
100
AcDbPolyline
 90
        2
 70
     0
 43
0.0
 10
0.947732988564411
 20
-0.2463554272366855
 42
0.2901071551932823
 10
0.9908089214320465
 20
-0.2898463721871236
 42
5.328517124445801
  0
LINE
  5
373
330
18
100
AcDbEntity
  8
TEXT
100
AcDbLine
 10
1.085002655750987
 20
-0.0233733391986126
 30
0.0
 11
0.9501707465339288
 21
-0.0233733391986126
 31
0.0
  0
LINE
  5
374
330
18
100
AcDbEntity
  8
TEXT
100
AcDbLine
 10
1.009484842927247
 20
-0.1249250073175103
 30
0.0
 11
1.09177283271063
 21
-0.1249250073175103
 31
0.0
  0
LINE
  5
375
330
18
100
AcDbEntity
  8
TEXT
100
AcDbLine
 10
1.055971757406509
 20
-0.0876500338553781
 30
0.0
 11
0.9487654840192201
 21
-0.0876500338553781
 31
0.0
  0
LINE
  5
376
330
18
100
AcDbEntity
  8
TEXT
100
AcDbLine
 10
0.9501707465339288
 20
-0.0233733391986126
 30
0.0
 11
0.9501707465339288
 21
-0.0516958849682565
 31
0.0
  0
ARC
  5
377
330
18
100
AcDbEntity
  8
TEXT
100
AcDbCircle
 10
1.009484842927246
 20
-0.1926105884616289
 30
0.0
 40
0.0676855811441166
100
AcDbArc
 50
90.0
 51
153.7768192527749
  0
LINE
  5
378
330
18
100
AcDbEntity
  8
TEXT
100
AcDbLine
 10
0.9487654840192201
 20
-0.0876500338553781
 30
0.0
 11
0.9487654840192201
 21
-0.1627024399295847
 31
0.0
  0
LINE
  5
379
330
18
100
AcDbEntity
  8
TEXT
100
AcDbLine
 10
1.09177283271063
 20
-0.1249250073175103
 30
0.0
 11
1.081508072297066
 21
-0.103674467744816
 31
0.0
  0
ARC
  5
37A
330
18
100
AcDbEntity
  8
TEXT
100
AcDbCircle
 10
1.055971757406508
 20
-0.1160094088553754
 30
0.0
 40
0.028359375
100
AcDbArc
 50
25.78218179591245
 51
90.0
  0
LINE
  5
37B
330
18
100
AcDbEntity
  8
TEXT
100
AcDbLine
 10
1.226257485766402
 20
-0.2898463721871236
 30
0.0
 11
1.226257485766397
 21
-0.1125558667556552
 31
0.0
  0
LWPOLYLINE
  5
37C
330
18
100
AcDbEntity
  8
TEXT
100
AcDbPolyline
 90
        2
 70
     0
 43
0.0
 10
1.167902271931067
 20
-0.2898463721871236
 10
1.226257485766401
 20
-0.2898463721871236
  0
LWPOLYLINE
  5
37D
330
18
100
AcDbEntity
  8
TEXT
100
AcDbPolyline
 90
        2
 70
     0
 43
0.0
 10
1.167902271931067
 20
-0.2463554272366855
 42
-0.2901071551932486
 10
1.124826339063423
 20
-0.2898463721871236
 42
-5.328517124445184
  0
LWPOLYLINE
  5
37E
330
18
100
AcDbEntity
  8
TEXT
100
AcDbPolyline
 90
        2
 70
     0
 43
0.0
 10
1.167902271931067
 20
-0.2463554272366855
 10
1.167902271931067
 20
-0.2898463721871236
  0
LINE
  5
37F
330
18
100
AcDbEntity
  8
TEXT
100
AcDbLine
 10
1.227859500925529
 20
-0.0233733391986126
 30
0.0
 11
1.163962594626029
 21
-0.0233733391986126
 31
0.0
  0
LINE
  5
380
330
18
100
AcDbEntity
  8
TEXT
100
AcDbLine
 10
1.163962594626029
 20
-0.0233733391986126
 30
0.0
 11
1.163962594626029
 21
-0.12858531775204
 31
0.0
  0
LINE
  5
381
330
18
100
AcDbEntity
  8
TEXT
100
AcDbLine
 10
1.163962594626029
 20
-0.12858531775204
 30
0.0
 11
1.120211823444127
 21
-0.0463350417558948
 31
0.0
  0
ARC
  5
382
330
18
100
AcDbEntity
  8
TEXT
100
AcDbCircle
 10
1.25116336104906
 20
-0.1125559091380408
 30
0.0
 40
0.0249058752826653
100
AcDbArc
 50
89.99971217465335
 51
179.9999999999985
  0
ARC
  5
383
330
18
100
AcDbEntity
  8
TEXT
100
AcDbCircle
 10
1.259052317988638
 20
-0.0546190664808775
 30
0.0
 40
0.0314112657011332
100
AcDbArc
 50
95.88484768694724
 51
173.2388340632136
  0
LINE
  5
384
330
18
100
AcDbEntity
  8
TEXT
100
AcDbLine
 10
1.227859500925529
 20
-0.0509209890594873
 30
0.0
 11
1.227859500925529
 21
-0.0233733391986126
 31
0.0
  0
TEXT
  5
385
330
18
100
AcDbEntity
  8
TEXT
100
AcDbText
 10
1.69673502034732
 20
-0.1969605635416274
 30
0.0
 40
0.0522247191011236
  1
Minneapolis, MN 55432-0008
 41
1.11444212721585
 72
     5
 11
3.025667604616984
 21
-0.1969605635416274
 31
0.0
100
AcDbText
  0
TEXT
  5
386
330
18
100
AcDbEntity
  8
TEXT
100
AcDbText
 10
1.69673502034732
 20
-0.1037021365753352
 30
0.0
 40
0.0522247191011236
  1
6536 Main St. N.E. * P.O. Box 32008
 41
0.8388932496075355
 72
     5
 11
3.025667604616984
 21
-0.1037021365753352
 31
0.0
100
AcDbText
  0
TEXT
  5
387
330
18
100
AcDbEntity
  8
TEXT
100
AcDbText
 10
1.69673502034732
 20
-0.0104437096090431
 30
0.0
 40
0.0522247191011236
  1
Stylmark  Incorporated
 41
1.221428571428571
 72
     5
 11
3.025667604616984
 21
-0.0104437096090431
 31
0.0
100
AcDbText
  0
TEXT
  5
388
330
18
100
AcDbEntity
  8
TEXT
100
AcDbText
 10
1.69673502034732
 20
-0.2902189905079195
 30
0.0
 40
0.0522247191011236
  1
Phone  1-800-328-2495
 41
1.272321428571429
 72
     5
 11
3.025667604616984
 21
-0.2902189905079195
 31
0.0
100
AcDbText
  0
LINE
  5
389
330
18
100
AcDbEntity
  8
TEXT
100
AcDbLine
 10
1.449179208884305
 20
-0.1332665821395862
 30
0.0
 11
1.51373632485001
 21
-0.0233733391986126
 31
0.0
  0
LINE
  5
38A
330
18
100
AcDbEntity
  8
TEXT
100
AcDbLine
 10
1.51373632485001
 20
-0.0233733391986126
 30
0.0
 11
1.438744492120384
 21
-0.0233733391986126
 31
0.0
  0
LINE
  5
38B
330
18
100
AcDbEntity
  8
TEXT
100
AcDbLine
 10
1.468093059871709
 20
-0.2898463721871236
 30
0.0
 11
1.544671432247915
 21
-0.2898463721871236
 31
0.0
  0
LINE
  5
38C
330
18
100
AcDbEntity
  8
TEXT
100
AcDbLine
 10
1.544671432247915
 20
-0.2898463721871236
 30
0.0
 11
1.449179208884305
 21
-0.1332665821395862
 31
0.0
  0
LINE
  5
38D
330
18
100
AcDbEntity
  8
TEXT
100
AcDbLine
 10
1.392189526660245
 20
-0.2898463721871236
 30
0.0
 11
1.392189526660245
 21
-0.1582668037109434
 31
0.0
  0
LINE
  5
38E
330
18
100
AcDbEntity
  8
TEXT
100
AcDbLine
 10
1.392189526660245
 20
-0.1582668037109434
 30
0.0
 11
1.468093059871709
 21
-0.2898463721871236
 31
0.0
  0
LINE
  5
38F
330
18
100
AcDbEntity
  8
TEXT
100
AcDbLine
 10
1.327811342341619
 20
-0.0876500338553781
 30
0.0
 11
1.327811342341624
 21
-0.2898463721871236
 31
0.0
  0
LINE
  5
390
330
18
100
AcDbEntity
  8
TEXT
100
AcDbLine
 10
1.327811342341624
 20
-0.2898463721871236
 30
0.0
 11
1.392189526660245
 21
-0.2898463721871236
 31
0.0
  0
LINE
  5
391
330
18
100
AcDbEntity
  8
TEXT
100
AcDbLine
 10
1.391646333564398
 20
0.0420908665689881
 30
0.0
 11
1.323331455015124
 21
0.0420908665689881
 31
0.0
  0
LINE
  5
392
330
18
100
AcDbEntity
  8
TEXT
100
AcDbLine
 10
1.323331455015124
 20
0.0420908665689881
 30
0.0
 11
1.323331455015119
 21
-0.0233733391986126
 31
0.0
  0
LINE
  5
393
330
18
100
AcDbEntity
  8
TEXT
100
AcDbLine
 10
1.438744492120382
 20
-0.0233733391986126
 30
0.0
 11
1.391646333564398
 21
-0.0992386656101507
 31
0.0
  0
LINE
  5
394
330
18
100
AcDbEntity
  8
TEXT
100
AcDbLine
 10
1.391646333564398
 20
-0.0992386656101507
 30
0.0
 11
1.391646333564398
 21
0.0420908665689881
 31
0.0
  0
ENDSEC
  0
SECTION
  2
OBJECTS
  0
DICTIONARY
  5
C
330
0
100
AcDbDictionary
  3
ACAD_GROUP
350
D
  3
ACAD_LAYOUT
350
399
  3
ACAD_MLINESTYLE
350
E
  3
ACAD_PLOTSETTINGS
350
39A
  3
ACAD_PLOTSTYLENAME
350
397
  3
ACDBHEADERROUNDTRIPXREC
350
3A5
  3
ACDBVARIABLEDICTIONARY
350
3A2
  0
DICTIONARY
  5
3C7
330
18
100
AcDbDictionary
280
     1
  3
ACAD_LAYOUTSELFREF
360
3C8
  0
DICTIONARY
  5
3C5
330
15
100
AcDbDictionary
280
     1
  3
ACAD_LAYOUTSELFREF
360
3C6
  0
DICTIONARY
  5
D
102
{ACAD_REACTORS
330
C
102
}
330
C
100
AcDbDictionary
  0
DICTIONARY
  5
399
102
{ACAD_REACTORS
330
C
102
}
330
C
100
AcDbDictionary
  0
DICTIONARY
  5
E
102
{ACAD_REACTORS
330
C
102
}
330
C
100
AcDbDictionary
  3
STANDARD
350
1B
  0
DICTIONARY
  5
39A
102
{ACAD_REACTORS
330
C
102
}
330
C
100
AcDbDictionary
  0
ACDBDICTIONARYWDFLT
  5
397
102
{ACAD_REACTORS
330
C
102
}
330
C
100
AcDbDictionary
281
     1
  3
Normal
350
398
100
AcDbDictionaryWithDefault
340
398
  0
DICTIONARY
  5
3A5
102
{ACAD_REACTORS
330
C
102
}
330
C
100
AcDbDictionary
  3
CEPSNTYPE
350
3AF
  3
FINGERPRINTGUID
350
3B0
  3
HYPERLINKBASE
350
3A8
  3
INSUNITS
350
3AE
  3
LAYOUTDICT
350
3AA
  3
LWETCUNION
350
3AD
  3
PLOTSETDICT
350
3AB
  3
PLOTSTYLNAMDICT
350
3AC
  3
PSVPSCALE
350
3B2
  3
PUCSBASE
350
3B5
  3
PUCSORGBACK
350
3BB
  3
PUCSORGBOTTOM
350
3B7
  3
PUCSORGFRONT
350
3BA
  3
PUCSORGLEFT
350
3B8
  3
PUCSORGRIGHT
350
3B9
  3
PUCSORGTOP
350
3B6
  3
PUCSORTHOREF
350
3B3
  3
PUCSORTHOVIEW
350
3B4
  3
STYLESHEET
350
3A9
  3
TSTACKALIGN
350
3A6
  3
TSTACKSIZE
350
3A7
  3
UCSBASE
350
3BE
  3
UCSORGBACK
350
3C4
  3
UCSORGBOTTOM
350
3C0
  3
UCSORGFRONT
350
3C3
  3
UCSORGLEFT
350
3C1
  3
UCSORGRIGHT
350
3C2
  3
UCSORGTOP
350
3BF
  3
UCSORTHOREF
350
3BC
  3
UCSORTHOVIEW
350
3BD
  3
VERSIONGUID
350
3B1
  0
DICTIONARY
  5
3A2
102
{ACAD_REACTORS
330
C
102
}
330
C
100
AcDbDictionary
  3
DIMASSOC
350
3A3
  0
XRECORD
  5
3C8
102
{ACAD_REACTORS
330
3C7
102
}
330
3C7
100
AcDbXrecord
340
18
  0
XRECORD
  5
3C6
102
{ACAD_REACTORS
330
3C5
102
}
330
3C5
100
AcDbXrecord
340
15
  0
MLINESTYLE
  5
1B
102
{ACAD_REACTORS
330
E
102
}
330
E
100
AcDbMlineStyle
  2
STANDARD
 70
     0
  3

 62
     0
 51
90.0
 52
90.0
 71
     2
 49
0.5
 62
   256
  6
BYLAYER
 49
-0.5
 62
   256
  6
BYLAYER
  0
ACDBPLACEHOLDER
  5
398
102
{ACAD_REACTORS
330
397
102
}
330
397
100
AcDbPlaceHolder
280
     0
  0
XRECORD
  5
3AF
102
{ACAD_REACTORS
330
3A5
102
}
330
3A5
100
AcDbXrecord
 90
        0
  0
XRECORD
  5
3B0
102
{ACAD_REACTORS
330
3A5
102
}
330
3A5
100
AcDbXrecord
  1
{3566F570-8DB5-11D6-88E6-0090279574E7}
  0
XRECORD
  5
3A8
102
{ACAD_REACTORS
330
3A5
102
}
330
3A5
100
AcDbXrecord
  1

  0
XRECORD
  5
3AE
102
{ACAD_REACTORS
330
3A5
102
}
330
3A5
100
AcDbXrecord
 90
        0
  0
XRECORD
  5
3AA
102
{ACAD_REACTORS
330
3A5
102
}
330
3A5
100
AcDbXrecord
340
399
  0
XRECORD
  5
3AD
102
{ACAD_REACTORS
330
3A5
102
}
330
3A5
100
AcDbXrecord
 90
    14877
  0
XRECORD
  5
3AB
102
{ACAD_REACTORS
330
3A5
102
}
330
3A5
100
AcDbXrecord
340
39A
  0
XRECORD
  5
3AC
102
{ACAD_REACTORS
330
3A5
102
}
330
3A5
100
AcDbXrecord
340
397
  0
XRECORD
  5
3B2
102
{ACAD_REACTORS
330
3A5
102
}
330
3A5
100
AcDbXrecord
 40
0.0
  0
XRECORD
  5
3B5
102
{ACAD_REACTORS
330
3A5
102
}
330
3A5
100
AcDbXrecord
340
0
  0
XRECORD
  5
3BB
102
{ACAD_REACTORS
330
3A5
102
}
330
3A5
100
AcDbXrecord
 10
0.0
 20
0.0
 30
0.0
  0
XRECORD
  5
3B7
102
{ACAD_REACTORS
330
3A5
102
}
330
3A5
100
AcDbXrecord
 10
0.0
 20
0.0
 30
0.0
  0
XRECORD
  5
3BA
102
{ACAD_REACTORS
330
3A5
102
}
330
3A5
100
AcDbXrecord
 10
0.0
 20
0.0
 30
0.0
  0
XRECORD
  5
3B8
102
{ACAD_REACTORS
330
3A5
102
}
330
3A5
100
AcDbXrecord
 10
0.0
 20
0.0
 30
0.0
  0
XRECORD
  5
3B9
102
{ACAD_REACTORS
330
3A5
102
}
330
3A5
100
AcDbXrecord
 10
0.0
 20
0.0
 30
0.0
  0
XRECORD
  5
3B6
102
{ACAD_REACTORS
330
3A5
102
}
330
3A5
100
AcDbXrecord
 10
0.0
 20
0.0
 30
0.0
  0
XRECORD
  5
3B3
102
{ACAD_REACTORS
330
3A5
102
}
330
3A5
100
AcDbXrecord
340
0
  0
XRECORD
  5
3B4
102
{ACAD_REACTORS
330
3A5
102
}
330
3A5
100
AcDbXrecord
 70
     0
  0
XRECORD
  5
3A9
102
{ACAD_REACTORS
330
3A5
102
}
330
3A5
100
AcDbXrecord
  1

  0
XRECORD
  5
3A6
102
{ACAD_REACTORS
330
3A5
102
}
330
3A5
100
AcDbXrecord
 90
        1
  0
XRECORD
  5
3A7
102
{ACAD_REACTORS
330
3A5
102
}
330
3A5
100
AcDbXrecord
 90
       70
  0
XRECORD
  5
3BE
102
{ACAD_REACTORS
330
3A5
102
}
330
3A5
100
AcDbXrecord
340
0
  0
XRECORD
  5
3C4
102
{ACAD_REACTORS
330
3A5
102
}
330
3A5
100
AcDbXrecord
 10
0.0
 20
0.0
 30
0.0
  0
XRECORD
  5
3C0
102
{ACAD_REACTORS
330
3A5
102
}
330
3A5
100
AcDbXrecord
 10
0.0
 20
0.0
 30
0.0
  0
XRECORD
  5
3C3
102
{ACAD_REACTORS
330
3A5
102
}
330
3A5
100
AcDbXrecord
 10
0.0
 20
0.0
 30
0.0
  0
XRECORD
  5
3C1
102
{ACAD_REACTORS
330
3A5
102
}
330
3A5
100
AcDbXrecord
 10
0.0
 20
0.0
 30
0.0
  0
XRECORD
  5
3C2
102
{ACAD_REACTORS
330
3A5
102
}
330
3A5
100
AcDbXrecord
 10
0.0
 20
0.0
 30
0.0
  0
XRECORD
  5
3BF
102
{ACAD_REACTORS
330
3A5
102
}
330
3A5
100
AcDbXrecord
 10
0.0
 20
0.0
 30
0.0
  0
XRECORD
  5
3BC
102
{ACAD_REACTORS
330
3A5
102
}
330
3A5
100
AcDbXrecord
340
0
  0
XRECORD
  5
3BD
102
{ACAD_REACTORS
330
3A5
102
}
330
3A5
100
AcDbXrecord
 70
     0
  0
XRECORD
  5
3B1
102
{ACAD_REACTORS
330
3A5
102
}
330
3A5
100
AcDbXrecord
  1
{3566F572-8DB5-11D6-88E6-0090279574E7}
  0
DICTIONARYVAR
  5
3A3
102
{ACAD_REACTORS
330
3A2
102
}
330
3A2
100
DictionaryVariables
280
     0
  1
1
  0
ENDSEC
  0
EOF
