  0
SECTION
  2
HEADER
  9
$ACADVER
  1
AC1014
  9
$ACADMAINTVER
 70
     9
  9
$DWGCODEPAGE
  3
ANSI_1252
  9
$INSBASE
 10
1.619241802798922
 20
1.620461303065686
 30
0.0
  9
$EXTMIN
 10
-0.1237397764282194
 20
0.2904244220189861
 30
0.0
  9
$EXTMAX
 10
3.361479545318908
 20
1.885461303065686
 30
0.0
  9
$LIMMIN
 10
0.0
 20
0.0
  9
$LIMMAX
 10
18.0
 20
12.0
  9
$ORTHOMODE
 70
     1
  9
$REGENMODE
 70
     1
  9
$FILLMODE
 70
     1
  9
$QTEXTMODE
 70
     0
  9
$MIRRTEXT
 70
     0
  9
$DRAGMODE
 70
     2
  9
$LTSCALE
 40
1.0
  9
$OSMODE
 70
    39
  9
$ATTMODE
 70
     1
  9
$TEXTSIZE
 40
0.125
  9
$TRACEWID
 40
0.05
  9
$TEXTSTYLE
  7
ROMANS
  9
$CLAYER
  8
0
  9
$CELTYPE
  6
BYLAYER
  9
$CECOLOR
 62
   256
  9
$CELTSCALE
 40
1.0
  9
$DELOBJ
 70
     1
  9
$DISPSILH
 70
     1
  9
$DIMSCALE
 40
1.0
  9
$DIMASZ
 40
0.125
  9
$DIMEXO
 40
0.125
  9
$DIMDLI
 40
0.375
  9
$DIMRND
 40
0.0
  9
$DIMDLE
 40
0.0
  9
$DIMEXE
 40
0.125
  9
$DIMTP
 40
0.0
  9
$DIMTM
 40
0.0
  9
$DIMTXT
 40
0.125
  9
$DIMCEN
 40
-0.125
  9
$DIMTSZ
 40
0.0
  9
$DIMTOL
 70
     0
  9
$DIMLIM
 70
     0
  9
$DIMTIH
 70
     1
  9
$DIMTOH
 70
     1
  9
$DIMSE1
 70
     0
  9
$DIMSE2
 70
     0
  9
$DIMTAD
 70
     0
  9
$DIMZIN
 70
     4
  9
$DIMBLK
  1

  9
$DIMASO
 70
     1
  9
$DIMSHO
 70
     1
  9
$DIMPOST
  1

  9
$DIMAPOST
  1

  9
$DIMALT
 70
     0
  9
$DIMALTD
 70
     2
  9
$DIMALTF
 40
25.4
  9
$DIMLFAC
 40
1.0
  9
$DIMTOFL
 70
     0
  9
$DIMTVP
 40
0.0
  9
$DIMTIX
 70
     1
  9
$DIMSOXD
 70
     0
  9
$DIMSAH
 70
     0
  9
$DIMBLK1
  1

  9
$DIMBLK2
  1

  9
$DIMSTYLE
  2
STANDARD
  9
$DIMCLRD
 70
     0
  9
$DIMCLRE
 70
     0
  9
$DIMCLRT
 70
     0
  9
$DIMTFAC
 40
1.0
  9
$DIMGAP
 40
0.09
  9
$DIMJUST
 70
     0
  9
$DIMSD1
 70
     0
  9
$DIMSD2
 70
     0
  9
$DIMTOLJ
 70
     1
  9
$DIMTZIN
 70
     4
  9
$DIMALTZ
 70
     0
  9
$DIMALTTZ
 70
     0
  9
$DIMFIT
 70
     3
  9
$DIMUPT
 70
     0
  9
$DIMUNIT
 70
     2
  9
$DIMDEC
 70
     3
  9
$DIMTDEC
 70
     3
  9
$DIMALTU
 70
     2
  9
$DIMALTTD
 70
     2
  9
$DIMTXSTY
  7
ROMANS
  9
$DIMAUNIT
 70
     0
  9
$LUNITS
 70
     2
  9
$LUPREC
 70
     3
  9
$SKETCHINC
 40
0.1
  9
$FILLETRAD
 40
0.03125
  9
$AUNITS
 70
     0
  9
$AUPREC
 70
     0
  9
$MENU
  1
ACAD
  9
$ELEVATION
 40
0.0
  9
$PELEVATION
 40
0.0
  9
$THICKNESS
 40
0.0
  9
$LIMCHECK
 70
     0
  9
$BLIPMODE
 70
     0
  9
$CHAMFERA
 40
0.0
  9
$CHAMFERB
 40
0.0
  9
$CHAMFERC
 40
0.0
  9
$CHAMFERD
 40
0.0
  9
$SKPOLY
 70
     0
  9
$TDCREATE
 40
2448994.475109953
  9
$TDUPDATE
 40
2452458.301438738
  9
$TDINDWG
 40
0.0005710532
  9
$TDUSRTIMER
 40
0.0005710532
  9
$USRTIMER
 70
     1
  9
$ANGBASE
 50
0.0
  9
$ANGDIR
 70
     0
  9
$PDMODE
 70
     0
  9
$PDSIZE
 40
0.0
  9
$PLINEWID
 40
0.0
  9
$COORDS
 70
     2
  9
$SPLFRAME
 70
     0
  9
$SPLINETYPE
 70
     6
  9
$SPLINESEGS
 70
     8
  9
$ATTDIA
 70
     0
  9
$ATTREQ
 70
     1
  9
$HANDLING
 70
 22529
  9
$HANDSEED
  5
7DE1B343D9DDDAB
  9
$SURFTAB1
 70
     6
  9
$SURFTAB2
 70
     6
  9
$SURFTYPE
 70
     6
  9
$SURFU
 70
     6
  9
$SURFV
 70
     6
  9
$UCSNAME
  2

  9
$UCSORG
 10
0.0
 20
0.0
 30
0.0
  9
$UCSXDIR
 10
1.0
 20
0.0
 30
0.0
  9
$UCSYDIR
 10
0.0
 20
1.0
 30
0.0
  9
$PUCSNAME
  2

  9
$PUCSORG
 10
0.0
 20
0.0
 30
0.0
  9
$PUCSXDIR
 10
1.0
 20
0.0
 30
0.0
  9
$PUCSYDIR
 10
0.0
 20
1.0
 30
0.0
  9
$USERI1
 70
     0
  9
$USERI2
 70
     0
  9
$USERI3
 70
     0
  9
$USERI4
 70
     0
  9
$USERI5
 70
     0
  9
$USERR1
 40
0.0
  9
$USERR2
 40
0.0
  9
$USERR3
 40
0.0
  9
$USERR4
 40
0.0
  9
$USERR5
 40
0.0
  9
$WORLDVIEW
 70
     1
  9
$SHADEDGE
 70
     3
  9
$SHADEDIF
 70
    70
  9
$TILEMODE
 70
     1
  9
$MAXACTVP
 70
    16
  9
$PINSBASE
 10
0.9353443170649658
 20
50.00000000000001
 30
1.765243904169202
  9
$PLIMCHECK
 70
     0
  9
$PEXTMIN
 10
1.000000000000000E+20
 20
1.000000000000000E+20
 30
1.000000000000000E+20
  9
$PEXTMAX
 10
-1.000000000000000E+20
 20
-1.000000000000000E+20
 30
-1.000000000000000E+20
  9
$PLIMMIN
 10
0.0
 20
0.0
  9
$PLIMMAX
 10
12.0
 20
9.0
  9
$UNITMODE
 70
     0
  9
$VISRETAIN
 70
     0
  9
$PLINEGEN
 70
     1
  9
$PSLTSCALE
 70
     0
  9
$TREEDEPTH
 70
  3020
  9
$PICKSTYLE
 70
     1
  9
$CMLSTYLE
  2
STANDARD
  9
$CMLJUST
 70
     0
  9
$CMLSCALE
 40
1.0
  9
$PROXYGRAPHICS
 70
     1
  9
$MEASUREMENT
 70
     0
  0
ENDSEC
  0
SECTION
  2
CLASSES
  0
CLASS
  1
LWPOLYLINE
  2
AcDbPolyline
  3
AutoCAD 2000
 90
        0
280
     0
281
     1
  0
CLASS
  1
ACDBDICTIONARYWDFLT
  2
AcDbDictionaryWithDefault
  3
AutoCAD 2000
 90
        0
280
     0
281
     0
  0
CLASS
  1
ACDBPLACEHOLDER
  2
AcDbPlaceHolder
  3
AutoCAD 2000
 90
        0
280
     0
281
     0
  0
CLASS
  1
LAYOUT
  2
AcDbLayout
  3
AutoCAD 2000
 90
        0
280
     0
281
     0
  0
CLASS
  1
DICTIONARYVAR
  2
AcDbDictionaryVar
  3
AutoCAD 2000
 90
        0
280
     0
281
     0
  0
CLASS
  1
LONG_TRANSACTION
  2
AcDbLongTransaction
  3
AutoCAD 2000
 90
        0
280
     0
281
     0
  0
CLASS
  1
LWPOLYLINE
  2
AcDbPolyline
  3
AutoCAD 2000
 90
        0
280
     0
281
     1
  0
CLASS
  1
HATCH
  2
AcDbHatch
  3
AutoCAD 2000
 90
        0
280
     0
281
     1
  0
CLASS
  1
XRECORD
  2
AcDbXrecord
  3
AutoCAD 2000
 90
        0
280
     0
281
     0
  0
ENDSEC
  0
SECTION
  2
TABLES
  0
TABLE
  2
VPORT
  5
7DE1B343D9DDD52
330
0
100
AcDbSymbolTable
 70
     2
  0
VPORT
  5
7DE1B343D9DDD86
330
7DE1B343D9DDD52
100
AcDbSymbolTableRecord
100
AcDbViewportTableRecord
  2
*ACTIVE
 70
     0
 10
0.0
 20
0.0
 11
1.0
 21
1.0
 12
4.594191763300337
 22
1.087738059330426
 13
0.0
 23
0.0
 14
0.015625
 24
0.015625
 15
0.0
 25
0.0
 16
0.0
 26
0.0
 36
1.0
 17
0.0
 27
0.0
 37
0.0
 40
2.282045260692751
 41
4.320930232558139
 42
50.0
 43
0.0
 44
0.0
 50
0.0
 51
0.0
 71
     0
 72
  2000
 73
     1
 74
     0
 75
     0
 76
     0
 77
     0
 78
     0
  0
ENDTAB
  0
TABLE
  2
LTYPE
  5
7DE1B343D9DDD4F
330
0
100
AcDbSymbolTable
 70
     1
  0
LTYPE
  5
7DE1B343D9DDD5C
330
7DE1B343D9DDD4F
100
AcDbSymbolTableRecord
100
AcDbLinetypeTableRecord
  2
BYBLOCK
 70
     0
  3

 72
    65
 73
     0
 40
0.0
  0
LTYPE
  5
7DE1B343D9DDD5D
330
7DE1B343D9DDD4F
100
AcDbSymbolTableRecord
100
AcDbLinetypeTableRecord
  2
BYLAYER
 70
     0
  3

 72
    65
 73
     0
 40
0.0
  0
LTYPE
  5
7DE1B343D9DDD5E
330
7DE1B343D9DDD4F
100
AcDbSymbolTableRecord
100
AcDbLinetypeTableRecord
  2
CONTINUOUS
 70
     0
  3
Solid line
 72
    65
 73
     0
 40
0.0
  0
ENDTAB
  0
TABLE
  2
LAYER
  5
7DE1B343D9DDD4C
330
0
100
AcDbSymbolTable
 70
     2
  0
LAYER
  5
7DE1B343D9DDD59
330
7DE1B343D9DDD4C
100
AcDbSymbolTableRecord
100
AcDbLayerTableRecord
  2
0
 70
     0
 62
     7
  6
CONTINUOUS
  0
LAYER
  5
7DE1B343D9DDD69
330
7DE1B343D9DDD4C
100
AcDbSymbolTableRecord
100
AcDbLayerTableRecord
  2
TEXT
 70
     0
 62
     3
  6
CONTINUOUS
  0
ENDTAB
  0
TABLE
  2
STYLE
  5
7DE1B343D9DDD4D
330
0
100
AcDbSymbolTable
 70
     3
  0
STYLE
  5
7DE1B343D9DDD5A
330
7DE1B343D9DDD4D
100
AcDbSymbolTableRecord
100
AcDbTextStyleTableRecord
  2
STANDARD
 70
     0
 40
0.0
 41
1.0
 50
0.0
 71
     0
 42
0.3125
  3
txt
  4

  0
STYLE
  5
7DE1B343D9DDD66
330
7DE1B343D9DDD4D
100
AcDbSymbolTableRecord
100
AcDbTextStyleTableRecord
  2
ITALICC
 70
     0
 40
0.0
 41
1.0
 50
0.0
 71
     0
 42
0.125
  3
italicc
  4

  0
STYLE
  5
7DE1B343D9DDD76
330
7DE1B343D9DDD4D
100
AcDbSymbolTableRecord
100
AcDbTextStyleTableRecord
  2
ROMANS
 70
     0
 40
0.0
 41
1.0
 50
0.0
 71
     0
 42
0.125
  3
romans.shx
  4

  0
ENDTAB
  0
TABLE
  2
VIEW
  5
7DE1B343D9DDD50
330
0
100
AcDbSymbolTable
 70
     0
  0
ENDTAB
  0
TABLE
  2
UCS
  5
7DE1B343D9DDD51
330
0
100
AcDbSymbolTable
 70
     0
  0
ENDTAB
  0
TABLE
  2
APPID
  5
7DE1B343D9DDD53
330
0
100
AcDbSymbolTable
 70
     1
  0
APPID
  5
7DE1B343D9DDD5B
330
7DE1B343D9DDD53
100
AcDbSymbolTableRecord
100
AcDbRegAppTableRecord
  2
ACAD
 70
     0
  0
ENDTAB
  0
TABLE
  2
DIMSTYLE
  5
7DE1B343D9DDD54
330
0
100
AcDbSymbolTable
 70
     1
  0
DIMSTYLE
105
7DE1B343D9DDD6E
330
7DE1B343D9DDD54
100
AcDbSymbolTableRecord
100
AcDbDimStyleTableRecord
  2
STANDARD
 70
     0
  3

  4

  5

  6

  7

 40
1.0
 41
0.125
 42
0.125
 43
0.375
 44
0.125
 45
0.0
 46
0.0
 47
0.0
 48
0.0
140
0.125
141
-0.125
142
0.0
143
25.4
144
1.0
145
0.0
146
1.0
147
0.09
 71
     0
 72
     0
 73
     1
 74
     1
 75
     0
 76
     0
 77
     0
 78
     4
170
     0
171
     2
172
     0
173
     0
174
     1
175
     0
176
     0
177
     0
178
     0
270
     2
271
     3
272
     3
273
     2
274
     2
340
7DE1B343D9DDD76
275
     0
280
     0
281
     0
282
     0
283
     1
284
     4
285
     0
286
     0
287
     3
288
     0
  0
ENDTAB
  0
TABLE
  2
BLOCK_RECORD
  5
7DE1B343D9DDD4B
330
0
100
AcDbSymbolTable
 70
     0
  0
BLOCK_RECORD
  5
7DE1B343D9DDD62
102
{ACAD_XDICTIONARY
360
7DE1B343D9DDDA9
102
}
330
7DE1B343D9DDD4B
100
AcDbSymbolTableRecord
100
AcDbBlockTableRecord
  2
*MODEL_SPACE
  0
BLOCK_RECORD
  5
7DE1B343D9DDD5F
102
{ACAD_XDICTIONARY
360
7DE1B343D9DDDA7
102
}
330
7DE1B343D9DDD4B
100
AcDbSymbolTableRecord
100
AcDbBlockTableRecord
  2
*PAPER_SPACE
  0
ENDTAB
  0
ENDSEC
  0
SECTION
  2
BLOCKS
  0
BLOCK
  5
7DE1B343D9DDD6C
330
7DE1B343D9DDD62
100
AcDbEntity
  8
0
100
AcDbBlockBegin
  2
*MODEL_SPACE
 70
     0
 10
0.0
 20
0.0
 30
0.0
  3
*MODEL_SPACE
  1

  0
ENDBLK
  5
7DE1B343D9DDD6D
330
7DE1B343D9DDD62
100
AcDbEntity
  8
0
100
AcDbBlockEnd
  0
BLOCK
  5
7DE1B343D9DDD6A
330
7DE1B343D9DDD5F
100
AcDbEntity
 67
     1
  8
0
100
AcDbBlockBegin
  2
*PAPER_SPACE
 70
     0
 10
0.0
 20
0.0
 30
0.0
  3
*PAPER_SPACE
  1

  0
ENDBLK
  5
7DE1B343D9DDD6B
330
7DE1B343D9DDD5F
100
AcDbEntity
 67
     1
  8
0
100
AcDbBlockEnd
  0
ENDSEC
  0
SECTION
  2
ENTITIES
  0
LWPOLYLINE
  5
7DE1B343D9DC96C
330
7DE1B343D9DDD62
100
AcDbEntity
  8
0
100
AcDbPolyline
 90
        8
 70
     1
 43
0.0
 10
1.744241802798923
 20
1.510461303065686
 10
1.682750332409782
 20
1.510461303065686
 10
1.656491802798922
 20
1.555942410483746
 42
3.732050807568844
 10
1.581991802798921
 20
1.555942410483746
 10
1.555733273188063
 20
1.510461303065686
 10
1.494241802798922
 20
1.510461303065686
 10
1.494241802798923
 20
1.135461303065686
 10
1.744241802798923
 20
1.135461303065686
  0
LWPOLYLINE
  5
7DE1B343D9DC95B
330
7DE1B343D9DDD62
100
AcDbEntity
  8
0
100
AcDbPolyline
 90
       15
 70
     1
 43
0.0
 10
1.494241802798923
 20
1.760461303065686
 10
1.609241802798922
 20
1.760461303065685
 10
1.619241802798922
 20
1.750461303065685
 10
1.629241802798923
 20
1.760461303065687
 10
1.744241802798923
 20
1.760461303065686
 10
1.744241802798923
 20
1.885461303065686
 10
2.119241802798923
 20
1.885461303065686
 10
2.119241802798923
 20
1.822961303065686
 10
1.869241802798923
 20
1.822961303065686
 10
1.869241802798923
 20
1.010461303065686
 10
1.369241802798923
 20
1.010461303065686
 10
1.369241802798923
 20
1.822961303065686
 10
1.119241802798923
 20
1.822961303065686
 10
1.119241802798923
 20
1.885461303065686
 10
1.494241802798923
 20
1.885461303065686
  0
TEXT
  5
7DE1B343D9DDC0D
330
7DE1B343D9DDD62
100
AcDbEntity
  8
TEXT
100
AcDbText
 10
0.8662656123227343
 20
0.7484430261015677
 30
0.0
 40
0.125
  1
PART #110220
  7
ITALICC
 72
     1
 11
1.619241802798923
 21
0.7484430261015677
 31
0.0
100
AcDbText
  0
TEXT
  5
7DE1B343D9DDC0E
330
7DE1B343D9DDD62
100
AcDbEntity
  8
TEXT
100
AcDbText
 10
2.032546961049244
 20
0.3015203834291925
 30
0.0
 40
0.0522247191011236
  1
Phone  1-800-328-2495
 41
1.272321428571429
 72
     5
 11
3.361479545318908
 21
0.3015203834291925
 31
0.0
100
AcDbText
  0
TEXT
  5
7DE1B343D9DDC0F
330
7DE1B343D9DDD62
100
AcDbEntity
  8
TEXT
100
AcDbText
 10
2.032546961049244
 20
0.581295664328069
 30
0.0
 40
0.0522247191011236
  1
Stylmark  Incorporated
 41
1.221428571428573
 72
     5
 11
3.361479545318908
 21
0.581295664328069
 31
0.0
100
AcDbText
  0
TEXT
  5
7DE1B343D9DDC10
330
7DE1B343D9DDD62
100
AcDbEntity
  8
TEXT
100
AcDbText
 10
2.032546961049244
 20
0.4880372373617769
 30
0.0
 40
0.0522247191011236
  1
6536 Main St. N.E. * P.O. Box 32008
 41
0.8388932496075366
 72
     5
 11
3.361479545318908
 21
0.4880372373617769
 31
0.0
100
AcDbText
  0
TEXT
  5
7DE1B343D9DDC11
330
7DE1B343D9DDD62
100
AcDbEntity
  8
TEXT
100
AcDbText
 10
2.032546961049244
 20
0.3947788103954847
 30
0.0
 40
0.0522247191011236
  1
Minneapolis, MN 55432-0008
 41
1.11444212721585
 72
     5
 11
3.361479545318908
 21
0.3947788103954847
 31
0.0
100
AcDbText
  0
LWPOLYLINE
  5
7DE1B343D9DDC12
330
7DE1B343D9DDD62
100
AcDbEntity
  8
TEXT
100
AcDbPolyline
 90
        3
 70
     0
 43
0.0006660908203125
 10
-0.1234067310180631
 20
0.4151651460666274
 10
-0.1234067310180631
 20
0.3019297066134997
 10
-0.0101712915649408
 20
0.3019297066134997
  0
LWPOLYLINE
  5
7DE1B343D9DDC17
330
7DE1B343D9DDD62
100
AcDbEntity
  8
TEXT
100
AcDbPolyline
 90
        3
 70
     0
 43
0.0006660908203125
 10
-0.0967630982055656
 20
0.4151651460666274
 10
-0.0967630982055656
 20
0.3285733394260007
 10
-0.0101712915649408
 20
0.3285733394260007
  0
LWPOLYLINE
  5
7DE1B343D9DDC1C
330
7DE1B343D9DDD62
100
AcDbEntity
  8
TEXT
100
AcDbPolyline
 90
        2
 70
     0
 43
0.0001332181640625
 10
-0.0501367407836888
 20
0.4251565083713126
 10
-0.1234067310180631
 20
0.4151651460666274
  0
LWPOLYLINE
  5
7DE1B343D9DDC20
330
7DE1B343D9DDD62
100
AcDbEntity
  8
TEXT
100
AcDbPolyline
 90
        2
 70
     0
 43
0.0001332181640625
 10
-0.0967630982055656
 20
0.4151651460666274
 10
-0.0368149243774383
 20
0.4251565083713126
  0
LWPOLYLINE
  5
7DE1B343D9DDC24
330
7DE1B343D9DDD62
100
AcDbEntity
  8
TEXT
100
AcDbPolyline
 90
        2
 70
     0
 43
0.0001332181640625
 10
-0.0967630982055656
 20
0.3285733394260007
 10
-0.0368149243774383
 20
0.3885215132541263
  0
LWPOLYLINE
  5
7DE1B343D9DDC28
330
7DE1B343D9DDD62
100
AcDbEntity
  8
TEXT
100
AcDbPolyline
 90
        3
 70
     0
 43
0.0006660908203125
 10
-0.0101712915649408
 20
0.568366034738503
 10
-0.1234067310180631
 20
0.568366034738503
 10
-0.1234067310180631
 20
0.4551305952853754
  0
LWPOLYLINE
  5
7DE1B343D9DDC2D
330
7DE1B343D9DDD62
100
AcDbEntity
  8
TEXT
100
AcDbPolyline
 90
        3
 70
     0
 43
0.0006660908203125
 10
-0.0101712915649408
 20
0.541722401926002
 10
-0.0967630982055656
 20
0.541722401926002
 10
-0.0967630982055656
 20
0.4551305952853754
  0
LWPOLYLINE
  5
7DE1B343D9DDC32
330
7DE1B343D9DDD62
100
AcDbEntity
  8
TEXT
100
AcDbPolyline
 90
        2
 70
     0
 43
0.0001332181640625
 10
-0.0967630982055656
 20
0.541722401926002
 10
-0.0368149243774401
 20
0.4817742280978764
  0
LWPOLYLINE
  5
7DE1B343D9DDC36
330
7DE1B343D9DDD62
100
AcDbEntity
  8
TEXT
100
AcDbPolyline
 90
        2
 70
     0
 43
0.0001332181640625
 10
-0.0967630982055656
 20
0.4551305952853754
 10
-0.0368149243774401
 20
0.4451392329806866
  0
LWPOLYLINE
  5
7DE1B343D9DDC3A
330
7DE1B343D9DDD62
100
AcDbEntity
  8
TEXT
100
AcDbPolyline
 90
        2
 70
     0
 43
0.0001332181640625
 10
-0.1234067310180631
 20
0.4551305952853754
 10
-0.0501367407836888
 20
0.4451392329806866
  0
LWPOLYLINE
  5
7DE1B343D9DDC3E
330
7DE1B343D9DDD62
100
AcDbEntity
  8
TEXT
100
AcDbPolyline
 90
        2
 70
     0
 43
0.0006660908203125
 10
-0.0967630982055656
 20
0.4151651460666274
 10
-0.1234067310180631
 20
0.4151651460666274
  0
LWPOLYLINE
  5
7DE1B343D9DDC42
330
7DE1B343D9DDD62
100
AcDbEntity
  8
TEXT
100
AcDbPolyline
 90
        2
 70
     0
 43
0.0006660908203125
 10
-0.0967630982055656
 20
0.4551305952853754
 10
-0.1234067310180631
 20
0.4551305952853754
  0
LINE
  5
7DE1B343D9DDC46
330
7DE1B343D9DDD62
100
AcDbEntity
  8
TEXT
100
AcDbLine
 10
1.391783698108434
 20
0.504089340081734
 30
0.0
 11
1.284577424721145
 21
0.504089340081734
 31
0.0
  0
LINE
  5
7DE1B343D9DDC47
330
7DE1B343D9DDD62
100
AcDbEntity
  8
TEXT
100
AcDbLine
 10
1.420814596452912
 20
0.5683660347384995
 30
0.0
 11
1.285982687235853
 21
0.5683660347384995
 31
0.0
  0
ARC
  5
7DE1B343D9DDC48
330
7DE1B343D9DDD62
100
AcDbEntity
  8
TEXT
100
AcDbCircle
 10
1.34529678362917
 20
0.3991287854754831
 30
0.0
 40
0.0676855811441166
100
AcDbArc
 50
90.0
 51
153.7768192527749
  0
LWPOLYLINE
  5
7DE1B343D9DDC49
330
7DE1B343D9DDD62
100
AcDbEntity
  8
TEXT
100
AcDbPolyline
 90
        2
 70
     0
 43
0.0
 10
1.283544929266335
 20
0.3453839467004266
 42
0.2901071551932823
 10
1.32662086213397
 20
0.3018930017499884
 42
5.328517124445801
  0
ARC
  5
7DE1B343D9DDC4D
330
7DE1B343D9DDD62
100
AcDbEntity
  8
TEXT
100
AcDbCircle
 10
0.6401654059576849
 20
0.3616853930880382
 30
0.0
 40
0.0601160179737537
100
AcDbArc
 50
180.0000000000003
 51
264.0521544866073
  0
LINE
  5
7DE1B343D9DDC4E
330
7DE1B343D9DDD62
100
AcDbEntity
  8
TEXT
100
AcDbLine
 10
0.6436807615832328
 20
0.6027539523326376
 30
0.0
 11
0.5836381567392257
 21
0.6027539523326376
 31
0.0
  0
ARC
  5
7DE1B343D9DDC4F
330
7DE1B343D9DDD62
100
AcDbEntity
  8
TEXT
100
AcDbCircle
 10
0.4079064038407143
 20
0.4862785752919977
 30
0.0
 40
0.0820874594465043
100
AcDbArc
 50
90.0
 51
270.0
  0
LWPOLYLINE
  5
7DE1B343D9DDC50
330
7DE1B343D9DDD62
100
AcDbEntity
  8
TEXT
100
AcDbPolyline
 90
        2
 70
     0
 43
0.0001332181640625
 10
-0.0001799292602502
 20
0.4950960445041234
 10
-0.0101712915649408
 20
0.568366034738503
  0
LWPOLYLINE
  5
7DE1B343D9DDC54
330
7DE1B343D9DDD62
100
AcDbEntity
  8
TEXT
100
AcDbPolyline
 90
        2
 70
     0
 43
0.0001332181640625
 10
-0.0101712915649408
 20
0.541722401926002
 10
-0.0001799292602502
 20
0.4817742280978764
  0
LWPOLYLINE
  5
7DE1B343D9DDC58
330
7DE1B343D9DDD62
100
AcDbEntity
  8
TEXT
100
AcDbPolyline
 90
        3
 70
     0
 43
0.0006660908203125
 10
0.1430295971069366
 20
0.4551305952853754
 10
0.1430295971069366
 20
0.568366034738503
 10
0.0297941576538108
 20
0.568366034738503
  0
LWPOLYLINE
  5
7DE1B343D9DDC5D
330
7DE1B343D9DDD62
100
AcDbEntity
  8
TEXT
100
AcDbPolyline
 90
        3
 70
     0
 43
0.0006660908203125
 10
0.1163859642944356
 20
0.4551305952853754
 10
0.1163859642944356
 20
0.541722401926002
 10
0.0297941576538108
 20
0.541722401926002
  0
LWPOLYLINE
  5
7DE1B343D9DDC62
330
7DE1B343D9DDD62
100
AcDbEntity
  8
TEXT
100
AcDbPolyline
 90
        2
 70
     0
 43
0.0001332181640625
 10
0.1163859642944356
 20
0.541722401926002
 10
0.0564377904663118
 20
0.4817742280978764
  0
LWPOLYLINE
  5
7DE1B343D9DDC66
330
7DE1B343D9DDD62
100
AcDbEntity
  8
TEXT
100
AcDbPolyline
 90
        2
 70
     0
 43
0.0001332181640625
 10
0.0297941576538108
 20
0.541722401926002
 10
0.019802795349122
 20
0.4817742280978764
  0
LWPOLYLINE
  5
7DE1B343D9DDC6A
330
7DE1B343D9DDD62
100
AcDbEntity
  8
TEXT
100
AcDbPolyline
 90
        2
 70
     0
 43
0.0001332181640625
 10
0.0297941576538108
 20
0.568366034738503
 10
0.019802795349122
 20
0.4950960445041234
  0
LWPOLYLINE
  5
7DE1B343D9DDC6E
330
7DE1B343D9DDD62
100
AcDbEntity
  8
TEXT
100
AcDbPolyline
 90
        2
 70
     0
 43
0.0001332181640625
 10
0.0697596068725606
 20
0.4451392329806866
 10
0.1430295971069366
 20
0.4551305952853754
  0
LWPOLYLINE
  5
7DE1B343D9DDC72
330
7DE1B343D9DDD62
100
AcDbEntity
  8
TEXT
100
AcDbPolyline
 90
        2
 70
     0
 43
0.0001332181640625
 10
0.1163859642944356
 20
0.4551305952853754
 10
0.0564377904663118
 20
0.4451392329806866
  0
LWPOLYLINE
  5
7DE1B343D9DDC76
330
7DE1B343D9DDD62
100
AcDbEntity
  8
TEXT
100
AcDbPolyline
 90
        2
 70
     0
 43
0.0001332181640625
 10
0.1430295971069366
 20
0.4151651460666274
 10
0.0697596068725606
 20
0.4251565083713126
  0
LWPOLYLINE
  5
7DE1B343D9DDC7A
330
7DE1B343D9DDD62
100
AcDbEntity
  8
TEXT
100
AcDbPolyline
 90
        2
 70
     0
 43
0.0001332181640625
 10
0.1163859642944356
 20
0.4151651460666274
 10
0.0564377904663118
 20
0.4251565083713126
  0
LWPOLYLINE
  5
7DE1B343D9DDC7E
330
7DE1B343D9DDD62
100
AcDbEntity
  8
TEXT
100
AcDbPolyline
 90
        2
 70
     0
 43
0.0001332181640625
 10
0.1163859642944356
 20
0.3285733394260007
 10
0.0564377904663118
 20
0.3885215132541263
  0
LWPOLYLINE
  5
7DE1B343D9DDC82
330
7DE1B343D9DDD62
100
AcDbEntity
  8
TEXT
100
AcDbPolyline
 90
        3
 70
     0
 43
0.0006660908203125
 10
0.0297941576538108
 20
0.3285733394260007
 10
0.1163859642944356
 20
0.3285733394260007
 10
0.1163859642944356
 20
0.4151651460666274
  0
LWPOLYLINE
  5
7DE1B343D9DDC87
330
7DE1B343D9DDD62
100
AcDbEntity
  8
TEXT
100
AcDbPolyline
 90
        3
 70
     0
 43
0.0006660908203125
 10
0.0297941576538108
 20
0.3019297066134997
 10
0.1430295971069366
 20
0.3019297066134997
 10
0.1430295971069366
 20
0.4151651460666274
  0
LWPOLYLINE
  5
7DE1B343D9DDC8C
330
7DE1B343D9DDD62
100
AcDbEntity
  8
TEXT
100
AcDbPolyline
 90
        5
 70
     0
 43
0.0001332181640625
 10
-0.0001799292602502
 20
0.3751996968478758
 10
-0.0001799292602502
 20
0.3885215132541263
 10
-0.0368149243774383
 20
0.3885215132541263
 10
-0.0368149243774383
 20
0.4251565083713126
 10
-0.0501367407836888
 20
0.4251565083713126
  0
LWPOLYLINE
  5
7DE1B343D9DDC93
330
7DE1B343D9DDD62
100
AcDbEntity
  8
TEXT
100
AcDbPolyline
 90
        2
 70
     0
 43
0.0006660908203125
 10
-0.0101712915649408
 20
0.3285733394260007
 10
-0.0101712915649408
 20
0.3019297066134997
  0
LWPOLYLINE
  5
7DE1B343D9DDC97
330
7DE1B343D9DDD62
100
AcDbEntity
  8
TEXT
100
AcDbPolyline
 90
        2
 70
     0
 43
0.0001332181640625
 10
-0.0101712915649408
 20
0.3285733394260007
 10
-0.0001799292602502
 20
0.3885215132541263
  0
LWPOLYLINE
  5
7DE1B343D9DDC9B
330
7DE1B343D9DDD62
100
AcDbEntity
  8
TEXT
100
AcDbPolyline
 90
        2
 70
     0
 43
0.0001332181640625
 10
-0.0101712915649408
 20
0.3019297066134997
 10
-0.0001799292602502
 20
0.3751996968478758
  0
LWPOLYLINE
  5
7DE1B343D9DDC9F
330
7DE1B343D9DDD62
100
AcDbEntity
  8
TEXT
100
AcDbPolyline
 90
        5
 70
     0
 43
0.0001332181640625
 10
-0.0501367407836888
 20
0.4451392329806866
 10
-0.0368149243774401
 20
0.4451392329806866
 10
-0.0368149243774401
 20
0.4817742280978764
 10
-0.0001799292602502
 20
0.4817742280978764
 10
-0.0001799292602502
 20
0.4950960445041234
  0
LWPOLYLINE
  5
7DE1B343D9DDCA6
330
7DE1B343D9DDD62
100
AcDbEntity
  8
TEXT
100
AcDbPolyline
 90
        5
 70
     0
 43
0.0001332181640625
 10
0.019802795349122
 20
0.4950960445041234
 10
0.019802795349122
 20
0.4817742280978764
 10
0.0564377904663118
 20
0.4817742280978764
 10
0.0564377904663118
 20
0.4451392329806866
 10
0.0697596068725606
 20
0.4451392329806866
  0
LWPOLYLINE
  5
7DE1B343D9DDCAD
330
7DE1B343D9DDD62
100
AcDbEntity
  8
TEXT
100
AcDbPolyline
 90
        2
 70
     0
 43
0.0001332181640625
 10
0.0297941576538108
 20
0.3285733394260007
 10
0.019802795349122
 20
0.3885215132541263
  0
LWPOLYLINE
  5
7DE1B343D9DDCB1
330
7DE1B343D9DDD62
100
AcDbEntity
  8
TEXT
100
AcDbPolyline
 90
        2
 70
     0
 43
0.0001332181640625
 10
0.019802795349122
 20
0.3751996968478758
 10
0.0297941576538108
 20
0.3019297066134997
  0
LWPOLYLINE
  5
7DE1B343D9DDCB5
330
7DE1B343D9DDD62
100
AcDbEntity
  8
TEXT
100
AcDbPolyline
 90
        2
 70
     0
 43
0.0006660908203125
 10
0.0297941576538108
 20
0.3285733394260007
 10
0.0297941576538108
 20
0.3019297066134997
  0
LWPOLYLINE
  5
7DE1B343D9DDCB9
330
7DE1B343D9DDD62
100
AcDbEntity
  8
TEXT
100
AcDbPolyline
 90
        5
 70
     0
 43
0.0001332181640625
 10
0.0697596068725606
 20
0.4251565083713126
 10
0.0564377904663118
 20
0.4251565083713126
 10
0.0564377904663118
 20
0.3885215132541263
 10
0.019802795349122
 20
0.3885215132541263
 10
0.019802795349122
 20
0.3751996968478758
  0
LWPOLYLINE
  5
7DE1B343D9DDCC0
330
7DE1B343D9DDD62
100
AcDbEntity
  8
TEXT
100
AcDbPolyline
 90
        2
 70
     0
 43
0.0006660908203125
 10
0.1163859642944356
 20
0.4551305952853754
 10
0.1430295971069366
 20
0.4551305952853754
  0
LWPOLYLINE
  5
7DE1B343D9DDCC4
330
7DE1B343D9DDD62
100
AcDbEntity
  8
TEXT
100
AcDbPolyline
 90
        2
 70
     0
 43
0.0006660908203125
 10
0.1163859642944356
 20
0.4151651460666274
 10
0.1430295971069366
 20
0.4151651460666274
  0
LINE
  5
7DE1B343D9DDCC8
330
7DE1B343D9DDD62
100
AcDbEntity
  8
TEXT
100
AcDbLine
 10
0.4131437339549616
 20
0.504089340081734
 30
0.0
 11
0.5800493879839328
 21
0.504089340081734
 31
0.0
  0
LINE
  5
7DE1B343D9DDCC9
330
7DE1B343D9DDD62
100
AcDbEntity
  8
TEXT
100
AcDbLine
 10
0.4787438701992626
 20
0.4682846184711062
 30
0.0
 11
0.4131437339549616
 21
0.4682846184711062
 31
0.0
  0
LINE
  5
7DE1B343D9DDCCA
330
7DE1B343D9DDD62
100
AcDbEntity
  8
TEXT
100
AcDbLine
 10
0.3258189443942099
 20
0.3018930017499884
 30
0.0
 11
0.4787438701992626
 21
0.3018930017499884
 31
0.0
  0
LINE
  5
7DE1B343D9DDCCB
330
7DE1B343D9DDD62
100
AcDbEntity
  8
TEXT
100
AcDbLine
 10
0.4836842441055423
 20
0.3702500080834278
 30
0.0
 11
0.3258189443942081
 21
0.3702500080834278
 31
0.0
  0
LINE
  5
7DE1B343D9DDCCC
330
7DE1B343D9DDD62
100
AcDbEntity
  8
TEXT
100
AcDbLine
 10
0.4079064038407135
 20
0.4041911158454924
 30
0.0
 11
0.4836842441055423
 21
0.4041911158454924
 31
0.0
  0
ARC
  5
7DE1B343D9DDCCD
330
7DE1B343D9DDD62
100
AcDbEntity
  8
TEXT
100
AcDbCircle
 10
0.4131437339549624
 20
0.4861869792764219
 30
0.0
 40
0.017902360805315
100
AcDbArc
 50
90.0
 51
270.0
  0
LINE
  5
7DE1B343D9DDCCE
330
7DE1B343D9DDD62
100
AcDbEntity
  8
TEXT
100
AcDbLine
 10
0.3258189443942081
 20
0.3702500080834278
 30
0.0
 11
0.3258189443942099
 21
0.3018930017499884
 31
0.0
  0
LINE
  5
7DE1B343D9DDCCF
330
7DE1B343D9DDD62
100
AcDbEntity
  8
TEXT
100
AcDbLine
 10
0.5800493879839328
 20
0.504089340081734
 30
0.0
 11
0.5800493879839328
 21
0.3616853930880382
 31
0.0
  0
ARC
  5
7DE1B343D9DDCD0
330
7DE1B343D9DDD62
100
AcDbEntity
  8
TEXT
100
AcDbCircle
 10
0.4787438701992635
 20
0.3850888101105455
 30
0.0
 40
0.0831958083605586
100
AcDbArc
 50
270.0
 51
90.0
  0
ARC
  5
7DE1B343D9DDCD1
330
7DE1B343D9DDD62
100
AcDbEntity
  8
TEXT
100
AcDbCircle
 10
0.4836842441055432
 20
0.3872205619644618
 30
0.0
 40
0.0169705538810321
100
AcDbArc
 50
270.0
 51
90.0
  0
LWPOLYLINE
  5
7DE1B343D9DDCD2
330
7DE1B343D9DDD62
100
AcDbEntity
  8
TEXT
100
AcDbPolyline
 90
        2
 70
     0
 43
0.0006660908203125
 10
-0.0101712915649408
 20
0.541722401926002
 10
-0.0101712915649408
 20
0.568366034738503
  0
LWPOLYLINE
  5
7DE1B343D9DDCD6
330
7DE1B343D9DDD62
100
AcDbEntity
  8
TEXT
100
AcDbPolyline
 90
        2
 70
     0
 43
0.0006660908203125
 10
0.0297941576538108
 20
0.541722401926002
 10
0.0297941576538108
 20
0.568366034738503
  0
LINE
  5
7DE1B343D9DDCDA
330
7DE1B343D9DDD62
100
AcDbEntity
  8
TEXT
100
AcDbLine
 10
0.5836381567392257
 20
0.5683660347384995
 30
0.0
 11
0.4079064038407135
 21
0.5683660347384995
 31
0.0
  0
LINE
  5
7DE1B343D9DDCDB
330
7DE1B343D9DDD62
100
AcDbEntity
  8
TEXT
100
AcDbLine
 10
0.5836381567392257
 20
0.6027539523326376
 30
0.0
 11
0.5836381567392257
 21
0.5683660347384995
 31
0.0
  0
LINE
  5
7DE1B343D9DDCDC
330
7DE1B343D9DDD62
100
AcDbEntity
  8
TEXT
100
AcDbLine
 10
0.774110048759078
 20
0.4674940386253789
 30
0.0
 11
0.7154797277271401
 21
0.5683660347384995
 31
0.0
  0
LINE
  5
7DE1B343D9DDCDD
330
7DE1B343D9DDD62
100
AcDbEntity
  8
TEXT
100
AcDbLine
 10
0.8328586115649434
 20
0.5683660347384995
 30
0.0
 11
0.774110048759078
 21
0.4674940386253789
 31
0.0
  0
LINE
  5
7DE1B343D9DDCDE
330
7DE1B343D9DDD62
100
AcDbEntity
  8
TEXT
100
AcDbLine
 10
0.9297892369246847
 20
0.3842808398529876
 30
0.0
 11
0.9297892369246847
 21
0.63637751247731
 31
0.0
  0
LINE
  5
7DE1B343D9DDCDF
330
7DE1B343D9DDD62
100
AcDbEntity
  8
TEXT
100
AcDbLine
 10
0.9621010910623448
 20
0.5683660347384995
 30
0.0
 11
0.9621010910623448
 21
0.3675018280060912
 31
0.0
  0
LINE
  5
7DE1B343D9DDCE0
330
7DE1B343D9DDD62
100
AcDbEntity
  8
TEXT
100
AcDbLine
 10
0.9621010910623448
 20
0.3675018280060912
 30
0.0
 11
0.9451074541777435
 21
0.3675018280060912
 31
0.0
  0
LINE
  5
7DE1B343D9DDCE1
330
7DE1B343D9DDD62
100
AcDbEntity
  8
TEXT
100
AcDbLine
 10
0.9309288104208794
 20
0.3018930017499884
 30
0.0
 11
1.028932144120314
 21
0.3018930017499884
 31
0.0
  0
LINE
  5
7DE1B343D9DDCE2
330
7DE1B343D9DDD62
100
AcDbEntity
  8
TEXT
100
AcDbLine
 10
0.7645098117621237
 20
0.3218515078550014
 30
0.0
 11
0.8618095178555682
 21
0.4862017187902695
 31
0.0
  0
ARC
  5
7DE1B343D9DDCE3
330
7DE1B343D9DDD62
100
AcDbEntity
  8
TEXT
100
AcDbCircle
 10
0.7304662518499097
 20
0.3414407240236842
 30
0.0
 40
0.0392772371940762
100
AcDbArc
 50
270.1604552698595
 51
330.0831797321295
  0
LINE
  5
7DE1B343D9DDCE4
330
7DE1B343D9DDD62
100
AcDbEntity
  8
TEXT
100
AcDbLine
 10
0.6339359954640385
 20
0.3018930017499884
 30
0.0
 11
0.7305762465390329
 21
0.3021636408482707
 31
0.0
  0
LWPOLYLINE
  5
7DE1B343D9DDCE5
330
7DE1B343D9DDD62
100
AcDbEntity
  8
TEXT
100
AcDbPolyline
 90
        6
 70
     1
 43
0.0
 10
0.6764597990391881
 20
0.504089340081734
 10
0.6461432048189799
 20
0.504089340081734
 10
0.6461432048189799
 20
0.3809783420268396
 42
0.407328721240804
 10
0.6576868559804563
 20
0.3691594273504536
 10
0.7183085550251871
 20
0.3691594273504536
 10
0.7357738954325051
 20
0.4019716563939327
  0
LINE
  5
7DE1B343D9DDCED
330
7DE1B343D9DDD62
100
AcDbEntity
  8
TEXT
100
AcDbLine
 10
0.8618095178555682
 20
0.4862017187902695
 30
0.0
 11
0.8618095178555682
 21
0.3534443439649132
 31
0.0
  0
ARC
  5
7DE1B343D9DDCEE
330
7DE1B343D9DDD62
100
AcDbEntity
  8
TEXT
100
AcDbCircle
 10
0.9451074541777417
 20
0.3828836342495166
 30
0.0
 40
0.0153818062434269
100
AcDbArc
 50
174.7883570302258
 51
270.0
  0
LWPOLYLINE
  5
7DE1B343D9DDCEF
330
7DE1B343D9DDD62
100
AcDbEntity
  8
TEXT
100
AcDbPolyline
 90
        2
 70
     0
 43
0.0
 10
0.8618095178555664
 20
0.3534443439649167
 42
0.3318488747599744
 10
0.9309288104208794
 20
0.3018930017499884
 42
-6.868794160588311
  0
LINE
  5
7DE1B343D9DDCF3
330
7DE1B343D9DDD62
100
AcDbEntity
  8
TEXT
100
AcDbLine
 10
1.086321213109575
 20
0.3018930017499884
 30
0.0
 11
1.153379259891415
 21
0.3018930017499884
 31
0.0
  0
LINE
  5
7DE1B343D9DDCF4
330
7DE1B343D9DDD62
100
AcDbEntity
  8
TEXT
100
AcDbLine
 10
1.086321213109575
 20
0.4965355509156241
 30
0.0
 11
1.086321213109575
 21
0.3018930017499884
 31
0.0
  0
LINE
  5
7DE1B343D9DDCF5
330
7DE1B343D9DDD62
100
AcDbEntity
  8
TEXT
100
AcDbLine
 10
1.028932144120314
 20
0.504089340081734
 30
0.0
 11
1.078767423943461
 21
0.504089340081734
 31
0.0
  0
LINE
  5
7DE1B343D9DDCF6
330
7DE1B343D9DDD62
100
AcDbEntity
  8
TEXT
100
AcDbLine
 10
1.028932144120314
 20
0.3018930017499884
 30
0.0
 11
1.028932144120314
 21
0.504089340081734
 31
0.0
  0
LWPOLYLINE
  5
7DE1B343D9DDCF7
330
7DE1B343D9DDD62
100
AcDbEntity
  8
TEXT
100
AcDbPolyline
 90
        2
 70
     0
 43
0.0
 10
1.078767423943459
 20
0.504089340081734
 42
-0.4142135623731017
 10
1.086321213109573
 20
0.4965355509156241
 42
-0.9999999999999998
  0
LINE
  5
7DE1B343D9DDCFB
330
7DE1B343D9DDD62
100
AcDbEntity
  8
TEXT
100
AcDbLine
 10
1.284577424721145
 20
0.504089340081734
 30
0.0
 11
1.284577424721145
 21
0.4290369340075274
 31
0.0
  0
LINE
  5
7DE1B343D9DDCFC
330
7DE1B343D9DDD62
100
AcDbEntity
  8
TEXT
100
AcDbLine
 10
1.153379259891415
 20
0.504089340081734
 30
0.0
 11
1.207512856812365
 21
0.504089340081734
 31
0.0
  0
LINE
  5
7DE1B343D9DDCFD
330
7DE1B343D9DDD62
100
AcDbEntity
  8
TEXT
100
AcDbLine
 10
1.153379259891415
 20
0.3018930017499884
 30
0.0
 11
1.153379259891415
 21
0.504089340081734
 31
0.0
  0
LWPOLYLINE
  5
7DE1B343D9DDCFE
330
7DE1B343D9DDD62
100
AcDbEntity
  8
TEXT
100
AcDbPolyline
 90
        2
 70
     0
 43
0.0
 10
1.207512856812363
 20
0.504089340081734
 42
-0.4142135623731017
 10
1.215066645978477
 20
0.4965355509156241
 42
-0.9999999999999998
  0
LWPOLYLINE
  5
7DE1B343D9DDD02
330
7DE1B343D9DDD62
100
AcDbEntity
  8
TEXT
100
AcDbPolyline
 90
        4
 70
     0
 43
0.0
 10
1.215066645978477
 20
0.4965355509156241
 10
1.215066645978477
 20
0.3018930017499884
 10
1.283544929266335
 20
0.3018930017499884
 10
1.283544929266335
 20
0.3453839467004266
 42
-1.714843617202739
  0
LINE
  5
7DE1B343D9DDD08
330
7DE1B343D9DDD62
100
AcDbEntity
  8
TEXT
100
AcDbLine
 10
0.6436807615832328
 20
0.5683660347384995
 30
0.0
 11
0.6436807615832328
 21
0.6027539523326376
 31
0.0
  0
LINE
  5
7DE1B343D9DDD09
330
7DE1B343D9DDD62
100
AcDbEntity
  8
TEXT
100
AcDbLine
 10
0.7154797277271401
 20
0.5683660347384995
 30
0.0
 11
0.6436807615832328
 21
0.5683660347384995
 31
0.0
  0
LINE
  5
7DE1B343D9DDD0A
330
7DE1B343D9DDD62
100
AcDbEntity
  8
TEXT
100
AcDbLine
 10
0.8629805243583197
 20
0.5683660347384995
 30
0.0
 11
0.8328586115649434
 21
0.5683660347384995
 31
0.0
  0
LINE
  5
7DE1B343D9DDD0B
330
7DE1B343D9DDD62
100
AcDbEntity
  8
TEXT
100
AcDbLine
 10
0.8629805243583197
 20
0.63637751247731
 30
0.0
 11
0.8629805243583197
 21
0.5683660347384995
 31
0.0
  0
LINE
  5
7DE1B343D9DDD0C
330
7DE1B343D9DDD62
100
AcDbEntity
  8
TEXT
100
AcDbLine
 10
0.9297892369246847
 20
0.63637751247731
 30
0.0
 11
0.8629805243583197
 21
0.63637751247731
 31
0.0
  0
LWPOLYLINE
  5
7DE1B343D9DDD0D
330
7DE1B343D9DDD62
100
AcDbEntity
  8
TEXT
100
AcDbPolyline
 90
        3
 70
     0
 43
0.0
 10
1.250200996522687
 20
0.568366034738503
 10
1.131900837706642
 20
0.568366034738503
 10
1.131900837706642
 20
0.5411985379776071
 42
-1.960274751411753
  0
LINE
  5
7DE1B343D9DDD12
330
7DE1B343D9DDD62
100
AcDbEntity
  8
TEXT
100
AcDbLine
 10
1.096119146993481
 20
0.5683660347384995
 30
0.0
 11
0.9621010910623448
 21
0.5683660347384995
 31
0.0
  0
LWPOLYLINE
  5
7DE1B343D9DDD13
330
7DE1B343D9DDD62
100
AcDbEntity
  8
TEXT
100
AcDbPolyline
 90
        2
 70
     0
 43
0.0
 10
1.096119146993481
 20
0.568366034738503
 42
-0.3328679258950098
 10
1.131900837706642
 20
0.5411985379776071
 42
6.772930709997214
  0
LINE
  5
7DE1B343D9DDD17
330
7DE1B343D9DDD62
100
AcDbEntity
  8
TEXT
100
AcDbLine
 10
1.285982687235853
 20
0.5683660347384995
 30
0.0
 11
1.285982687235853
 21
0.5400434889688556
 31
0.0
  0
LWPOLYLINE
  5
7DE1B343D9DDD18
330
7DE1B343D9DDD62
100
AcDbEntity
  8
TEXT
100
AcDbPolyline
 90
        2
 70
     0
 43
0.0
 10
1.250200996522687
 20
0.568366034738503
 42
-0.3277054968067132
 10
1.285982687235851
 20
0.5400434889688591
 42
6.667889725900311
  0
LINE
  5
7DE1B343D9DDD1C
330
7DE1B343D9DDD62
100
AcDbEntity
  8
TEXT
100
AcDbLine
 10
1.499774535327953
 20
0.4631540561850721
 30
0.0
 11
1.456023764146052
 21
0.5454043321812173
 31
0.0
  0
LINE
  5
7DE1B343D9DDD1D
330
7DE1B343D9DDD62
100
AcDbEntity
  8
TEXT
100
AcDbLine
 10
1.499774535327953
 20
0.5683660347384995
 30
0.0
 11
1.499774535327953
 21
0.4631540561850721
 31
0.0
  0
LINE
  5
7DE1B343D9DDD1E
330
7DE1B343D9DDD62
100
AcDbEntity
  8
TEXT
100
AcDbLine
 10
1.727458274266322
 20
0.4925007083269614
 30
0.0
 11
1.727458274266322
 21
0.6338302405061002
 31
0.0
  0
LINE
  5
7DE1B343D9DDD1F
330
7DE1B343D9DDD62
100
AcDbEntity
  8
TEXT
100
AcDbLine
 10
1.774556432822307
 20
0.5683660347384995
 30
0.0
 11
1.727458274266322
 21
0.4925007083269614
 31
0.0
  0
LINE
  5
7DE1B343D9DDD20
330
7DE1B343D9DDD62
100
AcDbEntity
  8
TEXT
100
AcDbLine
 10
1.78499114958623
 20
0.4584727917975259
 30
0.0
 11
1.849548265551935
 21
0.5683660347384995
 31
0.0
  0
LINE
  5
7DE1B343D9DDD21
330
7DE1B343D9DDD62
100
AcDbEntity
  8
TEXT
100
AcDbLine
 10
1.663623283043549
 20
0.3018930017499884
 30
0.0
 11
1.72800146736217
 21
0.3018930017499884
 31
0.0
  0
LWPOLYLINE
  5
7DE1B343D9DDD22
330
7DE1B343D9DDD62
100
AcDbEntity
  8
TEXT
100
AcDbPolyline
 90
        2
 70
     0
 43
0.0
 10
1.503714212632991
 20
0.3453839467004266
 42
-0.2901071551932486
 10
1.460638279765347
 20
0.3018930017499884
 42
-5.328517124445184
  0
ARC
  5
7DE1B343D9DDD26
330
7DE1B343D9DDD62
100
AcDbEntity
  8
TEXT
100
AcDbCircle
 10
1.391783698108432
 20
0.4757299650817367
 30
0.0
 40
0.028359375
100
AcDbArc
 50
25.78218179591245
 51
90.0
  0
LINE
  5
7DE1B343D9DDD27
330
7DE1B343D9DDD62
100
AcDbEntity
  8
TEXT
100
AcDbLine
 10
1.427584773412555
 20
0.4668143666196018
 30
0.0
 11
1.417320012998991
 21
0.488064906192296
 31
0.0
  0
LINE
  5
7DE1B343D9DDD28
330
7DE1B343D9DDD62
100
AcDbEntity
  8
TEXT
100
AcDbLine
 10
1.345296783629172
 20
0.4668143666196018
 30
0.0
 11
1.427584773412555
 21
0.4668143666196018
 31
0.0
  0
LWPOLYLINE
  5
7DE1B343D9DDD29
330
7DE1B343D9DDD62
100
AcDbEntity
  8
TEXT
100
AcDbPolyline
 90
        4
 70
     1
 43
0.0
 10
1.440515814695454
 20
0.4048569797340137
 10
1.351855496035596
 20
0.4048569797340137
 42
0.9999999999999998
 10
1.351855496035596
 20
0.3624584392301529
 10
1.440515814695454
 20
0.3624584392301529
 42
1.0
  0
LWPOLYLINE
  5
7DE1B343D9DDD2F
330
7DE1B343D9DDD62
100
AcDbEntity
  8
TEXT
100
AcDbPolyline
 90
        2
 70
     0
 43
0.0
 10
1.32662086213397
 20
0.3018930017499884
 10
1.460638279765347
 20
0.3018930017499884
 42
0.9999999999999998
  0
LINE
  5
7DE1B343D9DDD33
330
7DE1B343D9DDD62
100
AcDbEntity
  8
TEXT
100
AcDbLine
 10
1.586975301750986
 20
0.504089340081734
 30
0.0
 11
1.663623283043544
 21
0.504089340081734
 31
0.0
  0
LINE
  5
7DE1B343D9DDD34
330
7DE1B343D9DDD62
100
AcDbEntity
  8
TEXT
100
AcDbLine
 10
1.663623283043544
 20
0.504089340081734
 30
0.0
 11
1.663623283043549
 21
0.3018930017499884
 31
0.0
  0
ARC
  5
7DE1B343D9DDD35
330
7DE1B343D9DDD62
100
AcDbEntity
  8
TEXT
100
AcDbCircle
 10
1.586975301750984
 20
0.4791834647990713
 30
0.0
 40
0.0249058752826653
100
AcDbArc
 50
89.99971217465335
 51
179.9999999999985
  0
LINE
  5
7DE1B343D9DDD36
330
7DE1B343D9DDD62
100
AcDbEntity
  8
TEXT
100
AcDbLine
 10
1.562069426468327
 20
0.3018930017499884
 30
0.0
 11
1.562069426468322
 21
0.4791835071814569
 31
0.0
  0
LWPOLYLINE
  5
7DE1B343D9DDD37
330
7DE1B343D9DDD62
100
AcDbEntity
  8
TEXT
100
AcDbPolyline
 90
        2
 70
     0
 43
0.0
 10
1.503714212632991
 20
0.3018930017499884
 10
1.562069426468325
 20
0.3018930017499884
  0
LWPOLYLINE
  5
7DE1B343D9DDD3B
330
7DE1B343D9DDD62
100
AcDbEntity
  8
TEXT
100
AcDbPolyline
 90
        2
 70
     0
 43
0.0
 10
1.503714212632991
 20
0.3453839467004266
 10
1.503714212632991
 20
0.3018930017499884
  0
LINE
  5
7DE1B343D9DDD3F
330
7DE1B343D9DDD62
100
AcDbEntity
  8
TEXT
100
AcDbLine
 10
1.88048337294984
 20
0.3018930017499884
 30
0.0
 11
1.78499114958623
 21
0.4584727917975259
 31
0.0
  0
LINE
  5
7DE1B343D9DDD40
330
7DE1B343D9DDD62
100
AcDbEntity
  8
TEXT
100
AcDbLine
 10
1.803905000573634
 20
0.3018930017499884
 30
0.0
 11
1.88048337294984
 21
0.3018930017499884
 31
0.0
  0
LINE
  5
7DE1B343D9DDD41
330
7DE1B343D9DDD62
100
AcDbEntity
  8
TEXT
100
AcDbLine
 10
1.72800146736217
 20
0.4334725702261687
 30
0.0
 11
1.803905000573634
 21
0.3018930017499884
 31
0.0
  0
LINE
  5
7DE1B343D9DDD42
330
7DE1B343D9DDD62
100
AcDbEntity
  8
TEXT
100
AcDbLine
 10
1.72800146736217
 20
0.3018930017499884
 30
0.0
 11
1.72800146736217
 21
0.4334725702261687
 31
0.0
  0
LINE
  5
7DE1B343D9DDD43
330
7DE1B343D9DDD62
100
AcDbEntity
  8
TEXT
100
AcDbLine
 10
1.727458274266322
 20
0.6338302405061002
 30
0.0
 11
1.659143395717049
 21
0.6338302405061002
 31
0.0
  0
ARC
  5
7DE1B343D9DDD44
330
7DE1B343D9DDD62
100
AcDbEntity
  8
TEXT
100
AcDbCircle
 10
1.418787656675843
 20
0.5267824676175971
 30
0.0
 40
0.0416329381542859
100
AcDbArc
 50
26.56974201007528
 51
87.20939649401342
  0
LINE
  5
7DE1B343D9DDD45
330
7DE1B343D9DDD62
100
AcDbEntity
  8
TEXT
100
AcDbLine
 10
1.563671441627454
 20
0.5683660347384995
 30
0.0
 11
1.499774535327953
 21
0.5683660347384995
 31
0.0
  0
LINE
  5
7DE1B343D9DDD46
330
7DE1B343D9DDD62
100
AcDbEntity
  8
TEXT
100
AcDbLine
 10
1.563671441627454
 20
0.5408183848776248
 30
0.0
 11
1.563671441627454
 21
0.5683660347384995
 31
0.0
  0
ARC
  5
7DE1B343D9DDD47
330
7DE1B343D9DDD62
100
AcDbEntity
  8
TEXT
100
AcDbCircle
 10
1.594864258690562
 20
0.5371203074562346
 30
0.0
 40
0.0314112657011332
100
AcDbArc
 50
95.88484768694724
 51
173.2388340632136
  0
LINE
  5
7DE1B343D9DDD48
330
7DE1B343D9DDD62
100
AcDbEntity
  8
TEXT
100
AcDbLine
 10
1.659143395717044
 20
0.5683660347384995
 30
0.0
 11
1.591643678067527
 21
0.5683660347384995
 31
0.0
  0
LINE
  5
7DE1B343D9DDD49
330
7DE1B343D9DDD62
100
AcDbEntity
  8
TEXT
100
AcDbLine
 10
1.659143395717049
 20
0.6338302405061002
 30
0.0
 11
1.659143395717044
 21
0.5683660347384995
 31
0.0
  0
LINE
  5
7DE1B343D9DDD4A
330
7DE1B343D9DDD62
100
AcDbEntity
  8
TEXT
100
AcDbLine
 10
1.849548265551935
 20
0.5683660347384995
 30
0.0
 11
1.774556432822309
 21
0.5683660347384995
 31
0.0
  0
ENDSEC
  0
SECTION
  2
OBJECTS
  0
DICTIONARY
  5
7DE1B343D9DDD56
330
0
100
AcDbDictionary
  3
ACAD_GROUP
350
7DE1B343D9DDD57
  3
ACAD_LAYOUT
350
7DE1B343D9DDD7C
  3
ACAD_MLINESTYLE
350
7DE1B343D9DDD58
  3
ACAD_PLOTSETTINGS
350
7DE1B343D9DDD7D
  3
ACAD_PLOTSTYLENAME
350
7DE1B343D9DDD7A
  3
ACDBHEADERROUNDTRIPXREC
350
7DE1B343D9DDD87
  3
ACDBVARIABLEDICTIONARY
350
7DE1B343D9DDD84
  0
DICTIONARY
  5
7DE1B343D9DDDA9
330
7DE1B343D9DDD62
100
AcDbDictionary
280
     1
  3
ACAD_LAYOUTSELFREF
360
7DE1B343D9DDDAA
  0
DICTIONARY
  5
7DE1B343D9DDDA7
330
7DE1B343D9DDD5F
100
AcDbDictionary
280
     1
  3
ACAD_LAYOUTSELFREF
360
7DE1B343D9DDDA8
  0
DICTIONARY
  5
7DE1B343D9DDD57
102
{ACAD_REACTORS
330
7DE1B343D9DDD56
102
}
330
7DE1B343D9DDD56
100
AcDbDictionary
  0
DICTIONARY
  5
7DE1B343D9DDD7C
102
{ACAD_REACTORS
330
7DE1B343D9DDD56
102
}
330
7DE1B343D9DDD56
100
AcDbDictionary
  0
DICTIONARY
  5
7DE1B343D9DDD58
102
{ACAD_REACTORS
330
7DE1B343D9DDD56
102
}
330
7DE1B343D9DDD56
100
AcDbDictionary
  3
STANDARD
350
7DE1B343D9DDD65
  0
DICTIONARY
  5
7DE1B343D9DDD7D
102
{ACAD_REACTORS
330
7DE1B343D9DDD56
102
}
330
7DE1B343D9DDD56
100
AcDbDictionary
  0
ACDBDICTIONARYWDFLT
  5
7DE1B343D9DDD7A
102
{ACAD_REACTORS
330
7DE1B343D9DDD56
102
}
330
7DE1B343D9DDD56
100
AcDbDictionary
281
     1
  3
Normal
350
7DE1B343D9DDD7B
100
AcDbDictionaryWithDefault
340
7DE1B343D9DDD7B
  0
DICTIONARY
  5
7DE1B343D9DDD87
102
{ACAD_REACTORS
330
7DE1B343D9DDD56
102
}
330
7DE1B343D9DDD56
100
AcDbDictionary
  3
CEPSNTYPE
350
7DE1B343D9DDD91
  3
FINGERPRINTGUID
350
7DE1B343D9DDD92
  3
HYPERLINKBASE
350
7DE1B343D9DDD8A
  3
INSUNITS
350
7DE1B343D9DDD90
  3
LAYOUTDICT
350
7DE1B343D9DDD8C
  3
LWETCUNION
350
7DE1B343D9DDD8F
  3
PLOTSETDICT
350
7DE1B343D9DDD8D
  3
PLOTSTYLNAMDICT
350
7DE1B343D9DDD8E
  3
PSVPSCALE
350
7DE1B343D9DDD94
  3
PUCSBASE
350
7DE1B343D9DDD97
  3
PUCSORGBACK
350
7DE1B343D9DDD9D
  3
PUCSORGBOTTOM
350
7DE1B343D9DDD99
  3
PUCSORGFRONT
350
7DE1B343D9DDD9C
  3
PUCSORGLEFT
350
7DE1B343D9DDD9A
  3
PUCSORGRIGHT
350
7DE1B343D9DDD9B
  3
PUCSORGTOP
350
7DE1B343D9DDD98
  3
PUCSORTHOREF
350
7DE1B343D9DDD95
  3
PUCSORTHOVIEW
350
7DE1B343D9DDD96
  3
STYLESHEET
350
7DE1B343D9DDD8B
  3
TSTACKALIGN
350
7DE1B343D9DDD88
  3
TSTACKSIZE
350
7DE1B343D9DDD89
  3
UCSBASE
350
7DE1B343D9DDDA0
  3
UCSORGBACK
350
7DE1B343D9DDDA6
  3
UCSORGBOTTOM
350
7DE1B343D9DDDA2
  3
UCSORGFRONT
350
7DE1B343D9DDDA5
  3
UCSORGLEFT
350
7DE1B343D9DDDA3
  3
UCSORGRIGHT
350
7DE1B343D9DDDA4
  3
UCSORGTOP
350
7DE1B343D9DDDA1
  3
UCSORTHOREF
350
7DE1B343D9DDD9E
  3
UCSORTHOVIEW
350
7DE1B343D9DDD9F
  3
VERSIONGUID
350
7DE1B343D9DDD93
  0
DICTIONARY
  5
7DE1B343D9DDD84
102
{ACAD_REACTORS
330
7DE1B343D9DDD56
102
}
330
7DE1B343D9DDD56
100
AcDbDictionary
  3
DIMASSOC
350
7DE1B343D9DDD85
  0
XRECORD
  5
7DE1B343D9DDDAA
102
{ACAD_REACTORS
330
7DE1B343D9DDDA9
102
}
330
7DE1B343D9DDDA9
100
AcDbXrecord
340
7DE1B343D9DDD62
  0
XRECORD
  5
7DE1B343D9DDDA8
102
{ACAD_REACTORS
330
7DE1B343D9DDDA7
102
}
330
7DE1B343D9DDDA7
100
AcDbXrecord
340
7DE1B343D9DDD5F
  0
MLINESTYLE
  5
7DE1B343D9DDD65
102
{ACAD_REACTORS
330
7DE1B343D9DDD58
102
}
330
7DE1B343D9DDD58
100
AcDbMlineStyle
  2
STANDARD
 70
     0
  3

 62
     0
 51
90.0
 52
90.0
 71
     2
 49
0.5
 62
   256
  6
BYLAYER
 49
-0.5
 62
   256
  6
BYLAYER
  0
ACDBPLACEHOLDER
  5
7DE1B343D9DDD7B
102
{ACAD_REACTORS
330
7DE1B343D9DDD7A
102
}
330
7DE1B343D9DDD7A
100
AcDbPlaceHolder
280
     0
  0
XRECORD
  5
7DE1B343D9DDD91
102
{ACAD_REACTORS
330
7DE1B343D9DDD87
102
}
330
7DE1B343D9DDD87
100
AcDbXrecord
 90
        0
  0
XRECORD
  5
7DE1B343D9DDD92
102
{ACAD_REACTORS
330
7DE1B343D9DDD87
102
}
330
7DE1B343D9DDD87
100
AcDbXrecord
  1
{30A9AA90-8DB5-11D6-88E6-0090279574E7}
  0
XRECORD
  5
7DE1B343D9DDD8A
102
{ACAD_REACTORS
330
7DE1B343D9DDD87
102
}
330
7DE1B343D9DDD87
100
AcDbXrecord
  1

  0
XRECORD
  5
7DE1B343D9DDD90
102
{ACAD_REACTORS
330
7DE1B343D9DDD87
102
}
330
7DE1B343D9DDD87
100
AcDbXrecord
 90
        0
  0
XRECORD
  5
7DE1B343D9DDD8C
102
{ACAD_REACTORS
330
7DE1B343D9DDD87
102
}
330
7DE1B343D9DDD87
100
AcDbXrecord
340
7DE1B343D9DDD7C
  0
XRECORD
  5
7DE1B343D9DDD8F
102
{ACAD_REACTORS
330
7DE1B343D9DDD87
102
}
330
7DE1B343D9DDD87
100
AcDbXrecord
 90
    14877
  0
XRECORD
  5
7DE1B343D9DDD8D
102
{ACAD_REACTORS
330
7DE1B343D9DDD87
102
}
330
7DE1B343D9DDD87
100
AcDbXrecord
340
7DE1B343D9DDD7D
  0
XRECORD
  5
7DE1B343D9DDD8E
102
{ACAD_REACTORS
330
7DE1B343D9DDD87
102
}
330
7DE1B343D9DDD87
100
AcDbXrecord
340
7DE1B343D9DDD7A
  0
XRECORD
  5
7DE1B343D9DDD94
102
{ACAD_REACTORS
330
7DE1B343D9DDD87
102
}
330
7DE1B343D9DDD87
100
AcDbXrecord
 40
0.0
  0
XRECORD
  5
7DE1B343D9DDD97
102
{ACAD_REACTORS
330
7DE1B343D9DDD87
102
}
330
7DE1B343D9DDD87
100
AcDbXrecord
340
0
  0
XRECORD
  5
7DE1B343D9DDD9D
102
{ACAD_REACTORS
330
7DE1B343D9DDD87
102
}
330
7DE1B343D9DDD87
100
AcDbXrecord
 10
0.0
 20
0.0
 30
0.0
  0
XRECORD
  5
7DE1B343D9DDD99
102
{ACAD_REACTORS
330
7DE1B343D9DDD87
102
}
330
7DE1B343D9DDD87
100
AcDbXrecord
 10
0.0
 20
0.0
 30
0.0
  0
XRECORD
  5
7DE1B343D9DDD9C
102
{ACAD_REACTORS
330
7DE1B343D9DDD87
102
}
330
7DE1B343D9DDD87
100
AcDbXrecord
 10
0.0
 20
0.0
 30
0.0
  0
XRECORD
  5
7DE1B343D9DDD9A
102
{ACAD_REACTORS
330
7DE1B343D9DDD87
102
}
330
7DE1B343D9DDD87
100
AcDbXrecord
 10
0.0
 20
0.0
 30
0.0
  0
XRECORD
  5
7DE1B343D9DDD9B
102
{ACAD_REACTORS
330
7DE1B343D9DDD87
102
}
330
7DE1B343D9DDD87
100
AcDbXrecord
 10
0.0
 20
0.0
 30
0.0
  0
XRECORD
  5
7DE1B343D9DDD98
102
{ACAD_REACTORS
330
7DE1B343D9DDD87
102
}
330
7DE1B343D9DDD87
100
AcDbXrecord
 10
0.0
 20
0.0
 30
0.0
  0
XRECORD
  5
7DE1B343D9DDD95
102
{ACAD_REACTORS
330
7DE1B343D9DDD87
102
}
330
7DE1B343D9DDD87
100
AcDbXrecord
340
0
  0
XRECORD
  5
7DE1B343D9DDD96
102
{ACAD_REACTORS
330
7DE1B343D9DDD87
102
}
330
7DE1B343D9DDD87
100
AcDbXrecord
 70
     0
  0
XRECORD
  5
7DE1B343D9DDD8B
102
{ACAD_REACTORS
330
7DE1B343D9DDD87
102
}
330
7DE1B343D9DDD87
100
AcDbXrecord
  1

  0
XRECORD
  5
7DE1B343D9DDD88
102
{ACAD_REACTORS
330
7DE1B343D9DDD87
102
}
330
7DE1B343D9DDD87
100
AcDbXrecord
 90
        1
  0
XRECORD
  5
7DE1B343D9DDD89
102
{ACAD_REACTORS
330
7DE1B343D9DDD87
102
}
330
7DE1B343D9DDD87
100
AcDbXrecord
 90
       70
  0
XRECORD
  5
7DE1B343D9DDDA0
102
{ACAD_REACTORS
330
7DE1B343D9DDD87
102
}
330
7DE1B343D9DDD87
100
AcDbXrecord
340
0
  0
XRECORD
  5
7DE1B343D9DDDA6
102
{ACAD_REACTORS
330
7DE1B343D9DDD87
102
}
330
7DE1B343D9DDD87
100
AcDbXrecord
 10
0.0
 20
0.0
 30
0.0
  0
XRECORD
  5
7DE1B343D9DDDA2
102
{ACAD_REACTORS
330
7DE1B343D9DDD87
102
}
330
7DE1B343D9DDD87
100
AcDbXrecord
 10
0.0
 20
0.0
 30
0.0
  0
XRECORD
  5
7DE1B343D9DDDA5
102
{ACAD_REACTORS
330
7DE1B343D9DDD87
102
}
330
7DE1B343D9DDD87
100
AcDbXrecord
 10
0.0
 20
0.0
 30
0.0
  0
XRECORD
  5
7DE1B343D9DDDA3
102
{ACAD_REACTORS
330
7DE1B343D9DDD87
102
}
330
7DE1B343D9DDD87
100
AcDbXrecord
 10
0.0
 20
0.0
 30
0.0
  0
XRECORD
  5
7DE1B343D9DDDA4
102
{ACAD_REACTORS
330
7DE1B343D9DDD87
102
}
330
7DE1B343D9DDD87
100
AcDbXrecord
 10
0.0
 20
0.0
 30
0.0
  0
XRECORD
  5
7DE1B343D9DDDA1
102
{ACAD_REACTORS
330
7DE1B343D9DDD87
102
}
330
7DE1B343D9DDD87
100
AcDbXrecord
 10
0.0
 20
0.0
 30
0.0
  0
XRECORD
  5
7DE1B343D9DDD9E
102
{ACAD_REACTORS
330
7DE1B343D9DDD87
102
}
330
7DE1B343D9DDD87
100
AcDbXrecord
340
0
  0
XRECORD
  5
7DE1B343D9DDD9F
102
{ACAD_REACTORS
330
7DE1B343D9DDD87
102
}
330
7DE1B343D9DDD87
100
AcDbXrecord
 70
     0
  0
XRECORD
  5
7DE1B343D9DDD93
102
{ACAD_REACTORS
330
7DE1B343D9DDD87
102
}
330
7DE1B343D9DDD87
100
AcDbXrecord
  1
{30A9AA92-8DB5-11D6-88E6-0090279574E7}
  0
DICTIONARYVAR
  5
7DE1B343D9DDD85
102
{ACAD_REACTORS
330
7DE1B343D9DDD84
102
}
330
7DE1B343D9DDD84
100
DictionaryVariables
280
     0
  1
1
  0
ENDSEC
  0
EOF
