  0
SECTION
  2
HEADER
  9
$ACADVER
  1
AC1014
  9
$ACADMAINTVER
 70
     9
  9
$DWGCODEPAGE
  3
ANSI_1252
  9
$INSBASE
 10
1.62499998098606
 20
1.10596088989432
 30
0.0
  9
$EXTMIN
 10
-0.1301766964749656
 20
0.2457746701454724
 30
0.0
  9
$EXTMAX
 10
3.355042625272162
 20
1.473990642203921
 30
0.0
  9
$LIMMIN
 10
0.0
 20
0.0
  9
$LIMMAX
 10
18.0
 20
12.0
  9
$ORTHOMODE
 70
     1
  9
$REGENMODE
 70
     1
  9
$FILLMODE
 70
     1
  9
$QTEXTMODE
 70
     0
  9
$MIRRTEXT
 70
     0
  9
$DRAGMODE
 70
     2
  9
$LTSCALE
 40
1.0
  9
$OSMODE
 70
    39
  9
$ATTMODE
 70
     1
  9
$TEXTSIZE
 40
0.125
  9
$TRACEWID
 40
0.05
  9
$TEXTSTYLE
  7
ROMANS
  9
$CLAYER
  8
0
  9
$CELTYPE
  6
BYLAYER
  9
$CECOLOR
 62
   256
  9
$CELTSCALE
 40
1.0
  9
$DELOBJ
 70
     1
  9
$DISPSILH
 70
     1
  9
$DIMSCALE
 40
1.0
  9
$DIMASZ
 40
0.125
  9
$DIMEXO
 40
0.125
  9
$DIMDLI
 40
0.375
  9
$DIMRND
 40
0.0
  9
$DIMDLE
 40
0.0
  9
$DIMEXE
 40
0.125
  9
$DIMTP
 40
0.0
  9
$DIMTM
 40
0.0
  9
$DIMTXT
 40
0.125
  9
$DIMCEN
 40
-0.125
  9
$DIMTSZ
 40
0.0
  9
$DIMTOL
 70
     0
  9
$DIMLIM
 70
     0
  9
$DIMTIH
 70
     1
  9
$DIMTOH
 70
     1
  9
$DIMSE1
 70
     0
  9
$DIMSE2
 70
     0
  9
$DIMTAD
 70
     0
  9
$DIMZIN
 70
     4
  9
$DIMBLK
  1

  9
$DIMASO
 70
     1
  9
$DIMSHO
 70
     1
  9
$DIMPOST
  1

  9
$DIMAPOST
  1

  9
$DIMALT
 70
     0
  9
$DIMALTD
 70
     2
  9
$DIMALTF
 40
25.4
  9
$DIMLFAC
 40
1.0
  9
$DIMTOFL
 70
     0
  9
$DIMTVP
 40
0.0
  9
$DIMTIX
 70
     1
  9
$DIMSOXD
 70
     0
  9
$DIMSAH
 70
     0
  9
$DIMBLK1
  1

  9
$DIMBLK2
  1

  9
$DIMSTYLE
  2
STANDARD
  9
$DIMCLRD
 70
     0
  9
$DIMCLRE
 70
     0
  9
$DIMCLRT
 70
     0
  9
$DIMTFAC
 40
1.0
  9
$DIMGAP
 40
0.09
  9
$DIMJUST
 70
     0
  9
$DIMSD1
 70
     0
  9
$DIMSD2
 70
     0
  9
$DIMTOLJ
 70
     1
  9
$DIMTZIN
 70
     4
  9
$DIMALTZ
 70
     0
  9
$DIMALTTZ
 70
     0
  9
$DIMFIT
 70
     3
  9
$DIMUPT
 70
     0
  9
$DIMUNIT
 70
     2
  9
$DIMDEC
 70
     3
  9
$DIMTDEC
 70
     3
  9
$DIMALTU
 70
     2
  9
$DIMALTTD
 70
     2
  9
$DIMTXSTY
  7
ROMANS
  9
$DIMAUNIT
 70
     0
  9
$LUNITS
 70
     2
  9
$LUPREC
 70
     3
  9
$SKETCHINC
 40
0.1
  9
$FILLETRAD
 40
0.03125
  9
$AUNITS
 70
     0
  9
$AUPREC
 70
     0
  9
$MENU
  1
ACAD
  9
$ELEVATION
 40
0.0
  9
$PELEVATION
 40
0.0
  9
$THICKNESS
 40
0.0
  9
$LIMCHECK
 70
     0
  9
$BLIPMODE
 70
     0
  9
$CHAMFERA
 40
0.0
  9
$CHAMFERB
 40
0.0
  9
$CHAMFERC
 40
0.0
  9
$CHAMFERD
 40
0.0
  9
$SKPOLY
 70
     0
  9
$TDCREATE
 40
2448994.460788541
  9
$TDUPDATE
 40
2452458.301253171
  9
$TDINDWG
 40
0.0004775116
  9
$TDUSRTIMER
 40
0.0004775116
  9
$USRTIMER
 70
     1
  9
$ANGBASE
 50
0.0
  9
$ANGDIR
 70
     0
  9
$PDMODE
 70
     0
  9
$PDSIZE
 40
0.0
  9
$PLINEWID
 40
0.0
  9
$COORDS
 70
     2
  9
$SPLFRAME
 70
     0
  9
$SPLINETYPE
 70
     6
  9
$SPLINESEGS
 70
     8
  9
$ATTDIA
 70
     0
  9
$ATTREQ
 70
     1
  9
$HANDLING
 70
 22529
  9
$HANDSEED
  5
7DE1B343D9DCFB0
  9
$SURFTAB1
 70
     6
  9
$SURFTAB2
 70
     6
  9
$SURFTYPE
 70
     6
  9
$SURFU
 70
     6
  9
$SURFV
 70
     6
  9
$UCSNAME
  2

  9
$UCSORG
 10
0.0
 20
0.0
 30
0.0
  9
$UCSXDIR
 10
1.0
 20
0.0
 30
0.0
  9
$UCSYDIR
 10
0.0
 20
1.0
 30
0.0
  9
$PUCSNAME
  2

  9
$PUCSORG
 10
0.0
 20
0.0
 30
0.0
  9
$PUCSXDIR
 10
1.0
 20
0.0
 30
0.0
  9
$PUCSYDIR
 10
0.0
 20
1.0
 30
0.0
  9
$USERI1
 70
     0
  9
$USERI2
 70
     0
  9
$USERI3
 70
     0
  9
$USERI4
 70
     0
  9
$USERI5
 70
     0
  9
$USERR1
 40
0.0
  9
$USERR2
 40
0.0
  9
$USERR3
 40
0.0
  9
$USERR4
 40
0.0
  9
$USERR5
 40
0.0
  9
$WORLDVIEW
 70
     1
  9
$SHADEDGE
 70
     3
  9
$SHADEDIF
 70
    70
  9
$TILEMODE
 70
     1
  9
$MAXACTVP
 70
    16
  9
$PINSBASE
 10
0.7830081057374855
 20
50.00000000000001
 30
0.8384146399837437
  9
$PLIMCHECK
 70
     0
  9
$PEXTMIN
 10
1.000000000000000E+20
 20
1.000000000000000E+20
 30
1.000000000000000E+20
  9
$PEXTMAX
 10
-1.000000000000000E+20
 20
-1.000000000000000E+20
 30
-1.000000000000000E+20
  9
$PLIMMIN
 10
0.0
 20
0.0
  9
$PLIMMAX
 10
12.0
 20
9.0
  9
$UNITMODE
 70
     0
  9
$VISRETAIN
 70
     0
  9
$PLINEGEN
 70
     1
  9
$PSLTSCALE
 70
     0
  9
$TREEDEPTH
 70
  3020
  9
$PICKSTYLE
 70
     1
  9
$CMLSTYLE
  2
STANDARD
  9
$CMLJUST
 70
     0
  9
$CMLSCALE
 40
1.0
  9
$PROXYGRAPHICS
 70
     1
  9
$MEASUREMENT
 70
     0
  0
ENDSEC
  0
SECTION
  2
CLASSES
  0
CLASS
  1
LWPOLYLINE
  2
AcDbPolyline
  3
AutoCAD 2000
 90
        0
280
     0
281
     1
  0
CLASS
  1
ACDBDICTIONARYWDFLT
  2
AcDbDictionaryWithDefault
  3
AutoCAD 2000
 90
        0
280
     0
281
     0
  0
CLASS
  1
ACDBPLACEHOLDER
  2
AcDbPlaceHolder
  3
AutoCAD 2000
 90
        0
280
     0
281
     0
  0
CLASS
  1
LAYOUT
  2
AcDbLayout
  3
AutoCAD 2000
 90
        0
280
     0
281
     0
  0
CLASS
  1
DICTIONARYVAR
  2
AcDbDictionaryVar
  3
AutoCAD 2000
 90
        0
280
     0
281
     0
  0
CLASS
  1
LONG_TRANSACTION
  2
AcDbLongTransaction
  3
AutoCAD 2000
 90
        0
280
     0
281
     0
  0
CLASS
  1
LWPOLYLINE
  2
AcDbPolyline
  3
AutoCAD 2000
 90
        0
280
     0
281
     1
  0
CLASS
  1
HATCH
  2
AcDbHatch
  3
AutoCAD 2000
 90
        0
280
     0
281
     1
  0
CLASS
  1
XRECORD
  2
AcDbXrecord
  3
AutoCAD 2000
 90
        0
280
     0
281
     0
  0
ENDSEC
  0
SECTION
  2
TABLES
  0
TABLE
  2
VPORT
  5
7DE1B343D9DCF57
330
0
100
AcDbSymbolTable
 70
     2
  0
VPORT
  5
7DE1B343D9DCF8B
330
7DE1B343D9DCF57
100
AcDbSymbolTableRecord
100
AcDbViewportTableRecord
  2
*ACTIVE
 70
     0
 10
0.0
 20
0.0
 11
1.0
 21
1.0
 12
4.589430487931876
 22
0.8597717504712889
 13
0.0
 23
0.0
 14
0.015625
 24
0.015625
 15
0.0
 25
0.0
 16
0.0
 26
0.0
 36
1.0
 17
0.0
 27
0.0
 37
0.0
 40
2.28285576355073
 41
4.320930232558139
 42
50.0
 43
0.0
 44
0.0
 50
0.0
 51
0.0
 71
     0
 72
  2000
 73
     1
 74
     0
 75
     0
 76
     0
 77
     0
 78
     0
  0
ENDTAB
  0
TABLE
  2
LTYPE
  5
7DE1B343D9DCF54
330
0
100
AcDbSymbolTable
 70
     1
  0
LTYPE
  5
7DE1B343D9DCF61
330
7DE1B343D9DCF54
100
AcDbSymbolTableRecord
100
AcDbLinetypeTableRecord
  2
BYBLOCK
 70
     0
  3

 72
    65
 73
     0
 40
0.0
  0
LTYPE
  5
7DE1B343D9DCF62
330
7DE1B343D9DCF54
100
AcDbSymbolTableRecord
100
AcDbLinetypeTableRecord
  2
BYLAYER
 70
     0
  3

 72
    65
 73
     0
 40
0.0
  0
LTYPE
  5
7DE1B343D9DCF63
330
7DE1B343D9DCF54
100
AcDbSymbolTableRecord
100
AcDbLinetypeTableRecord
  2
CONTINUOUS
 70
     0
  3
Solid line
 72
    65
 73
     0
 40
0.0
  0
ENDTAB
  0
TABLE
  2
LAYER
  5
7DE1B343D9DCF51
330
0
100
AcDbSymbolTable
 70
     2
  0
LAYER
  5
7DE1B343D9DCF5E
330
7DE1B343D9DCF51
100
AcDbSymbolTableRecord
100
AcDbLayerTableRecord
  2
0
 70
     0
 62
     7
  6
CONTINUOUS
  0
LAYER
  5
7DE1B343D9DCF6E
330
7DE1B343D9DCF51
100
AcDbSymbolTableRecord
100
AcDbLayerTableRecord
  2
TEXT
 70
     0
 62
     3
  6
CONTINUOUS
  0
ENDTAB
  0
TABLE
  2
STYLE
  5
7DE1B343D9DCF52
330
0
100
AcDbSymbolTable
 70
     3
  0
STYLE
  5
7DE1B343D9DCF5F
330
7DE1B343D9DCF52
100
AcDbSymbolTableRecord
100
AcDbTextStyleTableRecord
  2
STANDARD
 70
     0
 40
0.0
 41
1.0
 50
0.0
 71
     0
 42
0.3125
  3
txt
  4

  0
STYLE
  5
7DE1B343D9DCF6B
330
7DE1B343D9DCF52
100
AcDbSymbolTableRecord
100
AcDbTextStyleTableRecord
  2
ITALICC
 70
     0
 40
0.0
 41
1.0
 50
0.0
 71
     0
 42
0.125
  3
italicc
  4

  0
STYLE
  5
7DE1B343D9DCF7B
330
7DE1B343D9DCF52
100
AcDbSymbolTableRecord
100
AcDbTextStyleTableRecord
  2
ROMANS
 70
     0
 40
0.0
 41
1.0
 50
0.0
 71
     0
 42
0.125
  3
romans.shx
  4

  0
ENDTAB
  0
TABLE
  2
VIEW
  5
7DE1B343D9DCF55
330
0
100
AcDbSymbolTable
 70
     0
  0
ENDTAB
  0
TABLE
  2
UCS
  5
7DE1B343D9DCF56
330
0
100
AcDbSymbolTable
 70
     0
  0
ENDTAB
  0
TABLE
  2
APPID
  5
7DE1B343D9DCF58
330
0
100
AcDbSymbolTable
 70
     1
  0
APPID
  5
7DE1B343D9DCF60
330
7DE1B343D9DCF58
100
AcDbSymbolTableRecord
100
AcDbRegAppTableRecord
  2
ACAD
 70
     0
  0
ENDTAB
  0
TABLE
  2
DIMSTYLE
  5
7DE1B343D9DCF59
330
0
100
AcDbSymbolTable
 70
     1
  0
DIMSTYLE
105
7DE1B343D9DCF73
330
7DE1B343D9DCF59
100
AcDbSymbolTableRecord
100
AcDbDimStyleTableRecord
  2
STANDARD
 70
     0
  3

  4

  5

  6

  7

 40
1.0
 41
0.125
 42
0.125
 43
0.375
 44
0.125
 45
0.0
 46
0.0
 47
0.0
 48
0.0
140
0.125
141
-0.125
142
0.0
143
25.4
144
1.0
145
0.0
146
1.0
147
0.09
 71
     0
 72
     0
 73
     1
 74
     1
 75
     0
 76
     0
 77
     0
 78
     4
170
     0
171
     2
172
     0
173
     0
174
     1
175
     0
176
     0
177
     0
178
     0
270
     2
271
     3
272
     3
273
     2
274
     2
340
7DE1B343D9DCF7B
275
     0
280
     0
281
     0
282
     0
283
     1
284
     4
285
     0
286
     0
287
     3
288
     0
  0
ENDTAB
  0
TABLE
  2
BLOCK_RECORD
  5
7DE1B343D9DCF50
330
0
100
AcDbSymbolTable
 70
     0
  0
BLOCK_RECORD
  5
7DE1B343D9DCF67
102
{ACAD_XDICTIONARY
360
7DE1B343D9DCFAE
102
}
330
7DE1B343D9DCF50
100
AcDbSymbolTableRecord
100
AcDbBlockTableRecord
  2
*MODEL_SPACE
  0
BLOCK_RECORD
  5
7DE1B343D9DCF64
102
{ACAD_XDICTIONARY
360
7DE1B343D9DCFAC
102
}
330
7DE1B343D9DCF50
100
AcDbSymbolTableRecord
100
AcDbBlockTableRecord
  2
*PAPER_SPACE
  0
ENDTAB
  0
ENDSEC
  0
SECTION
  2
BLOCKS
  0
BLOCK
  5
7DE1B343D9DCF71
330
7DE1B343D9DCF67
100
AcDbEntity
  8
0
100
AcDbBlockBegin
  2
*MODEL_SPACE
 70
     0
 10
0.0
 20
0.0
 30
0.0
  3
*MODEL_SPACE
  1

  0
ENDBLK
  5
7DE1B343D9DCF72
330
7DE1B343D9DCF67
100
AcDbEntity
  8
0
100
AcDbBlockEnd
  0
BLOCK
  5
7DE1B343D9DCF6F
330
7DE1B343D9DCF64
100
AcDbEntity
 67
     1
  8
0
100
AcDbBlockBegin
  2
*PAPER_SPACE
 70
     0
 10
0.0
 20
0.0
 30
0.0
  3
*PAPER_SPACE
  1

  0
ENDBLK
  5
7DE1B343D9DCF70
330
7DE1B343D9DCF64
100
AcDbEntity
 67
     1
  8
0
100
AcDbBlockEnd
  0
ENDSEC
  0
SECTION
  2
ENTITIES
  0
LWPOLYLINE
  5
7DE1B343D9DB9C3
330
7DE1B343D9DCF67
100
AcDbEntity
  8
0
100
AcDbPolyline
 90
       15
 70
     1
 43
0.0
 10
1.843489969710623
 20
1.286490642203921
 10
2.218489969710623
 20
1.286490642203921
 10
2.218489969710623
 20
1.005240642203921
 10
2.155989969710623
 20
1.005240642203921
 10
2.155989969710623
 20
1.223990642203921
 10
1.446989969710623
 20
1.223990642203921
 10
1.436989969710623
 20
1.233990642203921
 10
1.426989969710623
 20
1.223990642203921
 10
1.093489969710623
 20
1.223990642203921
 10
1.093489969710623
 20
1.005240642203921
 10
1.030989969710623
 20
1.005240642203921
 10
1.030989969710623
 20
1.286490642203921
 10
1.780989969710623
 20
1.286490642203921
 10
1.780989969710623
 20
1.473990642203921
 10
1.843489969710623
 20
1.473990642203921
  0
TEXT
  5
7DE1B343D9DCE12
330
7DE1B343D9DCF67
100
AcDbEntity
  8
TEXT
100
AcDbText
 10
0.8598286922759873
 20
0.7037932742280539
 30
0.0
 40
0.125
  1
PART #110216
  7
ITALICC
 72
     1
 11
1.612804882752177
 21
0.7037932742280539
 31
0.0
100
AcDbText
  0
TEXT
  5
7DE1B343D9DCE13
330
7DE1B343D9DCF67
100
AcDbEntity
  8
TEXT
100
AcDbText
 10
2.026110041002498
 20
0.2568706315556788
 30
0.0
 40
0.0522247191011236
  1
Phone  1-800-328-2495
 41
1.272321428571429
 72
     5
 11
3.355042625272162
 21
0.2568706315556788
 31
0.0
100
AcDbText
  0
TEXT
  5
7DE1B343D9DCE14
330
7DE1B343D9DCF67
100
AcDbEntity
  8
TEXT
100
AcDbText
 10
2.026110041002498
 20
0.5366459124545554
 30
0.0
 40
0.0522247191011236
  1
Stylmark  Incorporated
 41
1.221428571428573
 72
     5
 11
3.355042625272162
 21
0.5366459124545554
 31
0.0
100
AcDbText
  0
TEXT
  5
7DE1B343D9DCE15
330
7DE1B343D9DCF67
100
AcDbEntity
  8
TEXT
100
AcDbText
 10
2.026110041002498
 20
0.4433874854882632
 30
0.0
 40
0.0522247191011236
  1
6536 Main St. N.E. * P.O. Box 32008
 41
0.8388932496075366
 72
     5
 11
3.355042625272162
 21
0.4433874854882632
 31
0.0
100
AcDbText
  0
TEXT
  5
7DE1B343D9DCE16
330
7DE1B343D9DCF67
100
AcDbEntity
  8
TEXT
100
AcDbText
 10
2.026110041002498
 20
0.350129058521971
 30
0.0
 40
0.0522247191011236
  1
Minneapolis, MN 55432-0008
 41
1.11444212721585
 72
     5
 11
3.355042625272162
 21
0.350129058521971
 31
0.0
100
AcDbText
  0
LWPOLYLINE
  5
7DE1B343D9DCE17
330
7DE1B343D9DCF67
100
AcDbEntity
  8
TEXT
100
AcDbPolyline
 90
        3
 70
     0
 43
0.0006660908203125
 10
-0.1298436510648093
 20
0.3705153941931136
 10
-0.1298436510648093
 20
0.257279954739986
 10
-0.016608211611687
 20
0.257279954739986
  0
LWPOLYLINE
  5
7DE1B343D9DCE1C
330
7DE1B343D9DCF67
100
AcDbEntity
  8
TEXT
100
AcDbPolyline
 90
        3
 70
     0
 43
0.0006660908203125
 10
-0.1032000182523118
 20
0.3705153941931136
 10
-0.1032000182523118
 20
0.283923587552487
 10
-0.016608211611687
 20
0.283923587552487
  0
LWPOLYLINE
  5
7DE1B343D9DCE21
330
7DE1B343D9DCF67
100
AcDbEntity
  8
TEXT
100
AcDbPolyline
 90
        2
 70
     0
 43
0.0001332181640625
 10
-0.056573660830435
 20
0.3805067564977989
 10
-0.1298436510648093
 20
0.3705153941931136
  0
LWPOLYLINE
  5
7DE1B343D9DCE25
330
7DE1B343D9DCF67
100
AcDbEntity
  8
TEXT
100
AcDbPolyline
 90
        2
 70
     0
 43
0.0001332181640625
 10
-0.1032000182523118
 20
0.3705153941931136
 10
-0.0432518444241845
 20
0.3805067564977989
  0
LWPOLYLINE
  5
7DE1B343D9DCE29
330
7DE1B343D9DCF67
100
AcDbEntity
  8
TEXT
100
AcDbPolyline
 90
        2
 70
     0
 43
0.0001332181640625
 10
-0.1032000182523118
 20
0.283923587552487
 10
-0.0432518444241845
 20
0.3438717613806126
  0
LWPOLYLINE
  5
7DE1B343D9DCE2D
330
7DE1B343D9DCF67
100
AcDbEntity
  8
TEXT
100
AcDbPolyline
 90
        3
 70
     0
 43
0.0006660908203125
 10
-0.016608211611687
 20
0.5237162828649894
 10
-0.1298436510648093
 20
0.5237162828649894
 10
-0.1298436510648093
 20
0.4104808434118617
  0
LWPOLYLINE
  5
7DE1B343D9DCE32
330
7DE1B343D9DCF67
100
AcDbEntity
  8
TEXT
100
AcDbPolyline
 90
        3
 70
     0
 43
0.0006660908203125
 10
-0.016608211611687
 20
0.4970726500524883
 10
-0.1032000182523118
 20
0.4970726500524883
 10
-0.1032000182523118
 20
0.4104808434118617
  0
LWPOLYLINE
  5
7DE1B343D9DCE37
330
7DE1B343D9DCF67
100
AcDbEntity
  8
TEXT
100
AcDbPolyline
 90
        2
 70
     0
 43
0.0001332181640625
 10
-0.1032000182523118
 20
0.4970726500524883
 10
-0.0432518444241863
 20
0.4371244762243628
  0
LWPOLYLINE
  5
7DE1B343D9DCE3B
330
7DE1B343D9DCF67
100
AcDbEntity
  8
TEXT
100
AcDbPolyline
 90
        2
 70
     0
 43
0.0001332181640625
 10
-0.1032000182523118
 20
0.4104808434118617
 10
-0.0432518444241863
 20
0.4004894811071729
  0
LWPOLYLINE
  5
7DE1B343D9DCE3F
330
7DE1B343D9DCF67
100
AcDbEntity
  8
TEXT
100
AcDbPolyline
 90
        2
 70
     0
 43
0.0001332181640625
 10
-0.1298436510648093
 20
0.4104808434118617
 10
-0.056573660830435
 20
0.4004894811071729
  0
LWPOLYLINE
  5
7DE1B343D9DCE43
330
7DE1B343D9DCF67
100
AcDbEntity
  8
TEXT
100
AcDbPolyline
 90
        2
 70
     0
 43
0.0006660908203125
 10
-0.1032000182523118
 20
0.3705153941931136
 10
-0.1298436510648093
 20
0.3705153941931136
  0
LWPOLYLINE
  5
7DE1B343D9DCE47
330
7DE1B343D9DCF67
100
AcDbEntity
  8
TEXT
100
AcDbPolyline
 90
        2
 70
     0
 43
0.0006660908203125
 10
-0.1032000182523118
 20
0.4104808434118617
 10
-0.1298436510648093
 20
0.4104808434118617
  0
LINE
  5
7DE1B343D9DCE4B
330
7DE1B343D9DCF67
100
AcDbEntity
  8
TEXT
100
AcDbLine
 10
1.385346778061688
 20
0.4594395882082204
 30
0.0
 11
1.278140504674398
 21
0.4594395882082204
 31
0.0
  0
LINE
  5
7DE1B343D9DCE4C
330
7DE1B343D9DCF67
100
AcDbEntity
  8
TEXT
100
AcDbLine
 10
1.414377676406166
 20
0.5237162828649858
 30
0.0
 11
1.279545767189107
 21
0.5237162828649858
 31
0.0
  0
ARC
  5
7DE1B343D9DCE4D
330
7DE1B343D9DCF67
100
AcDbEntity
  8
TEXT
100
AcDbCircle
 10
1.338859863582424
 20
0.3544790336019694
 30
0.0
 40
0.0676855811441166
100
AcDbArc
 50
90.0
 51
153.7768192527749
  0
LWPOLYLINE
  5
7DE1B343D9DCE4E
330
7DE1B343D9DCF67
100
AcDbEntity
  8
TEXT
100
AcDbPolyline
 90
        2
 70
     0
 43
0.0
 10
1.277108009219588
 20
0.3007341948269129
 42
0.2901071551932823
 10
1.320183942087224
 20
0.2572432498764747
 42
5.328517124445801
  0
ARC
  5
7DE1B343D9DCE52
330
7DE1B343D9DCF67
100
AcDbEntity
  8
TEXT
100
AcDbCircle
 10
0.6337284859109387
 20
0.3170356412145245
 30
0.0
 40
0.0601160179737537
100
AcDbArc
 50
180.0000000000003
 51
264.0521544866073
  0
LINE
  5
7DE1B343D9DCE53
330
7DE1B343D9DCF67
100
AcDbEntity
  8
TEXT
100
AcDbLine
 10
0.6372438415364865
 20
0.558104200459124
 30
0.0
 11
0.5772012366924795
 21
0.558104200459124
 31
0.0
  0
ARC
  5
7DE1B343D9DCE54
330
7DE1B343D9DCF67
100
AcDbEntity
  8
TEXT
100
AcDbCircle
 10
0.4014694837939681
 20
0.4416288234184841
 30
0.0
 40
0.0820874594465043
100
AcDbArc
 50
90.0
 51
270.0
  0
LWPOLYLINE
  5
7DE1B343D9DCE55
330
7DE1B343D9DCF67
100
AcDbEntity
  8
TEXT
100
AcDbPolyline
 90
        2
 70
     0
 43
0.0001332181640625
 10
-0.0066168493069965
 20
0.4504462926306097
 10
-0.016608211611687
 20
0.5237162828649894
  0
LWPOLYLINE
  5
7DE1B343D9DCE59
330
7DE1B343D9DCF67
100
AcDbEntity
  8
TEXT
100
AcDbPolyline
 90
        2
 70
     0
 43
0.0001332181640625
 10
-0.016608211611687
 20
0.4970726500524883
 10
-0.0066168493069965
 20
0.4371244762243628
  0
LWPOLYLINE
  5
7DE1B343D9DCE5D
330
7DE1B343D9DCF67
100
AcDbEntity
  8
TEXT
100
AcDbPolyline
 90
        3
 70
     0
 43
0.0006660908203125
 10
0.1365926770601904
 20
0.4104808434118617
 10
0.1365926770601904
 20
0.5237162828649894
 10
0.0233572376070646
 20
0.5237162828649894
  0
LWPOLYLINE
  5
7DE1B343D9DCE62
330
7DE1B343D9DCF67
100
AcDbEntity
  8
TEXT
100
AcDbPolyline
 90
        3
 70
     0
 43
0.0006660908203125
 10
0.1099490442476894
 20
0.4104808434118617
 10
0.1099490442476894
 20
0.4970726500524883
 10
0.0233572376070646
 20
0.4970726500524883
  0
LWPOLYLINE
  5
7DE1B343D9DCE67
330
7DE1B343D9DCF67
100
AcDbEntity
  8
TEXT
100
AcDbPolyline
 90
        2
 70
     0
 43
0.0001332181640625
 10
0.1099490442476894
 20
0.4970726500524883
 10
0.0500008704195656
 20
0.4371244762243628
  0
LWPOLYLINE
  5
7DE1B343D9DCE6B
330
7DE1B343D9DCF67
100
AcDbEntity
  8
TEXT
100
AcDbPolyline
 90
        2
 70
     0
 43
0.0001332181640625
 10
0.0233572376070646
 20
0.4970726500524883
 10
0.0133658753023758
 20
0.4371244762243628
  0
LWPOLYLINE
  5
7DE1B343D9DCE6F
330
7DE1B343D9DCF67
100
AcDbEntity
  8
TEXT
100
AcDbPolyline
 90
        2
 70
     0
 43
0.0001332181640625
 10
0.0233572376070646
 20
0.5237162828649894
 10
0.0133658753023758
 20
0.4504462926306097
  0
LWPOLYLINE
  5
7DE1B343D9DCE73
330
7DE1B343D9DCF67
100
AcDbEntity
  8
TEXT
100
AcDbPolyline
 90
        2
 70
     0
 43
0.0001332181640625
 10
0.0633226868258143
 20
0.4004894811071729
 10
0.1365926770601904
 20
0.4104808434118617
  0
LWPOLYLINE
  5
7DE1B343D9DCE77
330
7DE1B343D9DCF67
100
AcDbEntity
  8
TEXT
100
AcDbPolyline
 90
        2
 70
     0
 43
0.0001332181640625
 10
0.1099490442476894
 20
0.4104808434118617
 10
0.0500008704195656
 20
0.4004894811071729
  0
LWPOLYLINE
  5
7DE1B343D9DCE7B
330
7DE1B343D9DCF67
100
AcDbEntity
  8
TEXT
100
AcDbPolyline
 90
        2
 70
     0
 43
0.0001332181640625
 10
0.1365926770601904
 20
0.3705153941931136
 10
0.0633226868258143
 20
0.3805067564977989
  0
LWPOLYLINE
  5
7DE1B343D9DCE7F
330
7DE1B343D9DCF67
100
AcDbEntity
  8
TEXT
100
AcDbPolyline
 90
        2
 70
     0
 43
0.0001332181640625
 10
0.1099490442476894
 20
0.3705153941931136
 10
0.0500008704195656
 20
0.3805067564977989
  0
LWPOLYLINE
  5
7DE1B343D9DCE83
330
7DE1B343D9DCF67
100
AcDbEntity
  8
TEXT
100
AcDbPolyline
 90
        2
 70
     0
 43
0.0001332181640625
 10
0.1099490442476894
 20
0.283923587552487
 10
0.0500008704195656
 20
0.3438717613806126
  0
LWPOLYLINE
  5
7DE1B343D9DCE87
330
7DE1B343D9DCF67
100
AcDbEntity
  8
TEXT
100
AcDbPolyline
 90
        3
 70
     0
 43
0.0006660908203125
 10
0.0233572376070646
 20
0.283923587552487
 10
0.1099490442476894
 20
0.283923587552487
 10
0.1099490442476894
 20
0.3705153941931136
  0
LWPOLYLINE
  5
7DE1B343D9DCE8C
330
7DE1B343D9DCF67
100
AcDbEntity
  8
TEXT
100
AcDbPolyline
 90
        3
 70
     0
 43
0.0006660908203125
 10
0.0233572376070646
 20
0.257279954739986
 10
0.1365926770601904
 20
0.257279954739986
 10
0.1365926770601904
 20
0.3705153941931136
  0
LWPOLYLINE
  5
7DE1B343D9DCE91
330
7DE1B343D9DCF67
100
AcDbEntity
  8
TEXT
100
AcDbPolyline
 90
        5
 70
     0
 43
0.0001332181640625
 10
-0.0066168493069965
 20
0.3305499449743621
 10
-0.0066168493069965
 20
0.3438717613806126
 10
-0.0432518444241845
 20
0.3438717613806126
 10
-0.0432518444241845
 20
0.3805067564977989
 10
-0.056573660830435
 20
0.3805067564977989
  0
LWPOLYLINE
  5
7DE1B343D9DCE98
330
7DE1B343D9DCF67
100
AcDbEntity
  8
TEXT
100
AcDbPolyline
 90
        2
 70
     0
 43
0.0006660908203125
 10
-0.016608211611687
 20
0.283923587552487
 10
-0.016608211611687
 20
0.257279954739986
  0
LWPOLYLINE
  5
7DE1B343D9DCE9C
330
7DE1B343D9DCF67
100
AcDbEntity
  8
TEXT
100
AcDbPolyline
 90
        2
 70
     0
 43
0.0001332181640625
 10
-0.016608211611687
 20
0.283923587552487
 10
-0.0066168493069965
 20
0.3438717613806126
  0
LWPOLYLINE
  5
7DE1B343D9DCEA0
330
7DE1B343D9DCF67
100
AcDbEntity
  8
TEXT
100
AcDbPolyline
 90
        2
 70
     0
 43
0.0001332181640625
 10
-0.016608211611687
 20
0.257279954739986
 10
-0.0066168493069965
 20
0.3305499449743621
  0
LWPOLYLINE
  5
7DE1B343D9DCEA4
330
7DE1B343D9DCF67
100
AcDbEntity
  8
TEXT
100
AcDbPolyline
 90
        5
 70
     0
 43
0.0001332181640625
 10
-0.056573660830435
 20
0.4004894811071729
 10
-0.0432518444241863
 20
0.4004894811071729
 10
-0.0432518444241863
 20
0.4371244762243628
 10
-0.0066168493069965
 20
0.4371244762243628
 10
-0.0066168493069965
 20
0.4504462926306097
  0
LWPOLYLINE
  5
7DE1B343D9DCEAB
330
7DE1B343D9DCF67
100
AcDbEntity
  8
TEXT
100
AcDbPolyline
 90
        5
 70
     0
 43
0.0001332181640625
 10
0.0133658753023758
 20
0.4504462926306097
 10
0.0133658753023758
 20
0.4371244762243628
 10
0.0500008704195656
 20
0.4371244762243628
 10
0.0500008704195656
 20
0.4004894811071729
 10
0.0633226868258143
 20
0.4004894811071729
  0
LWPOLYLINE
  5
7DE1B343D9DCEB2
330
7DE1B343D9DCF67
100
AcDbEntity
  8
TEXT
100
AcDbPolyline
 90
        2
 70
     0
 43
0.0001332181640625
 10
0.0233572376070646
 20
0.283923587552487
 10
0.0133658753023758
 20
0.3438717613806126
  0
LWPOLYLINE
  5
7DE1B343D9DCEB6
330
7DE1B343D9DCF67
100
AcDbEntity
  8
TEXT
100
AcDbPolyline
 90
        2
 70
     0
 43
0.0001332181640625
 10
0.0133658753023758
 20
0.3305499449743621
 10
0.0233572376070646
 20
0.257279954739986
  0
LWPOLYLINE
  5
7DE1B343D9DCEBA
330
7DE1B343D9DCF67
100
AcDbEntity
  8
TEXT
100
AcDbPolyline
 90
        2
 70
     0
 43
0.0006660908203125
 10
0.0233572376070646
 20
0.283923587552487
 10
0.0233572376070646
 20
0.257279954739986
  0
LWPOLYLINE
  5
7DE1B343D9DCEBE
330
7DE1B343D9DCF67
100
AcDbEntity
  8
TEXT
100
AcDbPolyline
 90
        5
 70
     0
 43
0.0001332181640625
 10
0.0633226868258143
 20
0.3805067564977989
 10
0.0500008704195656
 20
0.3805067564977989
 10
0.0500008704195656
 20
0.3438717613806126
 10
0.0133658753023758
 20
0.3438717613806126
 10
0.0133658753023758
 20
0.3305499449743621
  0
LWPOLYLINE
  5
7DE1B343D9DCEC5
330
7DE1B343D9DCF67
100
AcDbEntity
  8
TEXT
100
AcDbPolyline
 90
        2
 70
     0
 43
0.0006660908203125
 10
0.1099490442476894
 20
0.4104808434118617
 10
0.1365926770601904
 20
0.4104808434118617
  0
LWPOLYLINE
  5
7DE1B343D9DCEC9
330
7DE1B343D9DCF67
100
AcDbEntity
  8
TEXT
100
AcDbPolyline
 90
        2
 70
     0
 43
0.0006660908203125
 10
0.1099490442476894
 20
0.3705153941931136
 10
0.1365926770601904
 20
0.3705153941931136
  0
LINE
  5
7DE1B343D9DCECD
330
7DE1B343D9DCF67
100
AcDbEntity
  8
TEXT
100
AcDbLine
 10
0.4067068139082153
 20
0.4594395882082204
 30
0.0
 11
0.5736124679371866
 21
0.4594395882082204
 31
0.0
  0
LINE
  5
7DE1B343D9DCECE
330
7DE1B343D9DCF67
100
AcDbEntity
  8
TEXT
100
AcDbLine
 10
0.4723069501525164
 20
0.4236348665975925
 30
0.0
 11
0.4067068139082153
 21
0.4236348665975925
 31
0.0
  0
LINE
  5
7DE1B343D9DCECF
330
7DE1B343D9DCF67
100
AcDbEntity
  8
TEXT
100
AcDbLine
 10
0.3193820243474636
 20
0.2572432498764747
 30
0.0
 11
0.4723069501525164
 21
0.2572432498764747
 31
0.0
  0
LINE
  5
7DE1B343D9DCED0
330
7DE1B343D9DCF67
100
AcDbEntity
  8
TEXT
100
AcDbLine
 10
0.477247324058796
 20
0.3256002562099141
 30
0.0
 11
0.3193820243474619
 21
0.3256002562099141
 31
0.0
  0
LINE
  5
7DE1B343D9DCED1
330
7DE1B343D9DCF67
100
AcDbEntity
  8
TEXT
100
AcDbLine
 10
0.4014694837939672
 20
0.3595413639719787
 30
0.0
 11
0.477247324058796
 21
0.3595413639719787
 31
0.0
  0
ARC
  5
7DE1B343D9DCED2
330
7DE1B343D9DCF67
100
AcDbEntity
  8
TEXT
100
AcDbCircle
 10
0.4067068139082162
 20
0.4415372274029082
 30
0.0
 40
0.017902360805315
100
AcDbArc
 50
90.0
 51
270.0
  0
LINE
  5
7DE1B343D9DCED3
330
7DE1B343D9DCF67
100
AcDbEntity
  8
TEXT
100
AcDbLine
 10
0.3193820243474619
 20
0.3256002562099141
 30
0.0
 11
0.3193820243474636
 21
0.2572432498764747
 31
0.0
  0
LINE
  5
7DE1B343D9DCED4
330
7DE1B343D9DCF67
100
AcDbEntity
  8
TEXT
100
AcDbLine
 10
0.5736124679371866
 20
0.4594395882082204
 30
0.0
 11
0.5736124679371866
 21
0.3170356412145245
 31
0.0
  0
ARC
  5
7DE1B343D9DCED5
330
7DE1B343D9DCF67
100
AcDbEntity
  8
TEXT
100
AcDbCircle
 10
0.4723069501525173
 20
0.3404390582370318
 30
0.0
 40
0.0831958083605586
100
AcDbArc
 50
270.0
 51
90.0
  0
ARC
  5
7DE1B343D9DCED6
330
7DE1B343D9DCF67
100
AcDbEntity
  8
TEXT
100
AcDbCircle
 10
0.4772473240587969
 20
0.3425708100909481
 30
0.0
 40
0.0169705538810321
100
AcDbArc
 50
270.0
 51
90.0
  0
LWPOLYLINE
  5
7DE1B343D9DCED7
330
7DE1B343D9DCF67
100
AcDbEntity
  8
TEXT
100
AcDbPolyline
 90
        2
 70
     0
 43
0.0006660908203125
 10
-0.016608211611687
 20
0.4970726500524883
 10
-0.016608211611687
 20
0.5237162828649894
  0
LWPOLYLINE
  5
7DE1B343D9DCEDB
330
7DE1B343D9DCF67
100
AcDbEntity
  8
TEXT
100
AcDbPolyline
 90
        2
 70
     0
 43
0.0006660908203125
 10
0.0233572376070646
 20
0.4970726500524883
 10
0.0233572376070646
 20
0.5237162828649894
  0
LINE
  5
7DE1B343D9DCEDF
330
7DE1B343D9DCF67
100
AcDbEntity
  8
TEXT
100
AcDbLine
 10
0.5772012366924795
 20
0.5237162828649858
 30
0.0
 11
0.4014694837939672
 21
0.5237162828649858
 31
0.0
  0
LINE
  5
7DE1B343D9DCEE0
330
7DE1B343D9DCF67
100
AcDbEntity
  8
TEXT
100
AcDbLine
 10
0.5772012366924795
 20
0.558104200459124
 30
0.0
 11
0.5772012366924795
 21
0.5237162828649858
 31
0.0
  0
LINE
  5
7DE1B343D9DCEE1
330
7DE1B343D9DCF67
100
AcDbEntity
  8
TEXT
100
AcDbLine
 10
0.7676731287123318
 20
0.4228442867518652
 30
0.0
 11
0.7090428076803939
 21
0.5237162828649858
 31
0.0
  0
LINE
  5
7DE1B343D9DCEE2
330
7DE1B343D9DCF67
100
AcDbEntity
  8
TEXT
100
AcDbLine
 10
0.8264216915181972
 20
0.5237162828649858
 30
0.0
 11
0.7676731287123318
 21
0.4228442867518652
 31
0.0
  0
LINE
  5
7DE1B343D9DCEE3
330
7DE1B343D9DCF67
100
AcDbEntity
  8
TEXT
100
AcDbLine
 10
0.9233523168779385
 20
0.3396310879794739
 30
0.0
 11
0.9233523168779385
 21
0.5917277606037964
 31
0.0
  0
LINE
  5
7DE1B343D9DCEE4
330
7DE1B343D9DCF67
100
AcDbEntity
  8
TEXT
100
AcDbLine
 10
0.9556641710155986
 20
0.5237162828649858
 30
0.0
 11
0.9556641710155986
 21
0.3228520761325775
 31
0.0
  0
LINE
  5
7DE1B343D9DCEE5
330
7DE1B343D9DCF67
100
AcDbEntity
  8
TEXT
100
AcDbLine
 10
0.9556641710155986
 20
0.3228520761325775
 30
0.0
 11
0.9386705341309973
 21
0.3228520761325775
 31
0.0
  0
LINE
  5
7DE1B343D9DCEE6
330
7DE1B343D9DCF67
100
AcDbEntity
  8
TEXT
100
AcDbLine
 10
0.9244918903741332
 20
0.2572432498764747
 30
0.0
 11
1.022495224073567
 21
0.2572432498764747
 31
0.0
  0
LINE
  5
7DE1B343D9DCEE7
330
7DE1B343D9DCF67
100
AcDbEntity
  8
TEXT
100
AcDbLine
 10
0.7580728917153774
 20
0.2772017559814877
 30
0.0
 11
0.855372597808822
 21
0.4415519669167559
 31
0.0
  0
ARC
  5
7DE1B343D9DCEE8
330
7DE1B343D9DCF67
100
AcDbEntity
  8
TEXT
100
AcDbCircle
 10
0.7240293318031635
 20
0.2967909721501705
 30
0.0
 40
0.0392772371940762
100
AcDbArc
 50
270.1604552698595
 51
330.0831797321295
  0
LINE
  5
7DE1B343D9DCEE9
330
7DE1B343D9DCF67
100
AcDbEntity
  8
TEXT
100
AcDbLine
 10
0.6274990754172923
 20
0.2572432498764747
 30
0.0
 11
0.7241393264922867
 21
0.257513888974757
 31
0.0
  0
LWPOLYLINE
  5
7DE1B343D9DCEEA
330
7DE1B343D9DCF67
100
AcDbEntity
  8
TEXT
100
AcDbPolyline
 90
        6
 70
     1
 43
0.0
 10
0.6700228789924419
 20
0.4594395882082204
 10
0.6397062847722337
 20
0.4594395882082204
 10
0.6397062847722337
 20
0.3363285901533259
 42
0.407328721240804
 10
0.6512499359337101
 20
0.3245096754769399
 10
0.7118716349784409
 20
0.3245096754769399
 10
0.7293369753857589
 20
0.357321904520419
  0
LINE
  5
7DE1B343D9DCEF2
330
7DE1B343D9DCF67
100
AcDbEntity
  8
TEXT
100
AcDbLine
 10
0.855372597808822
 20
0.4415519669167559
 30
0.0
 11
0.855372597808822
 21
0.3087945920913995
 31
0.0
  0
ARC
  5
7DE1B343D9DCEF3
330
7DE1B343D9DCF67
100
AcDbEntity
  8
TEXT
100
AcDbCircle
 10
0.9386705341309955
 20
0.3382338823760029
 30
0.0
 40
0.0153818062434269
100
AcDbArc
 50
174.7883570302258
 51
270.0
  0
LWPOLYLINE
  5
7DE1B343D9DCEF4
330
7DE1B343D9DCF67
100
AcDbEntity
  8
TEXT
100
AcDbPolyline
 90
        2
 70
     0
 43
0.0
 10
0.8553725978088202
 20
0.308794592091403
 42
0.3318488747599744
 10
0.9244918903741332
 20
0.2572432498764747
 42
-6.868794160588311
  0
LINE
  5
7DE1B343D9DCEF8
330
7DE1B343D9DCF67
100
AcDbEntity
  8
TEXT
100
AcDbLine
 10
1.079884293062828
 20
0.2572432498764747
 30
0.0
 11
1.146942339844668
 21
0.2572432498764747
 31
0.0
  0
LINE
  5
7DE1B343D9DCEF9
330
7DE1B343D9DCF67
100
AcDbEntity
  8
TEXT
100
AcDbLine
 10
1.079884293062828
 20
0.4518857990421104
 30
0.0
 11
1.079884293062828
 21
0.2572432498764747
 31
0.0
  0
LINE
  5
7DE1B343D9DCEFA
330
7DE1B343D9DCF67
100
AcDbEntity
  8
TEXT
100
AcDbLine
 10
1.022495224073567
 20
0.4594395882082204
 30
0.0
 11
1.072330503896715
 21
0.4594395882082204
 31
0.0
  0
LINE
  5
7DE1B343D9DCEFB
330
7DE1B343D9DCF67
100
AcDbEntity
  8
TEXT
100
AcDbLine
 10
1.022495224073567
 20
0.2572432498764747
 30
0.0
 11
1.022495224073567
 21
0.4594395882082204
 31
0.0
  0
LWPOLYLINE
  5
7DE1B343D9DCEFC
330
7DE1B343D9DCF67
100
AcDbEntity
  8
TEXT
100
AcDbPolyline
 90
        2
 70
     0
 43
0.0
 10
1.072330503896713
 20
0.4594395882082204
 42
-0.4142135623731017
 10
1.079884293062827
 20
0.4518857990421104
 42
-0.9999999999999998
  0
LINE
  5
7DE1B343D9DCF00
330
7DE1B343D9DCF67
100
AcDbEntity
  8
TEXT
100
AcDbLine
 10
1.278140504674398
 20
0.4594395882082204
 30
0.0
 11
1.278140504674398
 21
0.3843871821340137
 31
0.0
  0
LINE
  5
7DE1B343D9DCF01
330
7DE1B343D9DCF67
100
AcDbEntity
  8
TEXT
100
AcDbLine
 10
1.146942339844668
 20
0.4594395882082204
 30
0.0
 11
1.201075936765619
 21
0.4594395882082204
 31
0.0
  0
LINE
  5
7DE1B343D9DCF02
330
7DE1B343D9DCF67
100
AcDbEntity
  8
TEXT
100
AcDbLine
 10
1.146942339844668
 20
0.2572432498764747
 30
0.0
 11
1.146942339844668
 21
0.4594395882082204
 31
0.0
  0
LWPOLYLINE
  5
7DE1B343D9DCF03
330
7DE1B343D9DCF67
100
AcDbEntity
  8
TEXT
100
AcDbPolyline
 90
        2
 70
     0
 43
0.0
 10
1.201075936765617
 20
0.4594395882082204
 42
-0.4142135623731017
 10
1.20862972593173
 20
0.4518857990421104
 42
-0.9999999999999998
  0
LWPOLYLINE
  5
7DE1B343D9DCF07
330
7DE1B343D9DCF67
100
AcDbEntity
  8
TEXT
100
AcDbPolyline
 90
        4
 70
     0
 43
0.0
 10
1.20862972593173
 20
0.4518857990421104
 10
1.20862972593173
 20
0.2572432498764747
 10
1.277108009219588
 20
0.2572432498764747
 10
1.277108009219588
 20
0.3007341948269129
 42
-1.714843617202739
  0
LINE
  5
7DE1B343D9DCF0D
330
7DE1B343D9DCF67
100
AcDbEntity
  8
TEXT
100
AcDbLine
 10
0.6372438415364865
 20
0.5237162828649858
 30
0.0
 11
0.6372438415364865
 21
0.558104200459124
 31
0.0
  0
LINE
  5
7DE1B343D9DCF0E
330
7DE1B343D9DCF67
100
AcDbEntity
  8
TEXT
100
AcDbLine
 10
0.7090428076803939
 20
0.5237162828649858
 30
0.0
 11
0.6372438415364865
 21
0.5237162828649858
 31
0.0
  0
LINE
  5
7DE1B343D9DCF0F
330
7DE1B343D9DCF67
100
AcDbEntity
  8
TEXT
100
AcDbLine
 10
0.8565436043115735
 20
0.5237162828649858
 30
0.0
 11
0.8264216915181972
 21
0.5237162828649858
 31
0.0
  0
LINE
  5
7DE1B343D9DCF10
330
7DE1B343D9DCF67
100
AcDbEntity
  8
TEXT
100
AcDbLine
 10
0.8565436043115735
 20
0.5917277606037964
 30
0.0
 11
0.8565436043115735
 21
0.5237162828649858
 31
0.0
  0
LINE
  5
7DE1B343D9DCF11
330
7DE1B343D9DCF67
100
AcDbEntity
  8
TEXT
100
AcDbLine
 10
0.9233523168779385
 20
0.5917277606037964
 30
0.0
 11
0.8565436043115735
 21
0.5917277606037964
 31
0.0
  0
LWPOLYLINE
  5
7DE1B343D9DCF12
330
7DE1B343D9DCF67
100
AcDbEntity
  8
TEXT
100
AcDbPolyline
 90
        3
 70
     0
 43
0.0
 10
1.24376407647594
 20
0.5237162828649894
 10
1.125463917659896
 20
0.5237162828649894
 10
1.125463917659896
 20
0.4965487861040934
 42
-1.960274751411753
  0
LINE
  5
7DE1B343D9DCF17
330
7DE1B343D9DCF67
100
AcDbEntity
  8
TEXT
100
AcDbLine
 10
1.089682226946734
 20
0.5237162828649858
 30
0.0
 11
0.9556641710155986
 21
0.5237162828649858
 31
0.0
  0
LWPOLYLINE
  5
7DE1B343D9DCF18
330
7DE1B343D9DCF67
100
AcDbEntity
  8
TEXT
100
AcDbPolyline
 90
        2
 70
     0
 43
0.0
 10
1.089682226946734
 20
0.5237162828649894
 42
-0.3328679258950098
 10
1.125463917659896
 20
0.4965487861040934
 42
6.772930709997214
  0
LINE
  5
7DE1B343D9DCF1C
330
7DE1B343D9DCF67
100
AcDbEntity
  8
TEXT
100
AcDbLine
 10
1.279545767189107
 20
0.5237162828649858
 30
0.0
 11
1.279545767189107
 21
0.4953937370953419
 31
0.0
  0
LWPOLYLINE
  5
7DE1B343D9DCF1D
330
7DE1B343D9DCF67
100
AcDbEntity
  8
TEXT
100
AcDbPolyline
 90
        2
 70
     0
 43
0.0
 10
1.24376407647594
 20
0.5237162828649894
 42
-0.3277054968067132
 10
1.279545767189105
 20
0.4953937370953455
 42
6.667889725900311
  0
LINE
  5
7DE1B343D9DCF21
330
7DE1B343D9DCF67
100
AcDbEntity
  8
TEXT
100
AcDbLine
 10
1.493337615281207
 20
0.4185043043115585
 30
0.0
 11
1.449586844099306
 21
0.5007545803077037
 31
0.0
  0
LINE
  5
7DE1B343D9DCF22
330
7DE1B343D9DCF67
100
AcDbEntity
  8
TEXT
100
AcDbLine
 10
1.493337615281207
 20
0.5237162828649858
 30
0.0
 11
1.493337615281207
 21
0.4185043043115585
 31
0.0
  0
LINE
  5
7DE1B343D9DCF23
330
7DE1B343D9DCF67
100
AcDbEntity
  8
TEXT
100
AcDbLine
 10
1.721021354219576
 20
0.4478509564534477
 30
0.0
 11
1.721021354219576
 21
0.5891804886325865
 31
0.0
  0
LINE
  5
7DE1B343D9DCF24
330
7DE1B343D9DCF67
100
AcDbEntity
  8
TEXT
100
AcDbLine
 10
1.768119512775561
 20
0.5237162828649858
 30
0.0
 11
1.721021354219576
 21
0.4478509564534477
 31
0.0
  0
LINE
  5
7DE1B343D9DCF25
330
7DE1B343D9DCF67
100
AcDbEntity
  8
TEXT
100
AcDbLine
 10
1.778554229539484
 20
0.4138230399240122
 30
0.0
 11
1.843111345505189
 21
0.5237162828649858
 31
0.0
  0
LINE
  5
7DE1B343D9DCF26
330
7DE1B343D9DCF67
100
AcDbEntity
  8
TEXT
100
AcDbLine
 10
1.657186362996803
 20
0.2572432498764747
 30
0.0
 11
1.721564547315423
 21
0.2572432498764747
 31
0.0
  0
LWPOLYLINE
  5
7DE1B343D9DCF27
330
7DE1B343D9DCF67
100
AcDbEntity
  8
TEXT
100
AcDbPolyline
 90
        2
 70
     0
 43
0.0
 10
1.497277292586245
 20
0.3007341948269129
 42
-0.2901071551932486
 10
1.4542013597186
 20
0.2572432498764747
 42
-5.328517124445184
  0
ARC
  5
7DE1B343D9DCF2B
330
7DE1B343D9DCF67
100
AcDbEntity
  8
TEXT
100
AcDbCircle
 10
1.385346778061686
 20
0.4310802132082231
 30
0.0
 40
0.028359375
100
AcDbArc
 50
25.78218179591245
 51
90.0
  0
LINE
  5
7DE1B343D9DCF2C
330
7DE1B343D9DCF67
100
AcDbEntity
  8
TEXT
100
AcDbLine
 10
1.421147853365809
 20
0.4221646147460881
 30
0.0
 11
1.410883092952245
 21
0.4434151543187824
 31
0.0
  0
LINE
  5
7DE1B343D9DCF2D
330
7DE1B343D9DCF67
100
AcDbEntity
  8
TEXT
100
AcDbLine
 10
1.338859863582426
 20
0.4221646147460881
 30
0.0
 11
1.421147853365809
 21
0.4221646147460881
 31
0.0
  0
LWPOLYLINE
  5
7DE1B343D9DCF2E
330
7DE1B343D9DCF67
100
AcDbEntity
  8
TEXT
100
AcDbPolyline
 90
        4
 70
     1
 43
0.0
 10
1.434078894648708
 20
0.3602072278605
 10
1.345418575988849
 20
0.3602072278605
 42
0.9999999999999998
 10
1.345418575988849
 20
0.3178086873566392
 10
1.434078894648708
 20
0.3178086873566392
 42
1.0
  0
LWPOLYLINE
  5
7DE1B343D9DCF34
330
7DE1B343D9DCF67
100
AcDbEntity
  8
TEXT
100
AcDbPolyline
 90
        2
 70
     0
 43
0.0
 10
1.320183942087224
 20
0.2572432498764747
 10
1.4542013597186
 20
0.2572432498764747
 42
0.9999999999999998
  0
LINE
  5
7DE1B343D9DCF38
330
7DE1B343D9DCF67
100
AcDbEntity
  8
TEXT
100
AcDbLine
 10
1.58053838170424
 20
0.4594395882082204
 30
0.0
 11
1.657186362996798
 21
0.4594395882082204
 31
0.0
  0
LINE
  5
7DE1B343D9DCF39
330
7DE1B343D9DCF67
100
AcDbEntity
  8
TEXT
100
AcDbLine
 10
1.657186362996798
 20
0.4594395882082204
 30
0.0
 11
1.657186362996803
 21
0.2572432498764747
 31
0.0
  0
ARC
  5
7DE1B343D9DCF3A
330
7DE1B343D9DCF67
100
AcDbEntity
  8
TEXT
100
AcDbCircle
 10
1.580538381704238
 20
0.4345337129255576
 30
0.0
 40
0.0249058752826653
100
AcDbArc
 50
89.99971217465335
 51
179.9999999999985
  0
LINE
  5
7DE1B343D9DCF3B
330
7DE1B343D9DCF67
100
AcDbEntity
  8
TEXT
100
AcDbLine
 10
1.555632506421581
 20
0.2572432498764747
 30
0.0
 11
1.555632506421575
 21
0.4345337553079432
 31
0.0
  0
LWPOLYLINE
  5
7DE1B343D9DCF3C
330
7DE1B343D9DCF67
100
AcDbEntity
  8
TEXT
100
AcDbPolyline
 90
        2
 70
     0
 43
0.0
 10
1.497277292586245
 20
0.2572432498764747
 10
1.555632506421579
 20
0.2572432498764747
  0
LWPOLYLINE
  5
7DE1B343D9DCF40
330
7DE1B343D9DCF67
100
AcDbEntity
  8
TEXT
100
AcDbPolyline
 90
        2
 70
     0
 43
0.0
 10
1.497277292586245
 20
0.3007341948269129
 10
1.497277292586245
 20
0.2572432498764747
  0
LINE
  5
7DE1B343D9DCF44
330
7DE1B343D9DCF67
100
AcDbEntity
  8
TEXT
100
AcDbLine
 10
1.874046452903094
 20
0.2572432498764747
 30
0.0
 11
1.778554229539484
 21
0.4138230399240122
 31
0.0
  0
LINE
  5
7DE1B343D9DCF45
330
7DE1B343D9DCF67
100
AcDbEntity
  8
TEXT
100
AcDbLine
 10
1.797468080526888
 20
0.2572432498764747
 30
0.0
 11
1.874046452903094
 21
0.2572432498764747
 31
0.0
  0
LINE
  5
7DE1B343D9DCF46
330
7DE1B343D9DCF67
100
AcDbEntity
  8
TEXT
100
AcDbLine
 10
1.721564547315423
 20
0.388822818352655
 30
0.0
 11
1.797468080526888
 21
0.2572432498764747
 31
0.0
  0
LINE
  5
7DE1B343D9DCF47
330
7DE1B343D9DCF67
100
AcDbEntity
  8
TEXT
100
AcDbLine
 10
1.721564547315423
 20
0.2572432498764747
 30
0.0
 11
1.721564547315423
 21
0.388822818352655
 31
0.0
  0
LINE
  5
7DE1B343D9DCF48
330
7DE1B343D9DCF67
100
AcDbEntity
  8
TEXT
100
AcDbLine
 10
1.721021354219576
 20
0.5891804886325865
 30
0.0
 11
1.652706475670303
 21
0.5891804886325865
 31
0.0
  0
ARC
  5
7DE1B343D9DCF49
330
7DE1B343D9DCF67
100
AcDbEntity
  8
TEXT
100
AcDbCircle
 10
1.412350736629097
 20
0.4821327157440834
 30
0.0
 40
0.0416329381542859
100
AcDbArc
 50
26.56974201007528
 51
87.20939649401342
  0
LINE
  5
7DE1B343D9DCF4A
330
7DE1B343D9DCF67
100
AcDbEntity
  8
TEXT
100
AcDbLine
 10
1.557234521580708
 20
0.5237162828649858
 30
0.0
 11
1.493337615281207
 21
0.5237162828649858
 31
0.0
  0
LINE
  5
7DE1B343D9DCF4B
330
7DE1B343D9DCF67
100
AcDbEntity
  8
TEXT
100
AcDbLine
 10
1.557234521580708
 20
0.4961686330041112
 30
0.0
 11
1.557234521580708
 21
0.5237162828649858
 31
0.0
  0
ARC
  5
7DE1B343D9DCF4C
330
7DE1B343D9DCF67
100
AcDbEntity
  8
TEXT
100
AcDbCircle
 10
1.588427338643816
 20
0.492470555582721
 30
0.0
 40
0.0314112657011332
100
AcDbArc
 50
95.88484768694724
 51
173.2388340632136
  0
LINE
  5
7DE1B343D9DCF4D
330
7DE1B343D9DCF67
100
AcDbEntity
  8
TEXT
100
AcDbLine
 10
1.652706475670298
 20
0.5237162828649858
 30
0.0
 11
1.585206758020781
 21
0.5237162828649858
 31
0.0
  0
LINE
  5
7DE1B343D9DCF4E
330
7DE1B343D9DCF67
100
AcDbEntity
  8
TEXT
100
AcDbLine
 10
1.652706475670303
 20
0.5891804886325865
 30
0.0
 11
1.652706475670298
 21
0.5237162828649858
 31
0.0
  0
LINE
  5
7DE1B343D9DCF4F
330
7DE1B343D9DCF67
100
AcDbEntity
  8
TEXT
100
AcDbLine
 10
1.843111345505189
 20
0.5237162828649858
 30
0.0
 11
1.768119512775562
 21
0.5237162828649858
 31
0.0
  0
ENDSEC
  0
SECTION
  2
OBJECTS
  0
DICTIONARY
  5
7DE1B343D9DCF5B
330
0
100
AcDbDictionary
  3
ACAD_GROUP
350
7DE1B343D9DCF5C
  3
ACAD_LAYOUT
350
7DE1B343D9DCF81
  3
ACAD_MLINESTYLE
350
7DE1B343D9DCF5D
  3
ACAD_PLOTSETTINGS
350
7DE1B343D9DCF82
  3
ACAD_PLOTSTYLENAME
350
7DE1B343D9DCF7F
  3
ACDBHEADERROUNDTRIPXREC
350
7DE1B343D9DCF8C
  3
ACDBVARIABLEDICTIONARY
350
7DE1B343D9DCF89
  0
DICTIONARY
  5
7DE1B343D9DCFAE
330
7DE1B343D9DCF67
100
AcDbDictionary
280
     1
  3
ACAD_LAYOUTSELFREF
360
7DE1B343D9DCFAF
  0
DICTIONARY
  5
7DE1B343D9DCFAC
330
7DE1B343D9DCF64
100
AcDbDictionary
280
     1
  3
ACAD_LAYOUTSELFREF
360
7DE1B343D9DCFAD
  0
DICTIONARY
  5
7DE1B343D9DCF5C
102
{ACAD_REACTORS
330
7DE1B343D9DCF5B
102
}
330
7DE1B343D9DCF5B
100
AcDbDictionary
  0
DICTIONARY
  5
7DE1B343D9DCF81
102
{ACAD_REACTORS
330
7DE1B343D9DCF5B
102
}
330
7DE1B343D9DCF5B
100
AcDbDictionary
  0
DICTIONARY
  5
7DE1B343D9DCF5D
102
{ACAD_REACTORS
330
7DE1B343D9DCF5B
102
}
330
7DE1B343D9DCF5B
100
AcDbDictionary
  3
STANDARD
350
7DE1B343D9DCF6A
  0
DICTIONARY
  5
7DE1B343D9DCF82
102
{ACAD_REACTORS
330
7DE1B343D9DCF5B
102
}
330
7DE1B343D9DCF5B
100
AcDbDictionary
  0
ACDBDICTIONARYWDFLT
  5
7DE1B343D9DCF7F
102
{ACAD_REACTORS
330
7DE1B343D9DCF5B
102
}
330
7DE1B343D9DCF5B
100
AcDbDictionary
281
     1
  3
Normal
350
7DE1B343D9DCF80
100
AcDbDictionaryWithDefault
340
7DE1B343D9DCF80
  0
DICTIONARY
  5
7DE1B343D9DCF8C
102
{ACAD_REACTORS
330
7DE1B343D9DCF5B
102
}
330
7DE1B343D9DCF5B
100
AcDbDictionary
  3
CEPSNTYPE
350
7DE1B343D9DCF96
  3
FINGERPRINTGUID
350
7DE1B343D9DCF97
  3
HYPERLINKBASE
350
7DE1B343D9DCF8F
  3
INSUNITS
350
7DE1B343D9DCF95
  3
LAYOUTDICT
350
7DE1B343D9DCF91
  3
LWETCUNION
350
7DE1B343D9DCF94
  3
PLOTSETDICT
350
7DE1B343D9DCF92
  3
PLOTSTYLNAMDICT
350
7DE1B343D9DCF93
  3
PSVPSCALE
350
7DE1B343D9DCF99
  3
PUCSBASE
350
7DE1B343D9DCF9C
  3
PUCSORGBACK
350
7DE1B343D9DCFA2
  3
PUCSORGBOTTOM
350
7DE1B343D9DCF9E
  3
PUCSORGFRONT
350
7DE1B343D9DCFA1
  3
PUCSORGLEFT
350
7DE1B343D9DCF9F
  3
PUCSORGRIGHT
350
7DE1B343D9DCFA0
  3
PUCSORGTOP
350
7DE1B343D9DCF9D
  3
PUCSORTHOREF
350
7DE1B343D9DCF9A
  3
PUCSORTHOVIEW
350
7DE1B343D9DCF9B
  3
STYLESHEET
350
7DE1B343D9DCF90
  3
TSTACKALIGN
350
7DE1B343D9DCF8D
  3
TSTACKSIZE
350
7DE1B343D9DCF8E
  3
UCSBASE
350
7DE1B343D9DCFA5
  3
UCSORGBACK
350
7DE1B343D9DCFAB
  3
UCSORGBOTTOM
350
7DE1B343D9DCFA7
  3
UCSORGFRONT
350
7DE1B343D9DCFAA
  3
UCSORGLEFT
350
7DE1B343D9DCFA8
  3
UCSORGRIGHT
350
7DE1B343D9DCFA9
  3
UCSORGTOP
350
7DE1B343D9DCFA6
  3
UCSORTHOREF
350
7DE1B343D9DCFA3
  3
UCSORTHOVIEW
350
7DE1B343D9DCFA4
  3
VERSIONGUID
350
7DE1B343D9DCF98
  0
DICTIONARY
  5
7DE1B343D9DCF89
102
{ACAD_REACTORS
330
7DE1B343D9DCF5B
102
}
330
7DE1B343D9DCF5B
100
AcDbDictionary
  3
DIMASSOC
350
7DE1B343D9DCF8A
  0
XRECORD
  5
7DE1B343D9DCFAF
102
{ACAD_REACTORS
330
7DE1B343D9DCFAE
102
}
330
7DE1B343D9DCFAE
100
AcDbXrecord
340
7DE1B343D9DCF67
  0
XRECORD
  5
7DE1B343D9DCFAD
102
{ACAD_REACTORS
330
7DE1B343D9DCFAC
102
}
330
7DE1B343D9DCFAC
100
AcDbXrecord
340
7DE1B343D9DCF64
  0
MLINESTYLE
  5
7DE1B343D9DCF6A
102
{ACAD_REACTORS
330
7DE1B343D9DCF5D
102
}
330
7DE1B343D9DCF5D
100
AcDbMlineStyle
  2
STANDARD
 70
     0
  3

 62
     0
 51
90.0
 52
90.0
 71
     2
 49
0.5
 62
   256
  6
BYLAYER
 49
-0.5
 62
   256
  6
BYLAYER
  0
ACDBPLACEHOLDER
  5
7DE1B343D9DCF80
102
{ACAD_REACTORS
330
7DE1B343D9DCF7F
102
}
330
7DE1B343D9DCF7F
100
AcDbPlaceHolder
280
     0
  0
XRECORD
  5
7DE1B343D9DCF96
102
{ACAD_REACTORS
330
7DE1B343D9DCF8C
102
}
330
7DE1B343D9DCF8C
100
AcDbXrecord
 90
        0
  0
XRECORD
  5
7DE1B343D9DCF97
102
{ACAD_REACTORS
330
7DE1B343D9DCF8C
102
}
330
7DE1B343D9DCF8C
100
AcDbXrecord
  1
{28315380-8DB5-11D6-88E6-0090279574E7}
  0
XRECORD
  5
7DE1B343D9DCF8F
102
{ACAD_REACTORS
330
7DE1B343D9DCF8C
102
}
330
7DE1B343D9DCF8C
100
AcDbXrecord
  1

  0
XRECORD
  5
7DE1B343D9DCF95
102
{ACAD_REACTORS
330
7DE1B343D9DCF8C
102
}
330
7DE1B343D9DCF8C
100
AcDbXrecord
 90
        0
  0
XRECORD
  5
7DE1B343D9DCF91
102
{ACAD_REACTORS
330
7DE1B343D9DCF8C
102
}
330
7DE1B343D9DCF8C
100
AcDbXrecord
340
7DE1B343D9DCF81
  0
XRECORD
  5
7DE1B343D9DCF94
102
{ACAD_REACTORS
330
7DE1B343D9DCF8C
102
}
330
7DE1B343D9DCF8C
100
AcDbXrecord
 90
    14877
  0
XRECORD
  5
7DE1B343D9DCF92
102
{ACAD_REACTORS
330
7DE1B343D9DCF8C
102
}
330
7DE1B343D9DCF8C
100
AcDbXrecord
340
7DE1B343D9DCF82
  0
XRECORD
  5
7DE1B343D9DCF93
102
{ACAD_REACTORS
330
7DE1B343D9DCF8C
102
}
330
7DE1B343D9DCF8C
100
AcDbXrecord
340
7DE1B343D9DCF7F
  0
XRECORD
  5
7DE1B343D9DCF99
102
{ACAD_REACTORS
330
7DE1B343D9DCF8C
102
}
330
7DE1B343D9DCF8C
100
AcDbXrecord
 40
0.0
  0
XRECORD
  5
7DE1B343D9DCF9C
102
{ACAD_REACTORS
330
7DE1B343D9DCF8C
102
}
330
7DE1B343D9DCF8C
100
AcDbXrecord
340
0
  0
XRECORD
  5
7DE1B343D9DCFA2
102
{ACAD_REACTORS
330
7DE1B343D9DCF8C
102
}
330
7DE1B343D9DCF8C
100
AcDbXrecord
 10
0.0
 20
0.0
 30
0.0
  0
XRECORD
  5
7DE1B343D9DCF9E
102
{ACAD_REACTORS
330
7DE1B343D9DCF8C
102
}
330
7DE1B343D9DCF8C
100
AcDbXrecord
 10
0.0
 20
0.0
 30
0.0
  0
XRECORD
  5
7DE1B343D9DCFA1
102
{ACAD_REACTORS
330
7DE1B343D9DCF8C
102
}
330
7DE1B343D9DCF8C
100
AcDbXrecord
 10
0.0
 20
0.0
 30
0.0
  0
XRECORD
  5
7DE1B343D9DCF9F
102
{ACAD_REACTORS
330
7DE1B343D9DCF8C
102
}
330
7DE1B343D9DCF8C
100
AcDbXrecord
 10
0.0
 20
0.0
 30
0.0
  0
XRECORD
  5
7DE1B343D9DCFA0
102
{ACAD_REACTORS
330
7DE1B343D9DCF8C
102
}
330
7DE1B343D9DCF8C
100
AcDbXrecord
 10
0.0
 20
0.0
 30
0.0
  0
XRECORD
  5
7DE1B343D9DCF9D
102
{ACAD_REACTORS
330
7DE1B343D9DCF8C
102
}
330
7DE1B343D9DCF8C
100
AcDbXrecord
 10
0.0
 20
0.0
 30
0.0
  0
XRECORD
  5
7DE1B343D9DCF9A
102
{ACAD_REACTORS
330
7DE1B343D9DCF8C
102
}
330
7DE1B343D9DCF8C
100
AcDbXrecord
340
0
  0
XRECORD
  5
7DE1B343D9DCF9B
102
{ACAD_REACTORS
330
7DE1B343D9DCF8C
102
}
330
7DE1B343D9DCF8C
100
AcDbXrecord
 70
     0
  0
XRECORD
  5
7DE1B343D9DCF90
102
{ACAD_REACTORS
330
7DE1B343D9DCF8C
102
}
330
7DE1B343D9DCF8C
100
AcDbXrecord
  1

  0
XRECORD
  5
7DE1B343D9DCF8D
102
{ACAD_REACTORS
330
7DE1B343D9DCF8C
102
}
330
7DE1B343D9DCF8C
100
AcDbXrecord
 90
        1
  0
XRECORD
  5
7DE1B343D9DCF8E
102
{ACAD_REACTORS
330
7DE1B343D9DCF8C
102
}
330
7DE1B343D9DCF8C
100
AcDbXrecord
 90
       70
  0
XRECORD
  5
7DE1B343D9DCFA5
102
{ACAD_REACTORS
330
7DE1B343D9DCF8C
102
}
330
7DE1B343D9DCF8C
100
AcDbXrecord
340
0
  0
XRECORD
  5
7DE1B343D9DCFAB
102
{ACAD_REACTORS
330
7DE1B343D9DCF8C
102
}
330
7DE1B343D9DCF8C
100
AcDbXrecord
 10
0.0
 20
0.0
 30
0.0
  0
XRECORD
  5
7DE1B343D9DCFA7
102
{ACAD_REACTORS
330
7DE1B343D9DCF8C
102
}
330
7DE1B343D9DCF8C
100
AcDbXrecord
 10
0.0
 20
0.0
 30
0.0
  0
XRECORD
  5
7DE1B343D9DCFAA
102
{ACAD_REACTORS
330
7DE1B343D9DCF8C
102
}
330
7DE1B343D9DCF8C
100
AcDbXrecord
 10
0.0
 20
0.0
 30
0.0
  0
XRECORD
  5
7DE1B343D9DCFA8
102
{ACAD_REACTORS
330
7DE1B343D9DCF8C
102
}
330
7DE1B343D9DCF8C
100
AcDbXrecord
 10
0.0
 20
0.0
 30
0.0
  0
XRECORD
  5
7DE1B343D9DCFA9
102
{ACAD_REACTORS
330
7DE1B343D9DCF8C
102
}
330
7DE1B343D9DCF8C
100
AcDbXrecord
 10
0.0
 20
0.0
 30
0.0
  0
XRECORD
  5
7DE1B343D9DCFA6
102
{ACAD_REACTORS
330
7DE1B343D9DCF8C
102
}
330
7DE1B343D9DCF8C
100
AcDbXrecord
 10
0.0
 20
0.0
 30
0.0
  0
XRECORD
  5
7DE1B343D9DCFA3
102
{ACAD_REACTORS
330
7DE1B343D9DCF8C
102
}
330
7DE1B343D9DCF8C
100
AcDbXrecord
340
0
  0
XRECORD
  5
7DE1B343D9DCFA4
102
{ACAD_REACTORS
330
7DE1B343D9DCF8C
102
}
330
7DE1B343D9DCF8C
100
AcDbXrecord
 70
     0
  0
XRECORD
  5
7DE1B343D9DCF98
102
{ACAD_REACTORS
330
7DE1B343D9DCF8C
102
}
330
7DE1B343D9DCF8C
100
AcDbXrecord
  1
{28315382-8DB5-11D6-88E6-0090279574E7}
  0
DICTIONARYVAR
  5
7DE1B343D9DCF8A
102
{ACAD_REACTORS
330
7DE1B343D9DCF89
102
}
330
7DE1B343D9DCF89
100
DictionaryVariables
280
     0
  1
1
  0
ENDSEC
  0
EOF
