  0
SECTION
  2
HEADER
  9
$ACADVER
  1
AC1014
  9
$ACADMAINTVER
 70
     9
  9
$DWGCODEPAGE
  3
ANSI_1252
  9
$INSBASE
 10
1.746951222697993
 20
1.861548476480348
 30
0.0
  9
$EXTMIN
 10
-0.0042422280199106
 20
0.0721400774475716
 30
0.0
  9
$EXTMAX
 10
3.480977093727217
 20
2.857469988496807
 30
0.0
  9
$LIMMIN
 10
0.0
 20
0.0
  9
$LIMMAX
 10
18.0
 20
12.0
  9
$ORTHOMODE
 70
     1
  9
$REGENMODE
 70
     1
  9
$FILLMODE
 70
     1
  9
$QTEXTMODE
 70
     0
  9
$MIRRTEXT
 70
     0
  9
$DRAGMODE
 70
     2
  9
$LTSCALE
 40
1.0
  9
$OSMODE
 70
    39
  9
$ATTMODE
 70
     1
  9
$TEXTSIZE
 40
0.125
  9
$TRACEWID
 40
0.05
  9
$TEXTSTYLE
  7
ROMANS
  9
$CLAYER
  8
0
  9
$CELTYPE
  6
BYLAYER
  9
$CECOLOR
 62
   256
  9
$CELTSCALE
 40
1.0
  9
$DELOBJ
 70
     1
  9
$DISPSILH
 70
     1
  9
$DIMSCALE
 40
1.0
  9
$DIMASZ
 40
0.125
  9
$DIMEXO
 40
0.125
  9
$DIMDLI
 40
0.375
  9
$DIMRND
 40
0.0
  9
$DIMDLE
 40
0.0
  9
$DIMEXE
 40
0.125
  9
$DIMTP
 40
0.0
  9
$DIMTM
 40
0.0
  9
$DIMTXT
 40
0.125
  9
$DIMCEN
 40
-0.125
  9
$DIMTSZ
 40
0.0
  9
$DIMTOL
 70
     0
  9
$DIMLIM
 70
     0
  9
$DIMTIH
 70
     1
  9
$DIMTOH
 70
     1
  9
$DIMSE1
 70
     0
  9
$DIMSE2
 70
     0
  9
$DIMTAD
 70
     0
  9
$DIMZIN
 70
     4
  9
$DIMBLK
  1

  9
$DIMASO
 70
     1
  9
$DIMSHO
 70
     1
  9
$DIMPOST
  1

  9
$DIMAPOST
  1

  9
$DIMALT
 70
     0
  9
$DIMALTD
 70
     2
  9
$DIMALTF
 40
25.4
  9
$DIMLFAC
 40
1.0
  9
$DIMTOFL
 70
     0
  9
$DIMTVP
 40
0.0
  9
$DIMTIX
 70
     1
  9
$DIMSOXD
 70
     0
  9
$DIMSAH
 70
     0
  9
$DIMBLK1
  1

  9
$DIMBLK2
  1

  9
$DIMSTYLE
  2
STANDARD
  9
$DIMCLRD
 70
     0
  9
$DIMCLRE
 70
     0
  9
$DIMCLRT
 70
     0
  9
$DIMTFAC
 40
1.0
  9
$DIMGAP
 40
0.09
  9
$DIMJUST
 70
     0
  9
$DIMSD1
 70
     0
  9
$DIMSD2
 70
     0
  9
$DIMTOLJ
 70
     1
  9
$DIMTZIN
 70
     4
  9
$DIMALTZ
 70
     0
  9
$DIMALTTZ
 70
     0
  9
$DIMFIT
 70
     3
  9
$DIMUPT
 70
     0
  9
$DIMUNIT
 70
     2
  9
$DIMDEC
 70
     3
  9
$DIMTDEC
 70
     3
  9
$DIMALTU
 70
     2
  9
$DIMALTTD
 70
     2
  9
$DIMTXSTY
  7
ROMANS
  9
$DIMAUNIT
 70
     0
  9
$LUNITS
 70
     2
  9
$LUPREC
 70
     3
  9
$SKETCHINC
 40
0.1
  9
$FILLETRAD
 40
0.03125
  9
$AUNITS
 70
     0
  9
$AUPREC
 70
     0
  9
$MENU
  1
ACAD
  9
$ELEVATION
 40
0.0
  9
$PELEVATION
 40
0.0
  9
$THICKNESS
 40
0.0
  9
$LIMCHECK
 70
     0
  9
$BLIPMODE
 70
     0
  9
$CHAMFERA
 40
0.0
  9
$CHAMFERB
 40
0.0
  9
$CHAMFERC
 40
0.0
  9
$CHAMFERD
 40
0.0
  9
$SKPOLY
 70
     0
  9
$TDCREATE
 40
2448994.460013657
  9
$TDUPDATE
 40
2452458.301162419
  9
$TDINDWG
 40
0.0005572454
  9
$TDUSRTIMER
 40
0.0005572454
  9
$USRTIMER
 70
     1
  9
$ANGBASE
 50
0.0
  9
$ANGDIR
 70
     0
  9
$PDMODE
 70
     0
  9
$PDSIZE
 40
0.0
  9
$PLINEWID
 40
0.0
  9
$COORDS
 70
     2
  9
$SPLFRAME
 70
     0
  9
$SPLINETYPE
 70
     6
  9
$SPLINESEGS
 70
     8
  9
$ATTDIA
 70
     0
  9
$ATTREQ
 70
     1
  9
$HANDLING
 70
 22529
  9
$HANDSEED
  5
7DE1B343D9DCA43
  9
$SURFTAB1
 70
     6
  9
$SURFTAB2
 70
     6
  9
$SURFTYPE
 70
     6
  9
$SURFU
 70
     6
  9
$SURFV
 70
     6
  9
$UCSNAME
  2

  9
$UCSORG
 10
0.0
 20
0.0
 30
0.0
  9
$UCSXDIR
 10
1.0
 20
0.0
 30
0.0
  9
$UCSYDIR
 10
0.0
 20
1.0
 30
0.0
  9
$PUCSNAME
  2

  9
$PUCSORG
 10
0.0
 20
0.0
 30
0.0
  9
$PUCSXDIR
 10
1.0
 20
0.0
 30
0.0
  9
$PUCSYDIR
 10
0.0
 20
1.0
 30
0.0
  9
$USERI1
 70
     0
  9
$USERI2
 70
     0
  9
$USERI3
 70
     0
  9
$USERI4
 70
     0
  9
$USERI5
 70
     0
  9
$USERR1
 40
0.0
  9
$USERR2
 40
0.0
  9
$USERR3
 40
0.0
  9
$USERR4
 40
0.0
  9
$USERR5
 40
0.0
  9
$WORLDVIEW
 70
     1
  9
$SHADEDGE
 70
     3
  9
$SHADEDIF
 70
    70
  9
$TILEMODE
 70
     1
  9
$MAXACTVP
 70
    16
  9
$PINSBASE
 10
0.137102577534245
 20
50.00000000000001
 30
2.210365843877378
  9
$PLIMCHECK
 70
     0
  9
$PEXTMIN
 10
1.000000000000000E+20
 20
1.000000000000000E+20
 30
1.000000000000000E+20
  9
$PEXTMAX
 10
-1.000000000000000E+20
 20
-1.000000000000000E+20
 30
-1.000000000000000E+20
  9
$PLIMMIN
 10
0.0
 20
0.0
  9
$PLIMMAX
 10
12.0
 20
9.0
  9
$UNITMODE
 70
     0
  9
$VISRETAIN
 70
     0
  9
$PLINEGEN
 70
     1
  9
$PSLTSCALE
 70
     0
  9
$TREEDEPTH
 70
  3020
  9
$PICKSTYLE
 70
     1
  9
$CMLSTYLE
  2
STANDARD
  9
$CMLJUST
 70
     0
  9
$CMLSCALE
 40
1.0
  9
$PROXYGRAPHICS
 70
     1
  9
$MEASUREMENT
 70
     0
  0
ENDSEC
  0
SECTION
  2
CLASSES
  0
CLASS
  1
LWPOLYLINE
  2
AcDbPolyline
  3
AutoCAD 2000
 90
        0
280
     0
281
     1
  0
CLASS
  1
ACDBDICTIONARYWDFLT
  2
AcDbDictionaryWithDefault
  3
AutoCAD 2000
 90
        0
280
     0
281
     0
  0
CLASS
  1
ACDBPLACEHOLDER
  2
AcDbPlaceHolder
  3
AutoCAD 2000
 90
        0
280
     0
281
     0
  0
CLASS
  1
LAYOUT
  2
AcDbLayout
  3
AutoCAD 2000
 90
        0
280
     0
281
     0
  0
CLASS
  1
DICTIONARYVAR
  2
AcDbDictionaryVar
  3
AutoCAD 2000
 90
        0
280
     0
281
     0
  0
CLASS
  1
LONG_TRANSACTION
  2
AcDbLongTransaction
  3
AutoCAD 2000
 90
        0
280
     0
281
     0
  0
CLASS
  1
LWPOLYLINE
  2
AcDbPolyline
  3
AutoCAD 2000
 90
        0
280
     0
281
     1
  0
CLASS
  1
HATCH
  2
AcDbHatch
  3
AutoCAD 2000
 90
        0
280
     0
281
     1
  0
CLASS
  1
XRECORD
  2
AcDbXrecord
  3
AutoCAD 2000
 90
        0
280
     0
281
     0
  0
ENDSEC
  0
SECTION
  2
TABLES
  0
TABLE
  2
VPORT
  5
7DE1B343D9DC9EA
330
0
100
AcDbSymbolTable
 70
     2
  0
VPORT
  5
7DE1B343D9DCA1E
330
7DE1B343D9DC9EA
100
AcDbSymbolTableRecord
100
AcDbViewportTableRecord
  2
*ACTIVE
 70
     0
 10
0.0
 20
0.0
 11
1.0
 21
1.0
 12
5.839289396516018
 22
1.464935325394542
 13
0.0
 23
0.0
 14
0.015625
 24
0.015625
 15
0.0
 25
0.0
 16
0.0
 26
0.0
 36
1.0
 17
0.0
 27
0.0
 37
0.0
 40
3.145160084954782
 41
4.320930232558139
 42
50.0
 43
0.0
 44
0.0
 50
0.0
 51
0.0
 71
     0
 72
  2000
 73
     1
 74
     0
 75
     0
 76
     0
 77
     0
 78
     0
  0
ENDTAB
  0
TABLE
  2
LTYPE
  5
7DE1B343D9DC9E7
330
0
100
AcDbSymbolTable
 70
     1
  0
LTYPE
  5
7DE1B343D9DC9F4
330
7DE1B343D9DC9E7
100
AcDbSymbolTableRecord
100
AcDbLinetypeTableRecord
  2
BYBLOCK
 70
     0
  3

 72
    65
 73
     0
 40
0.0
  0
LTYPE
  5
7DE1B343D9DC9F5
330
7DE1B343D9DC9E7
100
AcDbSymbolTableRecord
100
AcDbLinetypeTableRecord
  2
BYLAYER
 70
     0
  3

 72
    65
 73
     0
 40
0.0
  0
LTYPE
  5
7DE1B343D9DC9F6
330
7DE1B343D9DC9E7
100
AcDbSymbolTableRecord
100
AcDbLinetypeTableRecord
  2
CONTINUOUS
 70
     0
  3
Solid line
 72
    65
 73
     0
 40
0.0
  0
ENDTAB
  0
TABLE
  2
LAYER
  5
7DE1B343D9DC9E4
330
0
100
AcDbSymbolTable
 70
     2
  0
LAYER
  5
7DE1B343D9DC9F1
330
7DE1B343D9DC9E4
100
AcDbSymbolTableRecord
100
AcDbLayerTableRecord
  2
0
 70
     0
 62
     7
  6
CONTINUOUS
  0
LAYER
  5
7DE1B343D9DCA01
330
7DE1B343D9DC9E4
100
AcDbSymbolTableRecord
100
AcDbLayerTableRecord
  2
TEXT
 70
     0
 62
     3
  6
CONTINUOUS
  0
ENDTAB
  0
TABLE
  2
STYLE
  5
7DE1B343D9DC9E5
330
0
100
AcDbSymbolTable
 70
     3
  0
STYLE
  5
7DE1B343D9DC9F2
330
7DE1B343D9DC9E5
100
AcDbSymbolTableRecord
100
AcDbTextStyleTableRecord
  2
STANDARD
 70
     0
 40
0.0
 41
1.0
 50
0.0
 71
     0
 42
0.3125
  3
txt
  4

  0
STYLE
  5
7DE1B343D9DC9FE
330
7DE1B343D9DC9E5
100
AcDbSymbolTableRecord
100
AcDbTextStyleTableRecord
  2
ITALICC
 70
     0
 40
0.0
 41
1.0
 50
0.0
 71
     0
 42
0.125
  3
italicc
  4

  0
STYLE
  5
7DE1B343D9DCA0E
330
7DE1B343D9DC9E5
100
AcDbSymbolTableRecord
100
AcDbTextStyleTableRecord
  2
ROMANS
 70
     0
 40
0.0
 41
1.0
 50
0.0
 71
     0
 42
0.125
  3
romans.shx
  4

  0
ENDTAB
  0
TABLE
  2
VIEW
  5
7DE1B343D9DC9E8
330
0
100
AcDbSymbolTable
 70
     0
  0
ENDTAB
  0
TABLE
  2
UCS
  5
7DE1B343D9DC9E9
330
0
100
AcDbSymbolTable
 70
     0
  0
ENDTAB
  0
TABLE
  2
APPID
  5
7DE1B343D9DC9EB
330
0
100
AcDbSymbolTable
 70
     1
  0
APPID
  5
7DE1B343D9DC9F3
330
7DE1B343D9DC9EB
100
AcDbSymbolTableRecord
100
AcDbRegAppTableRecord
  2
ACAD
 70
     0
  0
ENDTAB
  0
TABLE
  2
DIMSTYLE
  5
7DE1B343D9DC9EC
330
0
100
AcDbSymbolTable
 70
     1
  0
DIMSTYLE
105
7DE1B343D9DCA06
330
7DE1B343D9DC9EC
100
AcDbSymbolTableRecord
100
AcDbDimStyleTableRecord
  2
STANDARD
 70
     0
  3

  4

  5

  6

  7

 40
1.0
 41
0.125
 42
0.125
 43
0.375
 44
0.125
 45
0.0
 46
0.0
 47
0.0
 48
0.0
140
0.125
141
-0.125
142
0.0
143
25.4
144
1.0
145
0.0
146
1.0
147
0.09
 71
     0
 72
     0
 73
     1
 74
     1
 75
     0
 76
     0
 77
     0
 78
     4
170
     0
171
     2
172
     0
173
     0
174
     1
175
     0
176
     0
177
     0
178
     0
270
     2
271
     3
272
     3
273
     2
274
     2
340
7DE1B343D9DCA0E
275
     0
280
     0
281
     0
282
     0
283
     1
284
     4
285
     0
286
     0
287
     3
288
     0
  0
ENDTAB
  0
TABLE
  2
BLOCK_RECORD
  5
7DE1B343D9DC9E3
330
0
100
AcDbSymbolTable
 70
     0
  0
BLOCK_RECORD
  5
7DE1B343D9DC9FA
102
{ACAD_XDICTIONARY
360
7DE1B343D9DCA41
102
}
330
7DE1B343D9DC9E3
100
AcDbSymbolTableRecord
100
AcDbBlockTableRecord
  2
*MODEL_SPACE
  0
BLOCK_RECORD
  5
7DE1B343D9DC9F7
102
{ACAD_XDICTIONARY
360
7DE1B343D9DCA3F
102
}
330
7DE1B343D9DC9E3
100
AcDbSymbolTableRecord
100
AcDbBlockTableRecord
  2
*PAPER_SPACE
  0
ENDTAB
  0
ENDSEC
  0
SECTION
  2
BLOCKS
  0
BLOCK
  5
7DE1B343D9DCA04
330
7DE1B343D9DC9FA
100
AcDbEntity
  8
0
100
AcDbBlockBegin
  2
*MODEL_SPACE
 70
     0
 10
0.0
 20
0.0
 30
0.0
  3
*MODEL_SPACE
  1

  0
ENDBLK
  5
7DE1B343D9DCA05
330
7DE1B343D9DC9FA
100
AcDbEntity
  8
0
100
AcDbBlockEnd
  0
BLOCK
  5
7DE1B343D9DCA02
330
7DE1B343D9DC9F7
100
AcDbEntity
 67
     1
  8
0
100
AcDbBlockBegin
  2
*PAPER_SPACE
 70
     0
 10
0.0
 20
0.0
 30
0.0
  3
*PAPER_SPACE
  1

  0
ENDBLK
  5
7DE1B343D9DCA03
330
7DE1B343D9DC9F7
100
AcDbEntity
 67
     1
  8
0
100
AcDbBlockEnd
  0
ENDSEC
  0
SECTION
  2
ENTITIES
  0
LWPOLYLINE
  5
7DE1B343D9DB43B
330
7DE1B343D9DC9FA
100
AcDbEntity
  8
0
100
AcDbPolyline
 90
       12
 70
     1
 43
0.0
 10
2.613739351207232
 20
0.9783883494695242
 10
2.613739351207232
 20
2.728388349469524
 10
2.426239351207232
 20
2.728388349469524
 10
2.426239351207232
 20
2.468388349469524
 10
2.269989351207232
 20
2.468388349469524
 10
2.269989351207232
 20
2.009638349469524
 10
1.769989351207232
 20
2.009638349469524
 10
1.769989351207232
 20
1.697138349469524
 10
2.269989351207232
 20
1.697138349469524
 10
2.269989351207232
 20
1.238388349469524
 10
2.426239351207232
 20
1.238388349469524
 10
2.426239351207232
 20
0.9783883494695242
  0
LWPOLYLINE
  5
7DE1B343D9DB42D
330
7DE1B343D9DC9FA
100
AcDbEntity
  8
0
100
AcDbPolyline
 90
       12
 70
     1
 43
0.0
 10
1.051239351207232
 20
2.468388349469524
 10
1.207489351207232
 20
2.468388349469524
 10
1.207489351207232
 20
2.009638349469524
 10
1.707489351207232
 20
2.009638349469524
 10
1.707489351207232
 20
1.697138349469524
 10
1.207489351207232
 20
1.697138349469524
 10
1.207489351207232
 20
1.238388349469524
 10
1.051239351207232
 20
1.238388349469524
 10
1.051239351207232
 20
0.9783883494695242
 10
0.8637393512072328
 20
0.9783883494695242
 10
0.8637393512072328
 20
2.728388349469524
 10
1.051239351207232
 20
2.728388349469524
  0
LWPOLYLINE
  5
7DE1B343D9DB3F3
330
7DE1B343D9DC9FA
100
AcDbEntity
  8
0
100
AcDbPolyline
 90
       56
 70
     1
 43
0.0
 10
1.363739351207232
 20
2.728388349469524
 10
1.363739351207232
 20
2.853388349469524
 10
0.7587393512072329
 20
2.853388349469524
 42
0.4082489103099921
 10
0.7387435157048939
 20
2.833796470239946
 42
0.0102040816326528
 10
0.7387435157048903
 20
0.8729802286990917
 42
0.4082489103099918
 10
0.7587393512072325
 20
0.8533883494695242
 10
1.363739351207232
 20
0.8533883494695242
 10
1.363739351207232
 20
0.9783883494695242
 10
1.176239351207232
 20
0.9783883494695242
 10
1.176239351207232
 20
1.113388349469524
 10
1.363739351207232
 20
1.113388349469524
 10
1.363739351207232
 20
1.197138349469524
 10
1.330739351207232
 20
1.197138349469524
 10
1.363739351207232
 20
1.322138349469523
 10
1.330739351207232
 20
1.322138349469524
 10
1.363739351207232
 20
1.447138349469524
 10
1.330739351207232
 20
1.447138349469524
 10
1.363739351207232
 20
1.572138349469524
 10
2.113739351207232
 20
1.572138349469524
 10
2.146739351207232
 20
1.447138349469524
 10
2.113739351207232
 20
1.447138349469524
 10
2.146739351207232
 20
1.322138349469524
 10
2.113739351207232
 20
1.322138349469523
 10
2.146739351207232
 20
1.197138349469524
 10
2.113739351207232
 20
1.197138349469524
 10
2.113739351207232
 20
1.113388349469524
 10
2.301239351207232
 20
1.113388349469524
 10
2.301239351207232
 20
0.9783883494695242
 10
2.113739351207232
 20
0.9783883494695242
 10
2.113739351207232
 20
0.8533883494695242
 10
2.718739351207233
 20
0.8533883494695242
 42
0.4082489103099915
 10
2.738735186709575
 20
0.8729802286990917
 42
0.010204081632653
 10
2.738735186709565
 20
2.833796470239955
 42
0.4082489103099932
 10
2.718739351207233
 20
2.853388349469524
 10
2.113739351207232
 20
2.853388349469524
 10
2.113739351207232
 20
2.728388349469524
 10
2.301239351207232
 20
2.728388349469524
 10
2.301239351207232
 20
2.593388349469524
 10
2.113739351207232
 20
2.593388349469524
 10
2.113739351207232
 20
2.509638349469524
 10
2.146739351207232
 20
2.509638349469524
 10
2.113739351207232
 20
2.384638349469524
 10
2.146739351207232
 20
2.384638349469524
 10
2.113739351207232
 20
2.259638349469524
 10
2.146739351207232
 20
2.259638349469524
 10
2.113739351207232
 20
2.134638349469524
 10
1.363739351207232
 20
2.134638349469524
 10
1.330739351207232
 20
2.259638349469524
 10
1.363739351207232
 20
2.259638349469524
 10
1.330739351207232
 20
2.384638349469524
 10
1.363739351207232
 20
2.384638349469524
 10
1.330739351207232
 20
2.509638349469524
 10
1.363739351207232
 20
2.509638349469524
 10
1.363739351207232
 20
2.593388349469524
 10
1.176239351207232
 20
2.593388349469524
 10
1.176239351207232
 20
2.728388349469524
  0
TEXT
  5
7DE1B343D9DC8A5
330
7DE1B343D9DC9FA
100
AcDbEntity
  8
TEXT
100
AcDbText
 10
0.9827869702548518
 20
0.5301586815301532
 30
0.0
 40
0.125
  1
PART #110215
  7
ITALICC
 72
     1
 11
1.738739351207232
 21
0.5301586815301532
 31
0.0
100
AcDbText
  0
TEXT
  5
7DE1B343D9DC8A6
330
7DE1B343D9DC9FA
100
AcDbEntity
  8
TEXT
100
AcDbText
 10
2.152044509457553
 20
0.083236038857778
 30
0.0
 40
0.0522247191011236
  1
Phone  1-800-328-2495
 41
1.272321428571429
 72
     5
 11
3.480977093727217
 21
0.083236038857778
 31
0.0
100
AcDbText
  0
TEXT
  5
7DE1B343D9DC8A7
330
7DE1B343D9DC9FA
100
AcDbEntity
  8
TEXT
100
AcDbText
 10
2.152044509457553
 20
0.3630113197566545
 30
0.0
 40
0.0522247191011236
  1
Stylmark  Incorporated
 41
1.221428571428573
 72
     5
 11
3.480977093727217
 21
0.3630113197566545
 31
0.0
100
AcDbText
  0
TEXT
  5
7DE1B343D9DC8A8
330
7DE1B343D9DC9FA
100
AcDbEntity
  8
TEXT
100
AcDbText
 10
2.152044509457553
 20
0.2697528927903623
 30
0.0
 40
0.0522247191011236
  1
6536 Main St. N.E. * P.O. Box 32008
 41
0.8388932496075366
 72
     5
 11
3.480977093727217
 21
0.2697528927903623
 31
0.0
100
AcDbText
  0
TEXT
  5
7DE1B343D9DC8A9
330
7DE1B343D9DC9FA
100
AcDbEntity
  8
TEXT
100
AcDbText
 10
2.152044509457553
 20
0.1764944658240701
 30
0.0
 40
0.0522247191011236
  1
Minneapolis, MN 55432-0008
 41
1.11444212721585
 72
     5
 11
3.480977093727217
 21
0.1764944658240701
 31
0.0
100
AcDbText
  0
LWPOLYLINE
  5
7DE1B343D9DC8AA
330
7DE1B343D9DC9FA
100
AcDbEntity
  8
TEXT
100
AcDbPolyline
 90
        3
 70
     0
 43
0.0006660908203125
 10
-0.0039091826097544
 20
0.1968808014952128
 10
-0.0039091826097544
 20
0.0836453620420852
 10
0.1093262568433679
 20
0.0836453620420852
  0
LWPOLYLINE
  5
7DE1B343D9DC8AF
330
7DE1B343D9DC9FA
100
AcDbEntity
  8
TEXT
100
AcDbPolyline
 90
        3
 70
     0
 43
0.0006660908203125
 10
0.0227344502027431
 20
0.1968808014952128
 10
0.0227344502027431
 20
0.1102889948545862
 10
0.1093262568433679
 20
0.1102889948545862
  0
LWPOLYLINE
  5
7DE1B343D9DC8B4
330
7DE1B343D9DC9FA
100
AcDbEntity
  8
TEXT
100
AcDbPolyline
 90
        2
 70
     0
 43
0.0001332181640625
 10
0.0693608076246199
 20
0.206872163799898
 10
-0.0039091826097544
 20
0.1968808014952128
  0
LWPOLYLINE
  5
7DE1B343D9DC8B8
330
7DE1B343D9DC9FA
100
AcDbEntity
  8
TEXT
100
AcDbPolyline
 90
        2
 70
     0
 43
0.0001332181640625
 10
0.0227344502027431
 20
0.1968808014952128
 10
0.0826826240308705
 20
0.206872163799898
  0
LWPOLYLINE
  5
7DE1B343D9DC8BC
330
7DE1B343D9DC9FA
100
AcDbEntity
  8
TEXT
100
AcDbPolyline
 90
        2
 70
     0
 43
0.0001332181640625
 10
0.0227344502027431
 20
0.1102889948545862
 10
0.0826826240308705
 20
0.1702371686827118
  0
LWPOLYLINE
  5
7DE1B343D9DC8C0
330
7DE1B343D9DC9FA
100
AcDbEntity
  8
TEXT
100
AcDbPolyline
 90
        3
 70
     0
 43
0.0006660908203125
 10
0.1093262568433679
 20
0.3500816901670884
 10
-0.0039091826097544
 20
0.3500816901670884
 10
-0.0039091826097544
 20
0.2368462507139608
  0
LWPOLYLINE
  5
7DE1B343D9DC8C5
330
7DE1B343D9DC9FA
100
AcDbEntity
  8
TEXT
100
AcDbPolyline
 90
        3
 70
     0
 43
0.0006660908203125
 10
0.1093262568433679
 20
0.3234380573545874
 10
0.0227344502027431
 20
0.3234380573545874
 10
0.0227344502027431
 20
0.2368462507139608
  0
LWPOLYLINE
  5
7DE1B343D9DC8CA
330
7DE1B343D9DC9FA
100
AcDbEntity
  8
TEXT
100
AcDbPolyline
 90
        2
 70
     0
 43
0.0001332181640625
 10
0.0227344502027431
 20
0.3234380573545874
 10
0.0826826240308687
 20
0.2634898835264618
  0
LWPOLYLINE
  5
7DE1B343D9DC8CE
330
7DE1B343D9DC9FA
100
AcDbEntity
  8
TEXT
100
AcDbPolyline
 90
        2
 70
     0
 43
0.0001332181640625
 10
0.0227344502027431
 20
0.2368462507139608
 10
0.0826826240308687
 20
0.226854888409272
  0
LWPOLYLINE
  5
7DE1B343D9DC8D2
330
7DE1B343D9DC9FA
100
AcDbEntity
  8
TEXT
100
AcDbPolyline
 90
        2
 70
     0
 43
0.0001332181640625
 10
-0.0039091826097544
 20
0.2368462507139608
 10
0.0693608076246199
 20
0.226854888409272
  0
LWPOLYLINE
  5
7DE1B343D9DC8D6
330
7DE1B343D9DC9FA
100
AcDbEntity
  8
TEXT
100
AcDbPolyline
 90
        2
 70
     0
 43
0.0006660908203125
 10
0.0227344502027431
 20
0.1968808014952128
 10
-0.0039091826097544
 20
0.1968808014952128
  0
LWPOLYLINE
  5
7DE1B343D9DC8DA
330
7DE1B343D9DC9FA
100
AcDbEntity
  8
TEXT
100
AcDbPolyline
 90
        2
 70
     0
 43
0.0006660908203125
 10
0.0227344502027431
 20
0.2368462507139608
 10
-0.0039091826097544
 20
0.2368462507139608
  0
LINE
  5
7DE1B343D9DC8DE
330
7DE1B343D9DC9FA
100
AcDbEntity
  8
TEXT
100
AcDbLine
 10
1.511281246516743
 20
0.2858049955103195
 30
0.0
 11
1.404074973129453
 21
0.2858049955103195
 31
0.0
  0
LINE
  5
7DE1B343D9DC8DF
330
7DE1B343D9DC9FA
100
AcDbEntity
  8
TEXT
100
AcDbLine
 10
1.540312144861221
 20
0.3500816901670849
 30
0.0
 11
1.405480235644162
 21
0.3500816901670849
 31
0.0
  0
ARC
  5
7DE1B343D9DC8E0
330
7DE1B343D9DC9FA
100
AcDbEntity
  8
TEXT
100
AcDbCircle
 10
1.464794332037479
 20
0.1808444409040686
 30
0.0
 40
0.0676855811441166
100
AcDbArc
 50
90.0
 51
153.7768192527749
  0
LWPOLYLINE
  5
7DE1B343D9DC8E1
330
7DE1B343D9DC9FA
100
AcDbEntity
  8
TEXT
100
AcDbPolyline
 90
        2
 70
     0
 43
0.0
 10
1.403042477674643
 20
0.1270996021290121
 42
0.2901071551932823
 10
1.446118410542279
 20
0.0836086571785739
 42
5.328517124445801
  0
ARC
  5
7DE1B343D9DC8E5
330
7DE1B343D9DC9FA
100
AcDbEntity
  8
TEXT
100
AcDbCircle
 10
0.7596629543659937
 20
0.1434010485166237
 30
0.0
 40
0.0601160179737537
100
AcDbArc
 50
180.0000000000003
 51
264.0521544866073
  0
LINE
  5
7DE1B343D9DC8E6
330
7DE1B343D9DC9FA
100
AcDbEntity
  8
TEXT
100
AcDbLine
 10
0.7631783099915415
 20
0.3844696077612231
 30
0.0
 11
0.7031357051475345
 21
0.3844696077612231
 31
0.0
  0
ARC
  5
7DE1B343D9DC8E7
330
7DE1B343D9DC9FA
100
AcDbEntity
  8
TEXT
100
AcDbCircle
 10
0.5274039522490231
 20
0.2679942307205831
 30
0.0
 40
0.0820874594465043
100
AcDbArc
 50
90.0
 51
270.0
  0
LWPOLYLINE
  5
7DE1B343D9DC8E8
330
7DE1B343D9DC9FA
100
AcDbEntity
  8
TEXT
100
AcDbPolyline
 90
        2
 70
     0
 43
0.0001332181640625
 10
0.1193176191480585
 20
0.2768116999327088
 10
0.1093262568433679
 20
0.3500816901670884
  0
LWPOLYLINE
  5
7DE1B343D9DC8EC
330
7DE1B343D9DC9FA
100
AcDbEntity
  8
TEXT
100
AcDbPolyline
 90
        2
 70
     0
 43
0.0001332181640625
 10
0.1093262568433679
 20
0.3234380573545874
 10
0.1193176191480585
 20
0.2634898835264618
  0
LWPOLYLINE
  5
7DE1B343D9DC8F0
330
7DE1B343D9DC9FA
100
AcDbEntity
  8
TEXT
100
AcDbPolyline
 90
        3
 70
     0
 43
0.0006660908203125
 10
0.2625271455152454
 20
0.2368462507139608
 10
0.2625271455152454
 20
0.3500816901670884
 10
0.1492917060621195
 20
0.3500816901670884
  0
LWPOLYLINE
  5
7DE1B343D9DC8F5
330
7DE1B343D9DC9FA
100
AcDbEntity
  8
TEXT
100
AcDbPolyline
 90
        3
 70
     0
 43
0.0006660908203125
 10
0.2358835127027443
 20
0.2368462507139608
 10
0.2358835127027443
 20
0.3234380573545874
 10
0.1492917060621195
 20
0.3234380573545874
  0
LWPOLYLINE
  5
7DE1B343D9DC8FA
330
7DE1B343D9DC9FA
100
AcDbEntity
  8
TEXT
100
AcDbPolyline
 90
        2
 70
     0
 43
0.0001332181640625
 10
0.2358835127027443
 20
0.3234380573545874
 10
0.1759353388746205
 20
0.2634898835264618
  0
LWPOLYLINE
  5
7DE1B343D9DC8FE
330
7DE1B343D9DC9FA
100
AcDbEntity
  8
TEXT
100
AcDbPolyline
 90
        2
 70
     0
 43
0.0001332181640625
 10
0.1492917060621195
 20
0.3234380573545874
 10
0.1393003437574307
 20
0.2634898835264618
  0
LWPOLYLINE
  5
7DE1B343D9DC902
330
7DE1B343D9DC9FA
100
AcDbEntity
  8
TEXT
100
AcDbPolyline
 90
        2
 70
     0
 43
0.0001332181640625
 10
0.1492917060621195
 20
0.3500816901670884
 10
0.1393003437574307
 20
0.2768116999327088
  0
LWPOLYLINE
  5
7DE1B343D9DC906
330
7DE1B343D9DC9FA
100
AcDbEntity
  8
TEXT
100
AcDbPolyline
 90
        2
 70
     0
 43
0.0001332181640625
 10
0.1892571552808693
 20
0.226854888409272
 10
0.2625271455152454
 20
0.2368462507139608
  0
LWPOLYLINE
  5
7DE1B343D9DC90A
330
7DE1B343D9DC9FA
100
AcDbEntity
  8
TEXT
100
AcDbPolyline
 90
        2
 70
     0
 43
0.0001332181640625
 10
0.2358835127027443
 20
0.2368462507139608
 10
0.1759353388746205
 20
0.226854888409272
  0
LWPOLYLINE
  5
7DE1B343D9DC90E
330
7DE1B343D9DC9FA
100
AcDbEntity
  8
TEXT
100
AcDbPolyline
 90
        2
 70
     0
 43
0.0001332181640625
 10
0.2625271455152454
 20
0.1968808014952128
 10
0.1892571552808693
 20
0.206872163799898
  0
LWPOLYLINE
  5
7DE1B343D9DC912
330
7DE1B343D9DC9FA
100
AcDbEntity
  8
TEXT
100
AcDbPolyline
 90
        2
 70
     0
 43
0.0001332181640625
 10
0.2358835127027443
 20
0.1968808014952128
 10
0.1759353388746205
 20
0.206872163799898
  0
LWPOLYLINE
  5
7DE1B343D9DC916
330
7DE1B343D9DC9FA
100
AcDbEntity
  8
TEXT
100
AcDbPolyline
 90
        2
 70
     0
 43
0.0001332181640625
 10
0.2358835127027443
 20
0.1102889948545862
 10
0.1759353388746205
 20
0.1702371686827118
  0
LWPOLYLINE
  5
7DE1B343D9DC91A
330
7DE1B343D9DC9FA
100
AcDbEntity
  8
TEXT
100
AcDbPolyline
 90
        3
 70
     0
 43
0.0006660908203125
 10
0.1492917060621195
 20
0.1102889948545862
 10
0.2358835127027443
 20
0.1102889948545862
 10
0.2358835127027443
 20
0.1968808014952128
  0
LWPOLYLINE
  5
7DE1B343D9DC91F
330
7DE1B343D9DC9FA
100
AcDbEntity
  8
TEXT
100
AcDbPolyline
 90
        3
 70
     0
 43
0.0006660908203125
 10
0.1492917060621195
 20
0.0836453620420852
 10
0.2625271455152454
 20
0.0836453620420852
 10
0.2625271455152454
 20
0.1968808014952128
  0
LWPOLYLINE
  5
7DE1B343D9DC924
330
7DE1B343D9DC9FA
100
AcDbEntity
  8
TEXT
100
AcDbPolyline
 90
        5
 70
     0
 43
0.0001332181640625
 10
0.1193176191480585
 20
0.1569153522764612
 10
0.1193176191480585
 20
0.1702371686827118
 10
0.0826826240308705
 20
0.1702371686827118
 10
0.0826826240308705
 20
0.206872163799898
 10
0.0693608076246199
 20
0.206872163799898
  0
LWPOLYLINE
  5
7DE1B343D9DC92B
330
7DE1B343D9DC9FA
100
AcDbEntity
  8
TEXT
100
AcDbPolyline
 90
        2
 70
     0
 43
0.0006660908203125
 10
0.1093262568433679
 20
0.1102889948545862
 10
0.1093262568433679
 20
0.0836453620420852
  0
LWPOLYLINE
  5
7DE1B343D9DC92F
330
7DE1B343D9DC9FA
100
AcDbEntity
  8
TEXT
100
AcDbPolyline
 90
        2
 70
     0
 43
0.0001332181640625
 10
0.1093262568433679
 20
0.1102889948545862
 10
0.1193176191480585
 20
0.1702371686827118
  0
LWPOLYLINE
  5
7DE1B343D9DC933
330
7DE1B343D9DC9FA
100
AcDbEntity
  8
TEXT
100
AcDbPolyline
 90
        2
 70
     0
 43
0.0001332181640625
 10
0.1093262568433679
 20
0.0836453620420852
 10
0.1193176191480585
 20
0.1569153522764612
  0
LWPOLYLINE
  5
7DE1B343D9DC937
330
7DE1B343D9DC9FA
100
AcDbEntity
  8
TEXT
100
AcDbPolyline
 90
        5
 70
     0
 43
0.0001332181640625
 10
0.0693608076246199
 20
0.226854888409272
 10
0.0826826240308687
 20
0.226854888409272
 10
0.0826826240308687
 20
0.2634898835264618
 10
0.1193176191480585
 20
0.2634898835264618
 10
0.1193176191480585
 20
0.2768116999327088
  0
LWPOLYLINE
  5
7DE1B343D9DC93E
330
7DE1B343D9DC9FA
100
AcDbEntity
  8
TEXT
100
AcDbPolyline
 90
        5
 70
     0
 43
0.0001332181640625
 10
0.1393003437574307
 20
0.2768116999327088
 10
0.1393003437574307
 20
0.2634898835264618
 10
0.1759353388746205
 20
0.2634898835264618
 10
0.1759353388746205
 20
0.226854888409272
 10
0.1892571552808693
 20
0.226854888409272
  0
LWPOLYLINE
  5
7DE1B343D9DC945
330
7DE1B343D9DC9FA
100
AcDbEntity
  8
TEXT
100
AcDbPolyline
 90
        2
 70
     0
 43
0.0001332181640625
 10
0.1492917060621195
 20
0.1102889948545862
 10
0.1393003437574307
 20
0.1702371686827118
  0
LWPOLYLINE
  5
7DE1B343D9DC949
330
7DE1B343D9DC9FA
100
AcDbEntity
  8
TEXT
100
AcDbPolyline
 90
        2
 70
     0
 43
0.0001332181640625
 10
0.1393003437574307
 20
0.1569153522764612
 10
0.1492917060621195
 20
0.0836453620420852
  0
LWPOLYLINE
  5
7DE1B343D9DC94D
330
7DE1B343D9DC9FA
100
AcDbEntity
  8
TEXT
100
AcDbPolyline
 90
        2
 70
     0
 43
0.0006660908203125
 10
0.1492917060621195
 20
0.1102889948545862
 10
0.1492917060621195
 20
0.0836453620420852
  0
LWPOLYLINE
  5
7DE1B343D9DC951
330
7DE1B343D9DC9FA
100
AcDbEntity
  8
TEXT
100
AcDbPolyline
 90
        5
 70
     0
 43
0.0001332181640625
 10
0.1892571552808693
 20
0.206872163799898
 10
0.1759353388746205
 20
0.206872163799898
 10
0.1759353388746205
 20
0.1702371686827118
 10
0.1393003437574307
 20
0.1702371686827118
 10
0.1393003437574307
 20
0.1569153522764612
  0
LWPOLYLINE
  5
7DE1B343D9DC958
330
7DE1B343D9DC9FA
100
AcDbEntity
  8
TEXT
100
AcDbPolyline
 90
        2
 70
     0
 43
0.0006660908203125
 10
0.2358835127027443
 20
0.2368462507139608
 10
0.2625271455152454
 20
0.2368462507139608
  0
LWPOLYLINE
  5
7DE1B343D9DC95C
330
7DE1B343D9DC9FA
100
AcDbEntity
  8
TEXT
100
AcDbPolyline
 90
        2
 70
     0
 43
0.0006660908203125
 10
0.2358835127027443
 20
0.1968808014952128
 10
0.2625271455152454
 20
0.1968808014952128
  0
LINE
  5
7DE1B343D9DC960
330
7DE1B343D9DC9FA
100
AcDbEntity
  8
TEXT
100
AcDbLine
 10
0.5326412823632703
 20
0.2858049955103195
 30
0.0
 11
0.6995469363922416
 21
0.2858049955103195
 31
0.0
  0
LINE
  5
7DE1B343D9DC961
330
7DE1B343D9DC9FA
100
AcDbEntity
  8
TEXT
100
AcDbLine
 10
0.5982414186075714
 20
0.2500002738996916
 30
0.0
 11
0.5326412823632703
 21
0.2500002738996916
 31
0.0
  0
LINE
  5
7DE1B343D9DC962
330
7DE1B343D9DC9FA
100
AcDbEntity
  8
TEXT
100
AcDbLine
 10
0.4453164928025187
 20
0.0836086571785739
 30
0.0
 11
0.5982414186075714
 21
0.0836086571785739
 31
0.0
  0
LINE
  5
7DE1B343D9DC963
330
7DE1B343D9DC9FA
100
AcDbEntity
  8
TEXT
100
AcDbLine
 10
0.603181792513851
 20
0.1519656635120132
 30
0.0
 11
0.4453164928025169
 21
0.1519656635120132
 31
0.0
  0
LINE
  5
7DE1B343D9DC964
330
7DE1B343D9DC9FA
100
AcDbEntity
  8
TEXT
100
AcDbLine
 10
0.5274039522490222
 20
0.1859067712740778
 30
0.0
 11
0.603181792513851
 21
0.1859067712740778
 31
0.0
  0
ARC
  5
7DE1B343D9DC965
330
7DE1B343D9DC9FA
100
AcDbEntity
  8
TEXT
100
AcDbCircle
 10
0.5326412823632712
 20
0.2679026347050073
 30
0.0
 40
0.017902360805315
100
AcDbArc
 50
90.0
 51
270.0
  0
LINE
  5
7DE1B343D9DC966
330
7DE1B343D9DC9FA
100
AcDbEntity
  8
TEXT
100
AcDbLine
 10
0.4453164928025169
 20
0.1519656635120132
 30
0.0
 11
0.4453164928025187
 21
0.0836086571785739
 31
0.0
  0
LINE
  5
7DE1B343D9DC967
330
7DE1B343D9DC9FA
100
AcDbEntity
  8
TEXT
100
AcDbLine
 10
0.6995469363922416
 20
0.2858049955103195
 30
0.0
 11
0.6995469363922416
 21
0.1434010485166237
 31
0.0
  0
ARC
  5
7DE1B343D9DC968
330
7DE1B343D9DC9FA
100
AcDbEntity
  8
TEXT
100
AcDbCircle
 10
0.5982414186075723
 20
0.166804465539131
 30
0.0
 40
0.0831958083605586
100
AcDbArc
 50
270.0
 51
90.0
  0
ARC
  5
7DE1B343D9DC969
330
7DE1B343D9DC9FA
100
AcDbEntity
  8
TEXT
100
AcDbCircle
 10
0.6031817925138519
 20
0.1689362173930473
 30
0.0
 40
0.0169705538810321
100
AcDbArc
 50
270.0
 51
90.0
  0
LWPOLYLINE
  5
7DE1B343D9DC96A
330
7DE1B343D9DC9FA
100
AcDbEntity
  8
TEXT
100
AcDbPolyline
 90
        2
 70
     0
 43
0.0006660908203125
 10
0.1093262568433679
 20
0.3234380573545874
 10
0.1093262568433679
 20
0.3500816901670884
  0
LWPOLYLINE
  5
7DE1B343D9DC96E
330
7DE1B343D9DC9FA
100
AcDbEntity
  8
TEXT
100
AcDbPolyline
 90
        2
 70
     0
 43
0.0006660908203125
 10
0.1492917060621195
 20
0.3234380573545874
 10
0.1492917060621195
 20
0.3500816901670884
  0
LINE
  5
7DE1B343D9DC972
330
7DE1B343D9DC9FA
100
AcDbEntity
  8
TEXT
100
AcDbLine
 10
0.7031357051475345
 20
0.3500816901670849
 30
0.0
 11
0.5274039522490222
 21
0.3500816901670849
 31
0.0
  0
LINE
  5
7DE1B343D9DC973
330
7DE1B343D9DC9FA
100
AcDbEntity
  8
TEXT
100
AcDbLine
 10
0.7031357051475345
 20
0.3844696077612231
 30
0.0
 11
0.7031357051475345
 21
0.3500816901670849
 31
0.0
  0
LINE
  5
7DE1B343D9DC974
330
7DE1B343D9DC9FA
100
AcDbEntity
  8
TEXT
100
AcDbLine
 10
0.8936075971673867
 20
0.2492096940539643
 30
0.0
 11
0.8349772761354488
 21
0.3500816901670849
 31
0.0
  0
LINE
  5
7DE1B343D9DC975
330
7DE1B343D9DC9FA
100
AcDbEntity
  8
TEXT
100
AcDbLine
 10
0.9523561599732522
 20
0.3500816901670849
 30
0.0
 11
0.8936075971673867
 21
0.2492096940539643
 31
0.0
  0
LINE
  5
7DE1B343D9DC976
330
7DE1B343D9DC9FA
100
AcDbEntity
  8
TEXT
100
AcDbLine
 10
1.049286785332993
 20
0.1659964952815731
 30
0.0
 11
1.049286785332993
 21
0.4180931679058955
 31
0.0
  0
LINE
  5
7DE1B343D9DC977
330
7DE1B343D9DC9FA
100
AcDbEntity
  8
TEXT
100
AcDbLine
 10
1.081598639470653
 20
0.3500816901670849
 30
0.0
 11
1.081598639470653
 21
0.1492174834346767
 31
0.0
  0
LINE
  5
7DE1B343D9DC978
330
7DE1B343D9DC9FA
100
AcDbEntity
  8
TEXT
100
AcDbLine
 10
1.081598639470653
 20
0.1492174834346767
 30
0.0
 11
1.064605002586052
 21
0.1492174834346767
 31
0.0
  0
LINE
  5
7DE1B343D9DC979
330
7DE1B343D9DC9FA
100
AcDbEntity
  8
TEXT
100
AcDbLine
 10
1.050426358829188
 20
0.0836086571785739
 30
0.0
 11
1.148429692528622
 21
0.0836086571785739
 31
0.0
  0
LINE
  5
7DE1B343D9DC97A
330
7DE1B343D9DC9FA
100
AcDbEntity
  8
TEXT
100
AcDbLine
 10
0.8840073601704323
 20
0.1035671632835868
 30
0.0
 11
0.981307066263877
 21
0.267917374218855
 31
0.0
  0
ARC
  5
7DE1B343D9DC97B
330
7DE1B343D9DC9FA
100
AcDbEntity
  8
TEXT
100
AcDbCircle
 10
0.8499638002582184
 20
0.1231563794522696
 30
0.0
 40
0.0392772371940762
100
AcDbArc
 50
270.1604552698595
 51
330.0831797321295
  0
LINE
  5
7DE1B343D9DC97C
330
7DE1B343D9DC9FA
100
AcDbEntity
  8
TEXT
100
AcDbLine
 10
0.7534335438723473
 20
0.0836086571785739
 30
0.0
 11
0.8500737949473416
 21
0.0838792962768562
 31
0.0
  0
LWPOLYLINE
  5
7DE1B343D9DC97D
330
7DE1B343D9DC9FA
100
AcDbEntity
  8
TEXT
100
AcDbPolyline
 90
        6
 70
     1
 43
0.0
 10
0.7959573474474969
 20
0.2858049955103195
 10
0.7656407532272887
 20
0.2858049955103195
 10
0.7656407532272887
 20
0.1626939974554251
 42
0.407328721240804
 10
0.7771844043887651
 20
0.150875082779039
 10
0.8378061034334958
 20
0.150875082779039
 10
0.8552714438408138
 20
0.1836873118225182
  0
LINE
  5
7DE1B343D9DC985
330
7DE1B343D9DC9FA
100
AcDbEntity
  8
TEXT
100
AcDbLine
 10
0.981307066263877
 20
0.267917374218855
 30
0.0
 11
0.981307066263877
 21
0.1351599993934986
 31
0.0
  0
ARC
  5
7DE1B343D9DC986
330
7DE1B343D9DC9FA
100
AcDbEntity
  8
TEXT
100
AcDbCircle
 10
1.06460500258605
 20
0.1645992896781021
 30
0.0
 40
0.0153818062434269
100
AcDbArc
 50
174.7883570302258
 51
270.0
  0
LWPOLYLINE
  5
7DE1B343D9DC987
330
7DE1B343D9DC9FA
100
AcDbEntity
  8
TEXT
100
AcDbPolyline
 90
        2
 70
     0
 43
0.0
 10
0.9813070662638752
 20
0.1351599993935022
 42
0.3318488747599744
 10
1.050426358829188
 20
0.0836086571785739
 42
-6.868794160588311
  0
LINE
  5
7DE1B343D9DC98B
330
7DE1B343D9DC9FA
100
AcDbEntity
  8
TEXT
100
AcDbLine
 10
1.205818761517883
 20
0.0836086571785739
 30
0.0
 11
1.272876808299723
 21
0.0836086571785739
 31
0.0
  0
LINE
  5
7DE1B343D9DC98C
330
7DE1B343D9DC9FA
100
AcDbEntity
  8
TEXT
100
AcDbLine
 10
1.205818761517883
 20
0.2782512063442095
 30
0.0
 11
1.205818761517883
 21
0.0836086571785739
 31
0.0
  0
LINE
  5
7DE1B343D9DC98D
330
7DE1B343D9DC9FA
100
AcDbEntity
  8
TEXT
100
AcDbLine
 10
1.148429692528622
 20
0.2858049955103195
 30
0.0
 11
1.19826497235177
 21
0.2858049955103195
 31
0.0
  0
LINE
  5
7DE1B343D9DC98E
330
7DE1B343D9DC9FA
100
AcDbEntity
  8
TEXT
100
AcDbLine
 10
1.148429692528622
 20
0.0836086571785739
 30
0.0
 11
1.148429692528622
 21
0.2858049955103195
 31
0.0
  0
LWPOLYLINE
  5
7DE1B343D9DC98F
330
7DE1B343D9DC9FA
100
AcDbEntity
  8
TEXT
100
AcDbPolyline
 90
        2
 70
     0
 43
0.0
 10
1.198264972351768
 20
0.2858049955103195
 42
-0.4142135623731017
 10
1.205818761517882
 20
0.2782512063442095
 42
-0.9999999999999998
  0
LINE
  5
7DE1B343D9DC993
330
7DE1B343D9DC9FA
100
AcDbEntity
  8
TEXT
100
AcDbLine
 10
1.404074973129453
 20
0.2858049955103195
 30
0.0
 11
1.404074973129453
 21
0.2107525894361129
 31
0.0
  0
LINE
  5
7DE1B343D9DC994
330
7DE1B343D9DC9FA
100
AcDbEntity
  8
TEXT
100
AcDbLine
 10
1.272876808299723
 20
0.2858049955103195
 30
0.0
 11
1.327010405220674
 21
0.2858049955103195
 31
0.0
  0
LINE
  5
7DE1B343D9DC995
330
7DE1B343D9DC9FA
100
AcDbEntity
  8
TEXT
100
AcDbLine
 10
1.272876808299723
 20
0.0836086571785739
 30
0.0
 11
1.272876808299723
 21
0.2858049955103195
 31
0.0
  0
LWPOLYLINE
  5
7DE1B343D9DC996
330
7DE1B343D9DC9FA
100
AcDbEntity
  8
TEXT
100
AcDbPolyline
 90
        2
 70
     0
 43
0.0
 10
1.327010405220672
 20
0.2858049955103195
 42
-0.4142135623731017
 10
1.334564194386785
 20
0.2782512063442095
 42
-0.9999999999999998
  0
LWPOLYLINE
  5
7DE1B343D9DC99A
330
7DE1B343D9DC9FA
100
AcDbEntity
  8
TEXT
100
AcDbPolyline
 90
        4
 70
     0
 43
0.0
 10
1.334564194386785
 20
0.2782512063442095
 10
1.334564194386785
 20
0.0836086571785739
 10
1.403042477674643
 20
0.0836086571785739
 10
1.403042477674643
 20
0.1270996021290121
 42
-1.714843617202739
  0
LINE
  5
7DE1B343D9DC9A0
330
7DE1B343D9DC9FA
100
AcDbEntity
  8
TEXT
100
AcDbLine
 10
0.7631783099915415
 20
0.3500816901670849
 30
0.0
 11
0.7631783099915415
 21
0.3844696077612231
 31
0.0
  0
LINE
  5
7DE1B343D9DC9A1
330
7DE1B343D9DC9FA
100
AcDbEntity
  8
TEXT
100
AcDbLine
 10
0.8349772761354488
 20
0.3500816901670849
 30
0.0
 11
0.7631783099915415
 21
0.3500816901670849
 31
0.0
  0
LINE
  5
7DE1B343D9DC9A2
330
7DE1B343D9DC9FA
100
AcDbEntity
  8
TEXT
100
AcDbLine
 10
0.9824780727666285
 20
0.3500816901670849
 30
0.0
 11
0.9523561599732522
 21
0.3500816901670849
 31
0.0
  0
LINE
  5
7DE1B343D9DC9A3
330
7DE1B343D9DC9FA
100
AcDbEntity
  8
TEXT
100
AcDbLine
 10
0.9824780727666285
 20
0.4180931679058955
 30
0.0
 11
0.9824780727666285
 21
0.3500816901670849
 31
0.0
  0
LINE
  5
7DE1B343D9DC9A4
330
7DE1B343D9DC9FA
100
AcDbEntity
  8
TEXT
100
AcDbLine
 10
1.049286785332993
 20
0.4180931679058955
 30
0.0
 11
0.9824780727666285
 21
0.4180931679058955
 31
0.0
  0
LWPOLYLINE
  5
7DE1B343D9DC9A5
330
7DE1B343D9DC9FA
100
AcDbEntity
  8
TEXT
100
AcDbPolyline
 90
        3
 70
     0
 43
0.0
 10
1.369698544930995
 20
0.3500816901670884
 10
1.251398386114951
 20
0.3500816901670884
 10
1.251398386114951
 20
0.3229141934061925
 42
-1.960274751411753
  0
LINE
  5
7DE1B343D9DC9AA
330
7DE1B343D9DC9FA
100
AcDbEntity
  8
TEXT
100
AcDbLine
 10
1.215616695401789
 20
0.3500816901670849
 30
0.0
 11
1.081598639470653
 21
0.3500816901670849
 31
0.0
  0
LWPOLYLINE
  5
7DE1B343D9DC9AB
330
7DE1B343D9DC9FA
100
AcDbEntity
  8
TEXT
100
AcDbPolyline
 90
        2
 70
     0
 43
0.0
 10
1.215616695401789
 20
0.3500816901670884
 42
-0.3328679258950098
 10
1.251398386114951
 20
0.3229141934061925
 42
6.772930709997214
  0
LINE
  5
7DE1B343D9DC9AF
330
7DE1B343D9DC9FA
100
AcDbEntity
  8
TEXT
100
AcDbLine
 10
1.405480235644162
 20
0.3500816901670849
 30
0.0
 11
1.405480235644162
 21
0.321759144397441
 31
0.0
  0
LWPOLYLINE
  5
7DE1B343D9DC9B0
330
7DE1B343D9DC9FA
100
AcDbEntity
  8
TEXT
100
AcDbPolyline
 90
        2
 70
     0
 43
0.0
 10
1.369698544930995
 20
0.3500816901670884
 42
-0.3277054968067132
 10
1.40548023564416
 20
0.3217591443974446
 42
6.667889725900311
  0
LINE
  5
7DE1B343D9DC9B4
330
7DE1B343D9DC9FA
100
AcDbEntity
  8
TEXT
100
AcDbLine
 10
1.619272083736262
 20
0.2448697116136576
 30
0.0
 11
1.575521312554361
 21
0.3271199876098028
 31
0.0
  0
LINE
  5
7DE1B343D9DC9B5
330
7DE1B343D9DC9FA
100
AcDbEntity
  8
TEXT
100
AcDbLine
 10
1.619272083736262
 20
0.3500816901670849
 30
0.0
 11
1.619272083736262
 21
0.2448697116136576
 31
0.0
  0
LINE
  5
7DE1B343D9DC9B6
330
7DE1B343D9DC9FA
100
AcDbEntity
  8
TEXT
100
AcDbLine
 10
1.846955822674631
 20
0.2742163637555468
 30
0.0
 11
1.846955822674631
 21
0.4155458959346856
 31
0.0
  0
LINE
  5
7DE1B343D9DC9B7
330
7DE1B343D9DC9FA
100
AcDbEntity
  8
TEXT
100
AcDbLine
 10
1.894053981230616
 20
0.3500816901670849
 30
0.0
 11
1.846955822674631
 21
0.2742163637555468
 31
0.0
  0
LINE
  5
7DE1B343D9DC9B8
330
7DE1B343D9DC9FA
100
AcDbEntity
  8
TEXT
100
AcDbLine
 10
1.904488697994539
 20
0.2401884472261113
 30
0.0
 11
1.969045813960244
 21
0.3500816901670849
 31
0.0
  0
LINE
  5
7DE1B343D9DC9B9
330
7DE1B343D9DC9FA
100
AcDbEntity
  8
TEXT
100
AcDbLine
 10
1.783120831451858
 20
0.0836086571785739
 30
0.0
 11
1.847499015770478
 21
0.0836086571785739
 31
0.0
  0
LWPOLYLINE
  5
7DE1B343D9DC9BA
330
7DE1B343D9DC9FA
100
AcDbEntity
  8
TEXT
100
AcDbPolyline
 90
        2
 70
     0
 43
0.0
 10
1.6232117610413
 20
0.1270996021290121
 42
-0.2901071551932486
 10
1.580135828173655
 20
0.0836086571785739
 42
-5.328517124445184
  0
ARC
  5
7DE1B343D9DC9BE
330
7DE1B343D9DC9FA
100
AcDbEntity
  8
TEXT
100
AcDbCircle
 10
1.511281246516741
 20
0.2574456205103222
 30
0.0
 40
0.028359375
100
AcDbArc
 50
25.78218179591245
 51
90.0
  0
LINE
  5
7DE1B343D9DC9BF
330
7DE1B343D9DC9FA
100
AcDbEntity
  8
TEXT
100
AcDbLine
 10
1.547082321820864
 20
0.2485300220481872
 30
0.0
 11
1.5368175614073
 21
0.2697805616208815
 31
0.0
  0
LINE
  5
7DE1B343D9DC9C0
330
7DE1B343D9DC9FA
100
AcDbEntity
  8
TEXT
100
AcDbLine
 10
1.464794332037481
 20
0.2485300220481872
 30
0.0
 11
1.547082321820864
 21
0.2485300220481872
 31
0.0
  0
LWPOLYLINE
  5
7DE1B343D9DC9C1
330
7DE1B343D9DC9FA
100
AcDbEntity
  8
TEXT
100
AcDbPolyline
 90
        4
 70
     1
 43
0.0
 10
1.560013363103763
 20
0.1865726351625991
 10
1.471353044443904
 20
0.1865726351625991
 42
0.9999999999999998
 10
1.471353044443904
 20
0.1441740946587384
 10
1.560013363103763
 20
0.1441740946587384
 42
1.0
  0
LWPOLYLINE
  5
7DE1B343D9DC9C7
330
7DE1B343D9DC9FA
100
AcDbEntity
  8
TEXT
100
AcDbPolyline
 90
        2
 70
     0
 43
0.0
 10
1.446118410542279
 20
0.0836086571785739
 10
1.580135828173655
 20
0.0836086571785739
 42
0.9999999999999998
  0
LINE
  5
7DE1B343D9DC9CB
330
7DE1B343D9DC9FA
100
AcDbEntity
  8
TEXT
100
AcDbLine
 10
1.706472850159295
 20
0.2858049955103195
 30
0.0
 11
1.783120831451853
 21
0.2858049955103195
 31
0.0
  0
LINE
  5
7DE1B343D9DC9CC
330
7DE1B343D9DC9FA
100
AcDbEntity
  8
TEXT
100
AcDbLine
 10
1.783120831451853
 20
0.2858049955103195
 30
0.0
 11
1.783120831451858
 21
0.0836086571785739
 31
0.0
  0
ARC
  5
7DE1B343D9DC9CD
330
7DE1B343D9DC9FA
100
AcDbEntity
  8
TEXT
100
AcDbCircle
 10
1.706472850159293
 20
0.2608991202276567
 30
0.0
 40
0.0249058752826653
100
AcDbArc
 50
89.99971217465335
 51
179.9999999999985
  0
LINE
  5
7DE1B343D9DC9CE
330
7DE1B343D9DC9FA
100
AcDbEntity
  8
TEXT
100
AcDbLine
 10
1.681566974876636
 20
0.0836086571785739
 30
0.0
 11
1.68156697487663
 21
0.2608991626100423
 31
0.0
  0
LWPOLYLINE
  5
7DE1B343D9DC9CF
330
7DE1B343D9DC9FA
100
AcDbEntity
  8
TEXT
100
AcDbPolyline
 90
        2
 70
     0
 43
0.0
 10
1.6232117610413
 20
0.0836086571785739
 10
1.681566974876634
 20
0.0836086571785739
  0
LWPOLYLINE
  5
7DE1B343D9DC9D3
330
7DE1B343D9DC9FA
100
AcDbEntity
  8
TEXT
100
AcDbPolyline
 90
        2
 70
     0
 43
0.0
 10
1.6232117610413
 20
0.1270996021290121
 10
1.6232117610413
 20
0.0836086571785739
  0
LINE
  5
7DE1B343D9DC9D7
330
7DE1B343D9DC9FA
100
AcDbEntity
  8
TEXT
100
AcDbLine
 10
1.999980921358149
 20
0.0836086571785739
 30
0.0
 11
1.904488697994539
 21
0.2401884472261113
 31
0.0
  0
LINE
  5
7DE1B343D9DC9D8
330
7DE1B343D9DC9FA
100
AcDbEntity
  8
TEXT
100
AcDbLine
 10
1.923402548981943
 20
0.0836086571785739
 30
0.0
 11
1.999980921358149
 21
0.0836086571785739
 31
0.0
  0
LINE
  5
7DE1B343D9DC9D9
330
7DE1B343D9DC9FA
100
AcDbEntity
  8
TEXT
100
AcDbLine
 10
1.847499015770478
 20
0.2151882256547541
 30
0.0
 11
1.923402548981943
 21
0.0836086571785739
 31
0.0
  0
LINE
  5
7DE1B343D9DC9DA
330
7DE1B343D9DC9FA
100
AcDbEntity
  8
TEXT
100
AcDbLine
 10
1.847499015770478
 20
0.0836086571785739
 30
0.0
 11
1.847499015770478
 21
0.2151882256547541
 31
0.0
  0
LINE
  5
7DE1B343D9DC9DB
330
7DE1B343D9DC9FA
100
AcDbEntity
  8
TEXT
100
AcDbLine
 10
1.846955822674631
 20
0.4155458959346856
 30
0.0
 11
1.778640944125358
 21
0.4155458959346856
 31
0.0
  0
ARC
  5
7DE1B343D9DC9DC
330
7DE1B343D9DC9FA
100
AcDbEntity
  8
TEXT
100
AcDbCircle
 10
1.538285205084152
 20
0.3084981230461825
 30
0.0
 40
0.0416329381542859
100
AcDbArc
 50
26.56974201007528
 51
87.20939649401342
  0
LINE
  5
7DE1B343D9DC9DD
330
7DE1B343D9DC9FA
100
AcDbEntity
  8
TEXT
100
AcDbLine
 10
1.683168990035763
 20
0.3500816901670849
 30
0.0
 11
1.619272083736262
 21
0.3500816901670849
 31
0.0
  0
LINE
  5
7DE1B343D9DC9DE
330
7DE1B343D9DC9FA
100
AcDbEntity
  8
TEXT
100
AcDbLine
 10
1.683168990035763
 20
0.3225340403062102
 30
0.0
 11
1.683168990035763
 21
0.3500816901670849
 31
0.0
  0
ARC
  5
7DE1B343D9DC9DF
330
7DE1B343D9DC9FA
100
AcDbEntity
  8
TEXT
100
AcDbCircle
 10
1.714361807098871
 20
0.3188359628848201
 30
0.0
 40
0.0314112657011332
100
AcDbArc
 50
95.88484768694724
 51
173.2388340632136
  0
LINE
  5
7DE1B343D9DC9E0
330
7DE1B343D9DC9FA
100
AcDbEntity
  8
TEXT
100
AcDbLine
 10
1.778640944125353
 20
0.3500816901670849
 30
0.0
 11
1.711141226475836
 21
0.3500816901670849
 31
0.0
  0
LINE
  5
7DE1B343D9DC9E1
330
7DE1B343D9DC9FA
100
AcDbEntity
  8
TEXT
100
AcDbLine
 10
1.778640944125358
 20
0.4155458959346856
 30
0.0
 11
1.778640944125353
 21
0.3500816901670849
 31
0.0
  0
LINE
  5
7DE1B343D9DC9E2
330
7DE1B343D9DC9FA
100
AcDbEntity
  8
TEXT
100
AcDbLine
 10
1.969045813960244
 20
0.3500816901670849
 30
0.0
 11
1.894053981230617
 21
0.3500816901670849
 31
0.0
  0
ENDSEC
  0
SECTION
  2
OBJECTS
  0
DICTIONARY
  5
7DE1B343D9DC9EE
330
0
100
AcDbDictionary
  3
ACAD_GROUP
350
7DE1B343D9DC9EF
  3
ACAD_LAYOUT
350
7DE1B343D9DCA14
  3
ACAD_MLINESTYLE
350
7DE1B343D9DC9F0
  3
ACAD_PLOTSETTINGS
350
7DE1B343D9DCA15
  3
ACAD_PLOTSTYLENAME
350
7DE1B343D9DCA12
  3
ACDBHEADERROUNDTRIPXREC
350
7DE1B343D9DCA1F
  3
ACDBVARIABLEDICTIONARY
350
7DE1B343D9DCA1C
  0
DICTIONARY
  5
7DE1B343D9DCA41
330
7DE1B343D9DC9FA
100
AcDbDictionary
280
     1
  3
ACAD_LAYOUTSELFREF
360
7DE1B343D9DCA42
  0
DICTIONARY
  5
7DE1B343D9DCA3F
330
7DE1B343D9DC9F7
100
AcDbDictionary
280
     1
  3
ACAD_LAYOUTSELFREF
360
7DE1B343D9DCA40
  0
DICTIONARY
  5
7DE1B343D9DC9EF
102
{ACAD_REACTORS
330
7DE1B343D9DC9EE
102
}
330
7DE1B343D9DC9EE
100
AcDbDictionary
  0
DICTIONARY
  5
7DE1B343D9DCA14
102
{ACAD_REACTORS
330
7DE1B343D9DC9EE
102
}
330
7DE1B343D9DC9EE
100
AcDbDictionary
  0
DICTIONARY
  5
7DE1B343D9DC9F0
102
{ACAD_REACTORS
330
7DE1B343D9DC9EE
102
}
330
7DE1B343D9DC9EE
100
AcDbDictionary
  3
STANDARD
350
7DE1B343D9DC9FD
  0
DICTIONARY
  5
7DE1B343D9DCA15
102
{ACAD_REACTORS
330
7DE1B343D9DC9EE
102
}
330
7DE1B343D9DC9EE
100
AcDbDictionary
  0
ACDBDICTIONARYWDFLT
  5
7DE1B343D9DCA12
102
{ACAD_REACTORS
330
7DE1B343D9DC9EE
102
}
330
7DE1B343D9DC9EE
100
AcDbDictionary
281
     1
  3
Normal
350
7DE1B343D9DCA13
100
AcDbDictionaryWithDefault
340
7DE1B343D9DCA13
  0
DICTIONARY
  5
7DE1B343D9DCA1F
102
{ACAD_REACTORS
330
7DE1B343D9DC9EE
102
}
330
7DE1B343D9DC9EE
100
AcDbDictionary
  3
CEPSNTYPE
350
7DE1B343D9DCA29
  3
FINGERPRINTGUID
350
7DE1B343D9DCA2A
  3
HYPERLINKBASE
350
7DE1B343D9DCA22
  3
INSUNITS
350
7DE1B343D9DCA28
  3
LAYOUTDICT
350
7DE1B343D9DCA24
  3
LWETCUNION
350
7DE1B343D9DCA27
  3
PLOTSETDICT
350
7DE1B343D9DCA25
  3
PLOTSTYLNAMDICT
350
7DE1B343D9DCA26
  3
PSVPSCALE
350
7DE1B343D9DCA2C
  3
PUCSBASE
350
7DE1B343D9DCA2F
  3
PUCSORGBACK
350
7DE1B343D9DCA35
  3
PUCSORGBOTTOM
350
7DE1B343D9DCA31
  3
PUCSORGFRONT
350
7DE1B343D9DCA34
  3
PUCSORGLEFT
350
7DE1B343D9DCA32
  3
PUCSORGRIGHT
350
7DE1B343D9DCA33
  3
PUCSORGTOP
350
7DE1B343D9DCA30
  3
PUCSORTHOREF
350
7DE1B343D9DCA2D
  3
PUCSORTHOVIEW
350
7DE1B343D9DCA2E
  3
STYLESHEET
350
7DE1B343D9DCA23
  3
TSTACKALIGN
350
7DE1B343D9DCA20
  3
TSTACKSIZE
350
7DE1B343D9DCA21
  3
UCSBASE
350
7DE1B343D9DCA38
  3
UCSORGBACK
350
7DE1B343D9DCA3E
  3
UCSORGBOTTOM
350
7DE1B343D9DCA3A
  3
UCSORGFRONT
350
7DE1B343D9DCA3D
  3
UCSORGLEFT
350
7DE1B343D9DCA3B
  3
UCSORGRIGHT
350
7DE1B343D9DCA3C
  3
UCSORGTOP
350
7DE1B343D9DCA39
  3
UCSORTHOREF
350
7DE1B343D9DCA36
  3
UCSORTHOVIEW
350
7DE1B343D9DCA37
  3
VERSIONGUID
350
7DE1B343D9DCA2B
  0
DICTIONARY
  5
7DE1B343D9DCA1C
102
{ACAD_REACTORS
330
7DE1B343D9DC9EE
102
}
330
7DE1B343D9DC9EE
100
AcDbDictionary
  3
DIMASSOC
350
7DE1B343D9DCA1D
  0
XRECORD
  5
7DE1B343D9DCA42
102
{ACAD_REACTORS
330
7DE1B343D9DCA41
102
}
330
7DE1B343D9DCA41
100
AcDbXrecord
340
7DE1B343D9DC9FA
  0
XRECORD
  5
7DE1B343D9DCA40
102
{ACAD_REACTORS
330
7DE1B343D9DCA3F
102
}
330
7DE1B343D9DCA3F
100
AcDbXrecord
340
7DE1B343D9DC9F7
  0
MLINESTYLE
  5
7DE1B343D9DC9FD
102
{ACAD_REACTORS
330
7DE1B343D9DC9F0
102
}
330
7DE1B343D9DC9F0
100
AcDbMlineStyle
  2
STANDARD
 70
     0
  3

 62
     0
 51
90.0
 52
90.0
 71
     2
 49
0.5
 62
   256
  6
BYLAYER
 49
-0.5
 62
   256
  6
BYLAYER
  0
ACDBPLACEHOLDER
  5
7DE1B343D9DCA13
102
{ACAD_REACTORS
330
7DE1B343D9DCA12
102
}
330
7DE1B343D9DCA12
100
AcDbPlaceHolder
280
     0
  0
XRECORD
  5
7DE1B343D9DCA29
102
{ACAD_REACTORS
330
7DE1B343D9DCA1F
102
}
330
7DE1B343D9DCA1F
100
AcDbXrecord
 90
        0
  0
XRECORD
  5
7DE1B343D9DCA2A
102
{ACAD_REACTORS
330
7DE1B343D9DCA1F
102
}
330
7DE1B343D9DCA1F
100
AcDbXrecord
  1
{23865EE0-8DB5-11D6-88E6-0090279574E7}
  0
XRECORD
  5
7DE1B343D9DCA22
102
{ACAD_REACTORS
330
7DE1B343D9DCA1F
102
}
330
7DE1B343D9DCA1F
100
AcDbXrecord
  1

  0
XRECORD
  5
7DE1B343D9DCA28
102
{ACAD_REACTORS
330
7DE1B343D9DCA1F
102
}
330
7DE1B343D9DCA1F
100
AcDbXrecord
 90
        0
  0
XRECORD
  5
7DE1B343D9DCA24
102
{ACAD_REACTORS
330
7DE1B343D9DCA1F
102
}
330
7DE1B343D9DCA1F
100
AcDbXrecord
340
7DE1B343D9DCA14
  0
XRECORD
  5
7DE1B343D9DCA27
102
{ACAD_REACTORS
330
7DE1B343D9DCA1F
102
}
330
7DE1B343D9DCA1F
100
AcDbXrecord
 90
    14877
  0
XRECORD
  5
7DE1B343D9DCA25
102
{ACAD_REACTORS
330
7DE1B343D9DCA1F
102
}
330
7DE1B343D9DCA1F
100
AcDbXrecord
340
7DE1B343D9DCA15
  0
XRECORD
  5
7DE1B343D9DCA26
102
{ACAD_REACTORS
330
7DE1B343D9DCA1F
102
}
330
7DE1B343D9DCA1F
100
AcDbXrecord
340
7DE1B343D9DCA12
  0
XRECORD
  5
7DE1B343D9DCA2C
102
{ACAD_REACTORS
330
7DE1B343D9DCA1F
102
}
330
7DE1B343D9DCA1F
100
AcDbXrecord
 40
0.0
  0
XRECORD
  5
7DE1B343D9DCA2F
102
{ACAD_REACTORS
330
7DE1B343D9DCA1F
102
}
330
7DE1B343D9DCA1F
100
AcDbXrecord
340
0
  0
XRECORD
  5
7DE1B343D9DCA35
102
{ACAD_REACTORS
330
7DE1B343D9DCA1F
102
}
330
7DE1B343D9DCA1F
100
AcDbXrecord
 10
0.0
 20
0.0
 30
0.0
  0
XRECORD
  5
7DE1B343D9DCA31
102
{ACAD_REACTORS
330
7DE1B343D9DCA1F
102
}
330
7DE1B343D9DCA1F
100
AcDbXrecord
 10
0.0
 20
0.0
 30
0.0
  0
XRECORD
  5
7DE1B343D9DCA34
102
{ACAD_REACTORS
330
7DE1B343D9DCA1F
102
}
330
7DE1B343D9DCA1F
100
AcDbXrecord
 10
0.0
 20
0.0
 30
0.0
  0
XRECORD
  5
7DE1B343D9DCA32
102
{ACAD_REACTORS
330
7DE1B343D9DCA1F
102
}
330
7DE1B343D9DCA1F
100
AcDbXrecord
 10
0.0
 20
0.0
 30
0.0
  0
XRECORD
  5
7DE1B343D9DCA33
102
{ACAD_REACTORS
330
7DE1B343D9DCA1F
102
}
330
7DE1B343D9DCA1F
100
AcDbXrecord
 10
0.0
 20
0.0
 30
0.0
  0
XRECORD
  5
7DE1B343D9DCA30
102
{ACAD_REACTORS
330
7DE1B343D9DCA1F
102
}
330
7DE1B343D9DCA1F
100
AcDbXrecord
 10
0.0
 20
0.0
 30
0.0
  0
XRECORD
  5
7DE1B343D9DCA2D
102
{ACAD_REACTORS
330
7DE1B343D9DCA1F
102
}
330
7DE1B343D9DCA1F
100
AcDbXrecord
340
0
  0
XRECORD
  5
7DE1B343D9DCA2E
102
{ACAD_REACTORS
330
7DE1B343D9DCA1F
102
}
330
7DE1B343D9DCA1F
100
AcDbXrecord
 70
     0
  0
XRECORD
  5
7DE1B343D9DCA23
102
{ACAD_REACTORS
330
7DE1B343D9DCA1F
102
}
330
7DE1B343D9DCA1F
100
AcDbXrecord
  1

  0
XRECORD
  5
7DE1B343D9DCA20
102
{ACAD_REACTORS
330
7DE1B343D9DCA1F
102
}
330
7DE1B343D9DCA1F
100
AcDbXrecord
 90
        1
  0
XRECORD
  5
7DE1B343D9DCA21
102
{ACAD_REACTORS
330
7DE1B343D9DCA1F
102
}
330
7DE1B343D9DCA1F
100
AcDbXrecord
 90
       70
  0
XRECORD
  5
7DE1B343D9DCA38
102
{ACAD_REACTORS
330
7DE1B343D9DCA1F
102
}
330
7DE1B343D9DCA1F
100
AcDbXrecord
340
0
  0
XRECORD
  5
7DE1B343D9DCA3E
102
{ACAD_REACTORS
330
7DE1B343D9DCA1F
102
}
330
7DE1B343D9DCA1F
100
AcDbXrecord
 10
0.0
 20
0.0
 30
0.0
  0
XRECORD
  5
7DE1B343D9DCA3A
102
{ACAD_REACTORS
330
7DE1B343D9DCA1F
102
}
330
7DE1B343D9DCA1F
100
AcDbXrecord
 10
0.0
 20
0.0
 30
0.0
  0
XRECORD
  5
7DE1B343D9DCA3D
102
{ACAD_REACTORS
330
7DE1B343D9DCA1F
102
}
330
7DE1B343D9DCA1F
100
AcDbXrecord
 10
0.0
 20
0.0
 30
0.0
  0
XRECORD
  5
7DE1B343D9DCA3B
102
{ACAD_REACTORS
330
7DE1B343D9DCA1F
102
}
330
7DE1B343D9DCA1F
100
AcDbXrecord
 10
0.0
 20
0.0
 30
0.0
  0
XRECORD
  5
7DE1B343D9DCA3C
102
{ACAD_REACTORS
330
7DE1B343D9DCA1F
102
}
330
7DE1B343D9DCA1F
100
AcDbXrecord
 10
0.0
 20
0.0
 30
0.0
  0
XRECORD
  5
7DE1B343D9DCA39
102
{ACAD_REACTORS
330
7DE1B343D9DCA1F
102
}
330
7DE1B343D9DCA1F
100
AcDbXrecord
 10
0.0
 20
0.0
 30
0.0
  0
XRECORD
  5
7DE1B343D9DCA36
102
{ACAD_REACTORS
330
7DE1B343D9DCA1F
102
}
330
7DE1B343D9DCA1F
100
AcDbXrecord
340
0
  0
XRECORD
  5
7DE1B343D9DCA37
102
{ACAD_REACTORS
330
7DE1B343D9DCA1F
102
}
330
7DE1B343D9DCA1F
100
AcDbXrecord
 70
     0
  0
XRECORD
  5
7DE1B343D9DCA2B
102
{ACAD_REACTORS
330
7DE1B343D9DCA1F
102
}
330
7DE1B343D9DCA1F
100
AcDbXrecord
  1
{23865EE2-8DB5-11D6-88E6-0090279574E7}
  0
DICTIONARYVAR
  5
7DE1B343D9DCA1D
102
{ACAD_REACTORS
330
7DE1B343D9DCA1C
102
}
330
7DE1B343D9DCA1C
100
DictionaryVariables
280
     0
  1
1
  0
ENDSEC
  0
EOF
