  0
SECTION
  2
HEADER
  9
$ACADVER
  1
AC1014
  9
$ACADMAINTVER
 70
     9
  9
$DWGCODEPAGE
  3
ANSI_1252
  9
$INSBASE
 10
1.734756093193694
 20
2.214968461189185
 30
0.0
  9
$EXTMIN
 10
0.8850671564393175
 20
-0.3206807540472163
 30
0.0
  9
$EXTMAX
 10
4.370286478186446
 20
4.485163947249155
 30
0.0
  9
$LIMMIN
 10
0.0
 20
0.0
  9
$LIMMAX
 10
18.0
 20
12.0
  9
$ORTHOMODE
 70
     1
  9
$REGENMODE
 70
     1
  9
$FILLMODE
 70
     1
  9
$QTEXTMODE
 70
     0
  9
$MIRRTEXT
 70
     0
  9
$DRAGMODE
 70
     2
  9
$LTSCALE
 40
1.0
  9
$OSMODE
 70
    39
  9
$ATTMODE
 70
     1
  9
$TEXTSIZE
 40
0.125
  9
$TRACEWID
 40
0.05
  9
$TEXTSTYLE
  7
ROMANS
  9
$CLAYER
  8
0
  9
$CELTYPE
  6
BYLAYER
  9
$CECOLOR
 62
   256
  9
$CELTSCALE
 40
1.0
  9
$DELOBJ
 70
     1
  9
$DISPSILH
 70
     1
  9
$DIMSCALE
 40
1.0
  9
$DIMASZ
 40
0.125
  9
$DIMEXO
 40
0.125
  9
$DIMDLI
 40
0.375
  9
$DIMRND
 40
0.0
  9
$DIMDLE
 40
0.0
  9
$DIMEXE
 40
0.125
  9
$DIMTP
 40
0.0
  9
$DIMTM
 40
0.0
  9
$DIMTXT
 40
0.125
  9
$DIMCEN
 40
-0.125
  9
$DIMTSZ
 40
0.0
  9
$DIMTOL
 70
     0
  9
$DIMLIM
 70
     0
  9
$DIMTIH
 70
     1
  9
$DIMTOH
 70
     1
  9
$DIMSE1
 70
     0
  9
$DIMSE2
 70
     0
  9
$DIMTAD
 70
     0
  9
$DIMZIN
 70
     4
  9
$DIMBLK
  1

  9
$DIMASO
 70
     1
  9
$DIMSHO
 70
     1
  9
$DIMPOST
  1

  9
$DIMAPOST
  1

  9
$DIMALT
 70
     0
  9
$DIMALTD
 70
     2
  9
$DIMALTF
 40
25.4
  9
$DIMLFAC
 40
1.0
  9
$DIMTOFL
 70
     0
  9
$DIMTVP
 40
0.0
  9
$DIMTIX
 70
     1
  9
$DIMSOXD
 70
     0
  9
$DIMSAH
 70
     0
  9
$DIMBLK1
  1

  9
$DIMBLK2
  1

  9
$DIMSTYLE
  2
STANDARD
  9
$DIMCLRD
 70
     0
  9
$DIMCLRE
 70
     0
  9
$DIMCLRT
 70
     0
  9
$DIMTFAC
 40
1.0
  9
$DIMGAP
 40
0.09
  9
$DIMJUST
 70
     0
  9
$DIMSD1
 70
     0
  9
$DIMSD2
 70
     0
  9
$DIMTOLJ
 70
     1
  9
$DIMTZIN
 70
     4
  9
$DIMALTZ
 70
     0
  9
$DIMALTTZ
 70
     0
  9
$DIMFIT
 70
     3
  9
$DIMUPT
 70
     0
  9
$DIMUNIT
 70
     2
  9
$DIMDEC
 70
     3
  9
$DIMTDEC
 70
     3
  9
$DIMALTU
 70
     2
  9
$DIMALTTD
 70
     2
  9
$DIMTXSTY
  7
ROMANS
  9
$DIMAUNIT
 70
     0
  9
$LUNITS
 70
     2
  9
$LUPREC
 70
     3
  9
$SKETCHINC
 40
0.1
  9
$FILLETRAD
 40
0.03125
  9
$AUNITS
 70
     0
  9
$AUPREC
 70
     0
  9
$MENU
  1
ACAD
  9
$ELEVATION
 40
0.0
  9
$PELEVATION
 40
0.0
  9
$THICKNESS
 40
0.0
  9
$LIMCHECK
 70
     0
  9
$BLIPMODE
 70
     0
  9
$CHAMFERA
 40
0.0
  9
$CHAMFERB
 40
0.0
  9
$CHAMFERC
 40
0.0
  9
$CHAMFERD
 40
0.0
  9
$SKPOLY
 70
     0
  9
$TDCREATE
 40
2448994.459011111
  9
$TDUPDATE
 40
2452458.301077697
  9
$TDINDWG
 40
0.0008738194
  9
$TDUSRTIMER
 40
0.0008738194
  9
$USRTIMER
 70
     1
  9
$ANGBASE
 50
0.0
  9
$ANGDIR
 70
     0
  9
$PDMODE
 70
     0
  9
$PDSIZE
 40
0.0
  9
$PLINEWID
 40
0.0
  9
$COORDS
 70
     2
  9
$SPLFRAME
 70
     0
  9
$SPLINETYPE
 70
     6
  9
$SPLINESEGS
 70
     8
  9
$ATTDIA
 70
     0
  9
$ATTREQ
 70
     1
  9
$HANDLING
 70
 22529
  9
$HANDSEED
  5
7DE1B343D9DC5A7
  9
$SURFTAB1
 70
     6
  9
$SURFTAB2
 70
     6
  9
$SURFTYPE
 70
     6
  9
$SURFU
 70
     6
  9
$SURFV
 70
     6
  9
$UCSNAME
  2

  9
$UCSORG
 10
0.0
 20
0.0
 30
0.0
  9
$UCSXDIR
 10
1.0
 20
0.0
 30
0.0
  9
$UCSYDIR
 10
0.0
 20
1.0
 30
0.0
  9
$PUCSNAME
  2

  9
$PUCSORG
 10
0.0
 20
0.0
 30
0.0
  9
$PUCSXDIR
 10
1.0
 20
0.0
 30
0.0
  9
$PUCSYDIR
 10
0.0
 20
1.0
 30
0.0
  9
$USERI1
 70
     0
  9
$USERI2
 70
     0
  9
$USERI3
 70
     0
  9
$USERI4
 70
     0
  9
$USERI5
 70
     0
  9
$USERR1
 40
0.0
  9
$USERR2
 40
0.0
  9
$USERR3
 40
0.0
  9
$USERR4
 40
0.0
  9
$USERR5
 40
0.0
  9
$WORLDVIEW
 70
     1
  9
$SHADEDGE
 70
     3
  9
$SHADEDIF
 70
    70
  9
$TILEMODE
 70
     1
  9
$MAXACTVP
 70
    16
  9
$PINSBASE
 10
0.7098867307188336
 20
50.00000000000001
 30
1.71036584374572
  9
$PLIMCHECK
 70
     0
  9
$PEXTMIN
 10
1.000000000000000E+20
 20
1.000000000000000E+20
 30
1.000000000000000E+20
  9
$PEXTMAX
 10
-1.000000000000000E+20
 20
-1.000000000000000E+20
 30
-1.000000000000000E+20
  9
$PLIMMIN
 10
0.0
 20
0.0
  9
$PLIMMAX
 10
12.0
 20
9.0
  9
$UNITMODE
 70
     0
  9
$VISRETAIN
 70
     0
  9
$PLINEGEN
 70
     1
  9
$PSLTSCALE
 70
     0
  9
$TREEDEPTH
 70
  3020
  9
$PICKSTYLE
 70
     1
  9
$CMLSTYLE
  2
STANDARD
  9
$CMLJUST
 70
     0
  9
$CMLSCALE
 40
1.0
  9
$PROXYGRAPHICS
 70
     1
  9
$MEASUREMENT
 70
     0
  0
ENDSEC
  0
SECTION
  2
CLASSES
  0
CLASS
  1
LWPOLYLINE
  2
AcDbPolyline
  3
AutoCAD 2000
 90
        0
280
     0
281
     1
  0
CLASS
  1
ACDBDICTIONARYWDFLT
  2
AcDbDictionaryWithDefault
  3
AutoCAD 2000
 90
        0
280
     0
281
     0
  0
CLASS
  1
ACDBPLACEHOLDER
  2
AcDbPlaceHolder
  3
AutoCAD 2000
 90
        0
280
     0
281
     0
  0
CLASS
  1
LAYOUT
  2
AcDbLayout
  3
AutoCAD 2000
 90
        0
280
     0
281
     0
  0
CLASS
  1
DICTIONARYVAR
  2
AcDbDictionaryVar
  3
AutoCAD 2000
 90
        0
280
     0
281
     0
  0
CLASS
  1
LONG_TRANSACTION
  2
AcDbLongTransaction
  3
AutoCAD 2000
 90
        0
280
     0
281
     0
  0
CLASS
  1
LWPOLYLINE
  2
AcDbPolyline
  3
AutoCAD 2000
 90
        0
280
     0
281
     1
  0
CLASS
  1
HATCH
  2
AcDbHatch
  3
AutoCAD 2000
 90
        0
280
     0
281
     1
  0
CLASS
  1
XRECORD
  2
AcDbXrecord
  3
AutoCAD 2000
 90
        0
280
     0
281
     0
  0
ENDSEC
  0
SECTION
  2
TABLES
  0
TABLE
  2
VPORT
  5
7DE1B343D9DC533
330
0
100
AcDbSymbolTable
 70
     2
  0
VPORT
  5
7DE1B343D9DC582
330
7DE1B343D9DC533
100
AcDbSymbolTableRecord
100
AcDbViewportTableRecord
  2
*ACTIVE
 70
     0
 10
0.0
 20
0.0
 11
1.0
 21
1.0
 12
9.703411961126331
 22
2.082506252671596
 13
0.0
 23
0.0
 14
0.015625
 24
0.015625
 15
0.0
 25
0.0
 16
0.0
 26
0.0
 36
1.0
 17
0.0
 27
0.0
 37
0.0
 40
5.426939575999703
 41
4.320930232558139
 42
50.0
 43
0.0
 44
0.0
 50
0.0
 51
0.0
 71
     0
 72
  2000
 73
     1
 74
     0
 75
     0
 76
     0
 77
     0
 78
     0
  0
ENDTAB
  0
TABLE
  2
LTYPE
  5
7DE1B343D9DC530
330
0
100
AcDbSymbolTable
 70
     1
  0
LTYPE
  5
7DE1B343D9DC53D
330
7DE1B343D9DC530
100
AcDbSymbolTableRecord
100
AcDbLinetypeTableRecord
  2
BYBLOCK
 70
     0
  3

 72
    65
 73
     0
 40
0.0
  0
LTYPE
  5
7DE1B343D9DC53E
330
7DE1B343D9DC530
100
AcDbSymbolTableRecord
100
AcDbLinetypeTableRecord
  2
BYLAYER
 70
     0
  3

 72
    65
 73
     0
 40
0.0
  0
LTYPE
  5
7DE1B343D9DC53F
330
7DE1B343D9DC530
100
AcDbSymbolTableRecord
100
AcDbLinetypeTableRecord
  2
CONTINUOUS
 70
     0
  3
Solid line
 72
    65
 73
     0
 40
0.0
  0
ENDTAB
  0
TABLE
  2
LAYER
  5
7DE1B343D9DC52D
330
0
100
AcDbSymbolTable
 70
     3
  0
LAYER
  5
7DE1B343D9DC53A
330
7DE1B343D9DC52D
100
AcDbSymbolTableRecord
100
AcDbLayerTableRecord
  2
0
 70
     0
 62
     7
  6
CONTINUOUS
  0
LAYER
  5
7DE1B343D9DC54A
330
7DE1B343D9DC52D
100
AcDbSymbolTableRecord
100
AcDbLayerTableRecord
  2
TEXT
 70
     0
 62
     3
  6
CONTINUOUS
  0
LAYER
  5
7DE1B343D9DC55A
330
7DE1B343D9DC52D
100
AcDbSymbolTableRecord
100
AcDbLayerTableRecord
  2
ASHADE
 70
     4
 62
     7
  6
CONTINUOUS
  0
ENDTAB
  0
TABLE
  2
STYLE
  5
7DE1B343D9DC52E
330
0
100
AcDbSymbolTable
 70
     4
  0
STYLE
  5
7DE1B343D9DC53B
330
7DE1B343D9DC52E
100
AcDbSymbolTableRecord
100
AcDbTextStyleTableRecord
  2
STANDARD
 70
     0
 40
0.0
 41
1.0
 50
0.0
 71
     0
 42
0.3125
  3
txt
  4

  0
STYLE
  5
7DE1B343D9DC547
330
7DE1B343D9DC52E
100
AcDbSymbolTableRecord
100
AcDbTextStyleTableRecord
  2
ITALICC
 70
     0
 40
0.0
 41
1.0
 50
0.0
 71
     0
 42
0.125
  3
italicc
  4

  0
STYLE
  5
7DE1B343D9DC557
330
7DE1B343D9DC52E
100
AcDbSymbolTableRecord
100
AcDbTextStyleTableRecord
  2
ASHADE
 70
     0
 40
0.2
 41
1.0
 50
0.0
 71
     0
 42
0.3125
  3
simplex
  4

  0
STYLE
  5
7DE1B343D9DC572
330
7DE1B343D9DC52E
100
AcDbSymbolTableRecord
100
AcDbTextStyleTableRecord
  2
ROMANS
 70
     0
 40
0.0
 41
1.0
 50
0.0
 71
     0
 42
0.125
  3
romans.shx
  4

  0
ENDTAB
  0
TABLE
  2
VIEW
  5
7DE1B343D9DC531
330
0
100
AcDbSymbolTable
 70
     0
  0
ENDTAB
  0
TABLE
  2
UCS
  5
7DE1B343D9DC532
330
0
100
AcDbSymbolTable
 70
     0
  0
ENDTAB
  0
TABLE
  2
APPID
  5
7DE1B343D9DC534
330
0
100
AcDbSymbolTable
 70
     6
  0
APPID
  5
7DE1B343D9DC53C
330
7DE1B343D9DC534
100
AcDbSymbolTableRecord
100
AcDbRegAppTableRecord
  2
ACAD
 70
     0
  0
APPID
  5
7DE1B343D9DC558
330
7DE1B343D9DC534
100
AcDbSymbolTableRecord
100
AcDbRegAppTableRecord
  2
AVE_RENDER
 70
     0
  0
APPID
  5
7DE1B343D9DC559
330
7DE1B343D9DC534
100
AcDbSymbolTableRecord
100
AcDbRegAppTableRecord
  2
AVE_ENTITY_MATERIAL
 70
     0
  0
APPID
  5
7DE1B343D9DC566
330
7DE1B343D9DC534
100
AcDbSymbolTableRecord
100
AcDbRegAppTableRecord
  2
AVE_FINISH
 70
     0
  0
APPID
  5
7DE1B343D9DC567
330
7DE1B343D9DC534
100
AcDbSymbolTableRecord
100
AcDbRegAppTableRecord
  2
AVE_MATERIAL
 70
     0
  0
APPID
  5
7DE1B343D9DC568
330
7DE1B343D9DC534
100
AcDbSymbolTableRecord
100
AcDbRegAppTableRecord
  2
AVE_GLOBAL
 70
     0
  0
ENDTAB
  0
TABLE
  2
DIMSTYLE
  5
7DE1B343D9DC535
330
0
100
AcDbSymbolTable
 70
     1
  0
DIMSTYLE
105
7DE1B343D9DC54F
330
7DE1B343D9DC535
100
AcDbSymbolTableRecord
100
AcDbDimStyleTableRecord
  2
STANDARD
 70
     0
  3

  4

  5

  6

  7

 40
1.0
 41
0.125
 42
0.125
 43
0.375
 44
0.125
 45
0.0
 46
0.0
 47
0.0
 48
0.0
140
0.125
141
-0.125
142
0.0
143
25.4
144
1.0
145
0.0
146
1.0
147
0.09
 71
     0
 72
     0
 73
     1
 74
     1
 75
     0
 76
     0
 77
     0
 78
     4
170
     0
171
     2
172
     0
173
     0
174
     1
175
     0
176
     0
177
     0
178
     0
270
     2
271
     3
272
     3
273
     2
274
     2
340
7DE1B343D9DC572
275
     0
280
     0
281
     0
282
     0
283
     1
284
     4
285
     0
286
     0
287
     3
288
     0
  0
ENDTAB
  0
TABLE
  2
BLOCK_RECORD
  5
7DE1B343D9DC52C
330
0
100
AcDbSymbolTable
 70
     2
  0
BLOCK_RECORD
  5
7DE1B343D9DC543
102
{ACAD_XDICTIONARY
360
7DE1B343D9DC5A5
102
}
330
7DE1B343D9DC52C
100
AcDbSymbolTableRecord
100
AcDbBlockTableRecord
  2
*MODEL_SPACE
  0
BLOCK_RECORD
  5
7DE1B343D9DC540
102
{ACAD_XDICTIONARY
360
7DE1B343D9DC5A3
102
}
330
7DE1B343D9DC52C
100
AcDbSymbolTableRecord
100
AcDbBlockTableRecord
  2
*PAPER_SPACE
  0
BLOCK_RECORD
  5
7DE1B343D9DC55B
330
7DE1B343D9DC52C
100
AcDbSymbolTableRecord
100
AcDbBlockTableRecord
  2
AVE_RENDER
  0
BLOCK_RECORD
  5
7DE1B343D9DC569
330
7DE1B343D9DC52C
100
AcDbSymbolTableRecord
100
AcDbBlockTableRecord
  2
AVE_GLOBAL
  0
ENDTAB
  0
ENDSEC
  0
SECTION
  2
BLOCKS
  0
BLOCK
  5
7DE1B343D9DC54D
330
7DE1B343D9DC543
100
AcDbEntity
  8
0
100
AcDbBlockBegin
  2
*MODEL_SPACE
 70
     0
 10
0.0
 20
0.0
 30
0.0
  3
*MODEL_SPACE
  1

  0
ENDBLK
  5
7DE1B343D9DC54E
330
7DE1B343D9DC543
100
AcDbEntity
  8
0
100
AcDbBlockEnd
  0
BLOCK
  5
7DE1B343D9DC54B
330
7DE1B343D9DC540
100
AcDbEntity
 67
     1
  8
0
100
AcDbBlockBegin
  2
*PAPER_SPACE
 70
     0
 10
0.0
 20
0.0
 30
0.0
  3
*PAPER_SPACE
  1

  0
ENDBLK
  5
7DE1B343D9DC54C
330
7DE1B343D9DC540
100
AcDbEntity
 67
     1
  8
0
100
AcDbBlockEnd
  0
BLOCK
  5
7DE1B343D9DC55C
330
7DE1B343D9DC55B
100
AcDbEntity
  8
0
100
AcDbBlockBegin
  2
AVE_RENDER
 70
     0
 10
0.0
 20
0.0
 30
0.0
  3
AVE_RENDER
  1
AVE_RENDER
  0
ENDBLK
  5
7DE1B343D9DC55D
330
7DE1B343D9DC55B
100
AcDbEntity
  8
0
100
AcDbBlockEnd
  0
BLOCK
  5
7DE1B343D9DC56A
330
7DE1B343D9DC569
100
AcDbEntity
  8
0
100
AcDbBlockBegin
  2
AVE_GLOBAL
 70
     0
 10
0.0
 20
0.0
 30
0.0
  3
AVE_GLOBAL
  1
AVE_GLOBAL
  0
ENDBLK
  5
7DE1B343D9DC56B
330
7DE1B343D9DC569
100
AcDbEntity
  8
0
100
AcDbBlockEnd
  0
ENDSEC
  0
SECTION
  2
ENTITIES
  0
LWPOLYLINE
  5
7DE1B343D9DAF59
330
7DE1B343D9DC543
100
AcDbEntity
  8
0
100
AcDbPolyline
 90
       26
 70
     1
 43
0.0
 10
1.79992373566646
 20
0.5476639472491554
 10
1.48742373566646
 20
0.5476639472491554
 10
1.48742373566646
 20
0.9851639472491553
 10
1.44054873566646
 20
0.9581006533808913
 42
0.2679491924311219
 10
1.42492373566646
 20
0.9310373595126277
 10
1.42492373566646
 20
0.5476639472491554
 10
1.39367373566646
 20
0.5476639472491545
 42
1.0
 10
1.39367373566646
 20
0.4851639472491554
 10
1.86242373566646
 20
0.4851639472491554
 10
1.862423735666459
 20
0.8111258415724968
 42
0.2594705031823896
 10
2.611669681944927
 20
2.062607742947447
 42
0.2367953690931233
 10
3.237599470581463
 20
3.253910652219499
 42
-0.300497263730756
 10
3.86242373566646
 20
4.162188758136113
 10
3.86242373566646
 20
4.485163947249155
 10
1.39367373566646
 20
4.485163947249155
 42
1.0
 10
1.39367373566646
 20
4.422663947249155
 10
1.42492373566646
 20
4.422663947249155
 10
1.42492373566646
 20
4.039290534985683
 42
0.2679491924311205
 10
1.44054873566646
 20
4.012227241117419
 10
1.48742373566646
 20
3.985163947249155
 10
1.48742373566646
 20
4.422663947249155
 10
3.79992373566646
 20
4.422663947249155
 10
3.79992373566646
 20
4.203409783801011
 42
0.2896284960749089
 10
3.175110454013651
 20
3.255082321280145
 42
-0.2424982499178759
 10
2.549849973997742
 20
2.095601689293038
 42
-0.2719174486889829
 10
1.79992373566646
 20
0.8477258299538956
  0
TEXT
  5
7DE1B343D9DC3EE
330
7DE1B343D9DC543
100
AcDbEntity
  8
TEXT
100
AcDbText
 10
1.87507254519027
 20
0.1373378500353652
 30
0.0
 40
0.125
  1
PART #110214
  7
ITALICC
 72
     1
 11
2.62804873566646
 21
0.1373378500353652
 31
0.0
100
AcDbText
  0
TEXT
  5
7DE1B343D9DC3EF
330
7DE1B343D9DC543
100
AcDbEntity
  8
TEXT
100
AcDbText
 10
3.041353893916781
 20
-0.3095847926370099
 30
0.0
 40
0.0522247191011236
  1
Phone  1-800-328-2495
 41
1.272321428571429
 72
     5
 11
4.370286478186445
 21
-0.3095847926370099
 31
0.0
100
AcDbText
  0
TEXT
  5
7DE1B343D9DC3F0
330
7DE1B343D9DC543
100
AcDbEntity
  8
TEXT
100
AcDbText
 10
3.041353893916781
 20
-0.0298095117381334
 30
0.0
 40
0.0522247191011236
  1
Stylmark  Incorporated
 41
1.221428571428573
 72
     5
 11
4.370286478186445
 21
-0.0298095117381334
 31
0.0
100
AcDbText
  0
TEXT
  5
7DE1B343D9DC3F1
330
7DE1B343D9DC543
100
AcDbEntity
  8
TEXT
100
AcDbText
 10
3.041353893916781
 20
-0.1230679387044256
 30
0.0
 40
0.0522247191011236
  1
6536 Main St. N.E. * P.O. Box 32008
 41
0.8388932496075366
 72
     5
 11
4.370286478186445
 21
-0.1230679387044256
 31
0.0
100
AcDbText
  0
TEXT
  5
7DE1B343D9DC3F2
330
7DE1B343D9DC543
100
AcDbEntity
  8
TEXT
100
AcDbText
 10
3.041353893916781
 20
-0.2163263656707177
 30
0.0
 40
0.0522247191011236
  1
Minneapolis, MN 55432-0008
 41
1.11444212721585
 72
     5
 11
4.370286478186445
 21
-0.2163263656707177
 31
0.0
100
AcDbText
  0
LWPOLYLINE
  5
7DE1B343D9DC3F3
330
7DE1B343D9DC543
100
AcDbEntity
  8
TEXT
100
AcDbPolyline
 90
        3
 70
     0
 43
0.0006660908203125
 10
0.8854002018494737
 20
-0.1959400299995751
 10
0.8854002018494737
 20
-0.3091754694527027
 10
0.998635641302596
 20
-0.3091754694527027
  0
LWPOLYLINE
  5
7DE1B343D9DC3F8
330
7DE1B343D9DC543
100
AcDbEntity
  8
TEXT
100
AcDbPolyline
 90
        3
 70
     0
 43
0.0006660908203125
 10
0.9120438346619712
 20
-0.1959400299995751
 10
0.9120438346619712
 20
-0.2825318366402017
 10
0.998635641302596
 20
-0.2825318366402017
  0
LWPOLYLINE
  5
7DE1B343D9DC3FD
330
7DE1B343D9DC543
100
AcDbEntity
  8
TEXT
100
AcDbPolyline
 90
        2
 70
     0
 43
0.0001332181640625
 10
0.958670192083848
 20
-0.1859486676948898
 10
0.8854002018494737
 20
-0.1959400299995751
  0
LWPOLYLINE
  5
7DE1B343D9DC401
330
7DE1B343D9DC543
100
AcDbEntity
  8
TEXT
100
AcDbPolyline
 90
        2
 70
     0
 43
0.0001332181640625
 10
0.9120438346619712
 20
-0.1959400299995751
 10
0.9719920084900985
 20
-0.1859486676948898
  0
LWPOLYLINE
  5
7DE1B343D9DC405
330
7DE1B343D9DC543
100
AcDbEntity
  8
TEXT
100
AcDbPolyline
 90
        2
 70
     0
 43
0.0001332181640625
 10
0.9120438346619712
 20
-0.2825318366402017
 10
0.9719920084900985
 20
-0.2225836628120761
  0
LWPOLYLINE
  5
7DE1B343D9DC409
330
7DE1B343D9DC543
100
AcDbEntity
  8
TEXT
100
AcDbPolyline
 90
        3
 70
     0
 43
0.0006660908203125
 10
0.998635641302596
 20
-0.0427391413276994
 10
0.8854002018494737
 20
-0.0427391413276994
 10
0.8854002018494737
 20
-0.155974580780827
  0
LWPOLYLINE
  5
7DE1B343D9DC40E
330
7DE1B343D9DC543
100
AcDbEntity
  8
TEXT
100
AcDbPolyline
 90
        3
 70
     0
 43
0.0006660908203125
 10
0.998635641302596
 20
-0.0693827741402005
 10
0.9120438346619712
 20
-0.0693827741402005
 10
0.9120438346619712
 20
-0.155974580780827
  0
LWPOLYLINE
  5
7DE1B343D9DC413
330
7DE1B343D9DC543
100
AcDbEntity
  8
TEXT
100
AcDbPolyline
 90
        2
 70
     0
 43
0.0001332181640625
 10
0.9120438346619712
 20
-0.0693827741402005
 10
0.9719920084900968
 20
-0.129330947968326
  0
LWPOLYLINE
  5
7DE1B343D9DC417
330
7DE1B343D9DC543
100
AcDbEntity
  8
TEXT
100
AcDbPolyline
 90
        2
 70
     0
 43
0.0001332181640625
 10
0.9120438346619712
 20
-0.155974580780827
 10
0.9719920084900968
 20
-0.1659659430855158
  0
LWPOLYLINE
  5
7DE1B343D9DC41B
330
7DE1B343D9DC543
100
AcDbEntity
  8
TEXT
100
AcDbPolyline
 90
        2
 70
     0
 43
0.0001332181640625
 10
0.8854002018494737
 20
-0.155974580780827
 10
0.958670192083848
 20
-0.1659659430855158
  0
LWPOLYLINE
  5
7DE1B343D9DC41F
330
7DE1B343D9DC543
100
AcDbEntity
  8
TEXT
100
AcDbPolyline
 90
        2
 70
     0
 43
0.0006660908203125
 10
0.9120438346619712
 20
-0.1959400299995751
 10
0.8854002018494737
 20
-0.1959400299995751
  0
LWPOLYLINE
  5
7DE1B343D9DC423
330
7DE1B343D9DC543
100
AcDbEntity
  8
TEXT
100
AcDbPolyline
 90
        2
 70
     0
 43
0.0006660908203125
 10
0.9120438346619712
 20
-0.155974580780827
 10
0.8854002018494737
 20
-0.155974580780827
  0
LINE
  5
7DE1B343D9DC427
330
7DE1B343D9DC543
100
AcDbEntity
  8
TEXT
100
AcDbLine
 10
2.400590630975971
 20
-0.1070158359844684
 30
0.0
 11
2.293384357588681
 21
-0.1070158359844684
 31
0.0
  0
LINE
  5
7DE1B343D9DC428
330
7DE1B343D9DC543
100
AcDbEntity
  8
TEXT
100
AcDbLine
 10
2.429621529320449
 20
-0.042739141327703
 30
0.0
 11
2.29478962010339
 21
-0.042739141327703
 31
0.0
  0
ARC
  5
7DE1B343D9DC429
330
7DE1B343D9DC543
100
AcDbEntity
  8
TEXT
100
AcDbCircle
 10
2.354103716496707
 20
-0.2119763905907193
 30
0.0
 40
0.0676855811441166
100
AcDbArc
 50
90.0
 51
153.7768192527749
  0
LWPOLYLINE
  5
7DE1B343D9DC42A
330
7DE1B343D9DC543
100
AcDbEntity
  8
TEXT
100
AcDbPolyline
 90
        2
 70
     0
 43
0.0
 10
2.292351862133871
 20
-0.2657212293657758
 42
0.2901071551932823
 10
2.335427795001507
 20
-0.3092121743162139
 42
5.328517124445801
  0
ARC
  5
7DE1B343D9DC42E
330
7DE1B343D9DC543
100
AcDbEntity
  8
TEXT
100
AcDbCircle
 10
1.648972338825221
 20
-0.2494197829781641
 30
0.0
 40
0.0601160179737537
100
AcDbArc
 50
180.0000000000003
 51
264.0521544866073
  0
LINE
  5
7DE1B343D9DC42F
330
7DE1B343D9DC543
100
AcDbEntity
  8
TEXT
100
AcDbLine
 10
1.652487694450769
 20
-0.0083512237335648
 30
0.0
 11
1.592445089606762
 21
-0.0083512237335648
 31
0.0
  0
ARC
  5
7DE1B343D9DC430
330
7DE1B343D9DC543
100
AcDbEntity
  8
TEXT
100
AcDbCircle
 10
1.416713336708251
 20
-0.1248266007742047
 30
0.0
 40
0.0820874594465043
100
AcDbArc
 50
90.0
 51
270.0
  0
LWPOLYLINE
  5
7DE1B343D9DC431
330
7DE1B343D9DC543
100
AcDbEntity
  8
TEXT
100
AcDbPolyline
 90
        2
 70
     0
 43
0.0001332181640625
 10
1.008627003607286
 20
-0.116009131562079
 10
0.998635641302596
 20
-0.0427391413276994
  0
LWPOLYLINE
  5
7DE1B343D9DC435
330
7DE1B343D9DC543
100
AcDbEntity
  8
TEXT
100
AcDbPolyline
 90
        2
 70
     0
 43
0.0001332181640625
 10
0.998635641302596
 20
-0.0693827741402005
 10
1.008627003607286
 20
-0.129330947968326
  0
LWPOLYLINE
  5
7DE1B343D9DC439
330
7DE1B343D9DC543
100
AcDbEntity
  8
TEXT
100
AcDbPolyline
 90
        3
 70
     0
 43
0.0006660908203125
 10
1.151836529974473
 20
-0.155974580780827
 10
1.151836529974473
 20
-0.0427391413276994
 10
1.038601090521347
 20
-0.0427391413276994
  0
LWPOLYLINE
  5
7DE1B343D9DC43E
330
7DE1B343D9DC543
100
AcDbEntity
  8
TEXT
100
AcDbPolyline
 90
        3
 70
     0
 43
0.0006660908203125
 10
1.125192897161972
 20
-0.155974580780827
 10
1.125192897161972
 20
-0.0693827741402005
 10
1.038601090521347
 20
-0.0693827741402005
  0
LWPOLYLINE
  5
7DE1B343D9DC443
330
7DE1B343D9DC543
100
AcDbEntity
  8
TEXT
100
AcDbPolyline
 90
        2
 70
     0
 43
0.0001332181640625
 10
1.125192897161972
 20
-0.0693827741402005
 10
1.065244723333848
 20
-0.129330947968326
  0
LWPOLYLINE
  5
7DE1B343D9DC447
330
7DE1B343D9DC543
100
AcDbEntity
  8
TEXT
100
AcDbPolyline
 90
        2
 70
     0
 43
0.0001332181640625
 10
1.038601090521347
 20
-0.0693827741402005
 10
1.028609728216658
 20
-0.129330947968326
  0
LWPOLYLINE
  5
7DE1B343D9DC44B
330
7DE1B343D9DC543
100
AcDbEntity
  8
TEXT
100
AcDbPolyline
 90
        2
 70
     0
 43
0.0001332181640625
 10
1.038601090521347
 20
-0.0427391413276994
 10
1.028609728216658
 20
-0.116009131562079
  0
LWPOLYLINE
  5
7DE1B343D9DC44F
330
7DE1B343D9DC543
100
AcDbEntity
  8
TEXT
100
AcDbPolyline
 90
        2
 70
     0
 43
0.0001332181640625
 10
1.078566539740097
 20
-0.1659659430855158
 10
1.151836529974473
 20
-0.155974580780827
  0
LWPOLYLINE
  5
7DE1B343D9DC453
330
7DE1B343D9DC543
100
AcDbEntity
  8
TEXT
100
AcDbPolyline
 90
        2
 70
     0
 43
0.0001332181640625
 10
1.125192897161972
 20
-0.155974580780827
 10
1.065244723333848
 20
-0.1659659430855158
  0
LWPOLYLINE
  5
7DE1B343D9DC457
330
7DE1B343D9DC543
100
AcDbEntity
  8
TEXT
100
AcDbPolyline
 90
        2
 70
     0
 43
0.0001332181640625
 10
1.151836529974473
 20
-0.1959400299995751
 10
1.078566539740097
 20
-0.1859486676948898
  0
LWPOLYLINE
  5
7DE1B343D9DC45B
330
7DE1B343D9DC543
100
AcDbEntity
  8
TEXT
100
AcDbPolyline
 90
        2
 70
     0
 43
0.0001332181640625
 10
1.125192897161972
 20
-0.1959400299995751
 10
1.065244723333848
 20
-0.1859486676948898
  0
LWPOLYLINE
  5
7DE1B343D9DC45F
330
7DE1B343D9DC543
100
AcDbEntity
  8
TEXT
100
AcDbPolyline
 90
        2
 70
     0
 43
0.0001332181640625
 10
1.125192897161972
 20
-0.2825318366402017
 10
1.065244723333848
 20
-0.2225836628120761
  0
LWPOLYLINE
  5
7DE1B343D9DC463
330
7DE1B343D9DC543
100
AcDbEntity
  8
TEXT
100
AcDbPolyline
 90
        3
 70
     0
 43
0.0006660908203125
 10
1.038601090521347
 20
-0.2825318366402017
 10
1.125192897161972
 20
-0.2825318366402017
 10
1.125192897161972
 20
-0.1959400299995751
  0
LWPOLYLINE
  5
7DE1B343D9DC468
330
7DE1B343D9DC543
100
AcDbEntity
  8
TEXT
100
AcDbPolyline
 90
        3
 70
     0
 43
0.0006660908203125
 10
1.038601090521347
 20
-0.3091754694527027
 10
1.151836529974473
 20
-0.3091754694527027
 10
1.151836529974473
 20
-0.1959400299995751
  0
LWPOLYLINE
  5
7DE1B343D9DC46D
330
7DE1B343D9DC543
100
AcDbEntity
  8
TEXT
100
AcDbPolyline
 90
        5
 70
     0
 43
0.0001332181640625
 10
1.008627003607286
 20
-0.2359054792183266
 10
1.008627003607286
 20
-0.2225836628120761
 10
0.9719920084900985
 20
-0.2225836628120761
 10
0.9719920084900985
 20
-0.1859486676948898
 10
0.958670192083848
 20
-0.1859486676948898
  0
LWPOLYLINE
  5
7DE1B343D9DC474
330
7DE1B343D9DC543
100
AcDbEntity
  8
TEXT
100
AcDbPolyline
 90
        2
 70
     0
 43
0.0006660908203125
 10
0.998635641302596
 20
-0.2825318366402017
 10
0.998635641302596
 20
-0.3091754694527027
  0
LWPOLYLINE
  5
7DE1B343D9DC478
330
7DE1B343D9DC543
100
AcDbEntity
  8
TEXT
100
AcDbPolyline
 90
        2
 70
     0
 43
0.0001332181640625
 10
0.998635641302596
 20
-0.2825318366402017
 10
1.008627003607286
 20
-0.2225836628120761
  0
LWPOLYLINE
  5
7DE1B343D9DC47C
330
7DE1B343D9DC543
100
AcDbEntity
  8
TEXT
100
AcDbPolyline
 90
        2
 70
     0
 43
0.0001332181640625
 10
0.998635641302596
 20
-0.3091754694527027
 10
1.008627003607286
 20
-0.2359054792183266
  0
LWPOLYLINE
  5
7DE1B343D9DC480
330
7DE1B343D9DC543
100
AcDbEntity
  8
TEXT
100
AcDbPolyline
 90
        5
 70
     0
 43
0.0001332181640625
 10
0.958670192083848
 20
-0.1659659430855158
 10
0.9719920084900968
 20
-0.1659659430855158
 10
0.9719920084900968
 20
-0.129330947968326
 10
1.008627003607286
 20
-0.129330947968326
 10
1.008627003607286
 20
-0.116009131562079
  0
LWPOLYLINE
  5
7DE1B343D9DC487
330
7DE1B343D9DC543
100
AcDbEntity
  8
TEXT
100
AcDbPolyline
 90
        5
 70
     0
 43
0.0001332181640625
 10
1.028609728216658
 20
-0.116009131562079
 10
1.028609728216658
 20
-0.129330947968326
 10
1.065244723333848
 20
-0.129330947968326
 10
1.065244723333848
 20
-0.1659659430855158
 10
1.078566539740097
 20
-0.1659659430855158
  0
LWPOLYLINE
  5
7DE1B343D9DC48E
330
7DE1B343D9DC543
100
AcDbEntity
  8
TEXT
100
AcDbPolyline
 90
        2
 70
     0
 43
0.0001332181640625
 10
1.038601090521347
 20
-0.2825318366402017
 10
1.028609728216658
 20
-0.2225836628120761
  0
LWPOLYLINE
  5
7DE1B343D9DC492
330
7DE1B343D9DC543
100
AcDbEntity
  8
TEXT
100
AcDbPolyline
 90
        2
 70
     0
 43
0.0001332181640625
 10
1.028609728216658
 20
-0.2359054792183266
 10
1.038601090521347
 20
-0.3091754694527027
  0
LWPOLYLINE
  5
7DE1B343D9DC496
330
7DE1B343D9DC543
100
AcDbEntity
  8
TEXT
100
AcDbPolyline
 90
        2
 70
     0
 43
0.0006660908203125
 10
1.038601090521347
 20
-0.2825318366402017
 10
1.038601090521347
 20
-0.3091754694527027
  0
LWPOLYLINE
  5
7DE1B343D9DC49A
330
7DE1B343D9DC543
100
AcDbEntity
  8
TEXT
100
AcDbPolyline
 90
        5
 70
     0
 43
0.0001332181640625
 10
1.078566539740097
 20
-0.1859486676948898
 10
1.065244723333848
 20
-0.1859486676948898
 10
1.065244723333848
 20
-0.2225836628120761
 10
1.028609728216658
 20
-0.2225836628120761
 10
1.028609728216658
 20
-0.2359054792183266
  0
LWPOLYLINE
  5
7DE1B343D9DC4A1
330
7DE1B343D9DC543
100
AcDbEntity
  8
TEXT
100
AcDbPolyline
 90
        2
 70
     0
 43
0.0006660908203125
 10
1.125192897161972
 20
-0.155974580780827
 10
1.151836529974473
 20
-0.155974580780827
  0
LWPOLYLINE
  5
7DE1B343D9DC4A5
330
7DE1B343D9DC543
100
AcDbEntity
  8
TEXT
100
AcDbPolyline
 90
        2
 70
     0
 43
0.0006660908203125
 10
1.125192897161972
 20
-0.1959400299995751
 10
1.151836529974473
 20
-0.1959400299995751
  0
LINE
  5
7DE1B343D9DC4A9
330
7DE1B343D9DC543
100
AcDbEntity
  8
TEXT
100
AcDbLine
 10
1.421950666822498
 20
-0.1070158359844684
 30
0.0
 11
1.588856320851469
 21
-0.1070158359844684
 31
0.0
  0
LINE
  5
7DE1B343D9DC4AA
330
7DE1B343D9DC543
100
AcDbEntity
  8
TEXT
100
AcDbLine
 10
1.487550803066799
 20
-0.1428205575950963
 30
0.0
 11
1.421950666822498
 21
-0.1428205575950963
 31
0.0
  0
LINE
  5
7DE1B343D9DC4AB
330
7DE1B343D9DC543
100
AcDbEntity
  8
TEXT
100
AcDbLine
 10
1.334625877261746
 20
-0.3092121743162139
 30
0.0
 11
1.487550803066799
 21
-0.3092121743162139
 31
0.0
  0
LINE
  5
7DE1B343D9DC4AC
330
7DE1B343D9DC543
100
AcDbEntity
  8
TEXT
100
AcDbLine
 10
1.492491176973079
 20
-0.2408551679827746
 30
0.0
 11
1.334625877261744
 21
-0.2408551679827746
 31
0.0
  0
LINE
  5
7DE1B343D9DC4AD
330
7DE1B343D9DC543
100
AcDbEntity
  8
TEXT
100
AcDbLine
 10
1.41671333670825
 20
-0.20691406022071
 30
0.0
 11
1.492491176973079
 21
-0.20691406022071
 31
0.0
  0
ARC
  5
7DE1B343D9DC4AE
330
7DE1B343D9DC543
100
AcDbEntity
  8
TEXT
100
AcDbCircle
 10
1.421950666822499
 20
-0.1249181967897806
 30
0.0
 40
0.017902360805315
100
AcDbArc
 50
90.0
 51
270.0
  0
LINE
  5
7DE1B343D9DC4AF
330
7DE1B343D9DC543
100
AcDbEntity
  8
TEXT
100
AcDbLine
 10
1.334625877261744
 20
-0.2408551679827746
 30
0.0
 11
1.334625877261746
 21
-0.3092121743162139
 31
0.0
  0
LINE
  5
7DE1B343D9DC4B0
330
7DE1B343D9DC543
100
AcDbEntity
  8
TEXT
100
AcDbLine
 10
1.588856320851469
 20
-0.1070158359844684
 30
0.0
 11
1.588856320851469
 21
-0.2494197829781641
 31
0.0
  0
ARC
  5
7DE1B343D9DC4B1
330
7DE1B343D9DC543
100
AcDbEntity
  8
TEXT
100
AcDbCircle
 10
1.4875508030668
 20
-0.2260163659556569
 30
0.0
 40
0.0831958083605586
100
AcDbArc
 50
270.0
 51
90.0
  0
ARC
  5
7DE1B343D9DC4B2
330
7DE1B343D9DC543
100
AcDbEntity
  8
TEXT
100
AcDbCircle
 10
1.492491176973079
 20
-0.2238846141017405
 30
0.0
 40
0.0169705538810321
100
AcDbArc
 50
270.0
 51
90.0
  0
LWPOLYLINE
  5
7DE1B343D9DC4B3
330
7DE1B343D9DC543
100
AcDbEntity
  8
TEXT
100
AcDbPolyline
 90
        2
 70
     0
 43
0.0006660908203125
 10
0.998635641302596
 20
-0.0693827741402005
 10
0.998635641302596
 20
-0.0427391413276994
  0
LWPOLYLINE
  5
7DE1B343D9DC4B7
330
7DE1B343D9DC543
100
AcDbEntity
  8
TEXT
100
AcDbPolyline
 90
        2
 70
     0
 43
0.0006660908203125
 10
1.038601090521347
 20
-0.0693827741402005
 10
1.038601090521347
 20
-0.0427391413276994
  0
LINE
  5
7DE1B343D9DC4BB
330
7DE1B343D9DC543
100
AcDbEntity
  8
TEXT
100
AcDbLine
 10
1.592445089606762
 20
-0.042739141327703
 30
0.0
 11
1.41671333670825
 21
-0.042739141327703
 31
0.0
  0
LINE
  5
7DE1B343D9DC4BC
330
7DE1B343D9DC543
100
AcDbEntity
  8
TEXT
100
AcDbLine
 10
1.592445089606762
 20
-0.0083512237335648
 30
0.0
 11
1.592445089606762
 21
-0.042739141327703
 31
0.0
  0
LINE
  5
7DE1B343D9DC4BD
330
7DE1B343D9DC543
100
AcDbEntity
  8
TEXT
100
AcDbLine
 10
1.782916981626614
 20
-0.1436111374408235
 30
0.0
 11
1.724286660594676
 21
-0.042739141327703
 31
0.0
  0
LINE
  5
7DE1B343D9DC4BE
330
7DE1B343D9DC543
100
AcDbEntity
  8
TEXT
100
AcDbLine
 10
1.84166554443248
 20
-0.042739141327703
 30
0.0
 11
1.782916981626614
 21
-0.1436111374408235
 31
0.0
  0
LINE
  5
7DE1B343D9DC4BF
330
7DE1B343D9DC543
100
AcDbEntity
  8
TEXT
100
AcDbLine
 10
1.938596169792221
 20
-0.2268243362132147
 30
0.0
 11
1.938596169792221
 21
0.0252723364111076
 31
0.0
  0
LINE
  5
7DE1B343D9DC4C0
330
7DE1B343D9DC543
100
AcDbEntity
  8
TEXT
100
AcDbLine
 10
1.970908023929881
 20
-0.042739141327703
 30
0.0
 11
1.970908023929881
 21
-0.2436033480601112
 31
0.0
  0
LINE
  5
7DE1B343D9DC4C1
330
7DE1B343D9DC543
100
AcDbEntity
  8
TEXT
100
AcDbLine
 10
1.970908023929881
 20
-0.2436033480601112
 30
0.0
 11
1.95391438704528
 21
-0.2436033480601112
 31
0.0
  0
LINE
  5
7DE1B343D9DC4C2
330
7DE1B343D9DC543
100
AcDbEntity
  8
TEXT
100
AcDbLine
 10
1.939735743288416
 20
-0.3092121743162139
 30
0.0
 11
2.03773907698785
 21
-0.3092121743162139
 31
0.0
  0
LINE
  5
7DE1B343D9DC4C3
330
7DE1B343D9DC543
100
AcDbEntity
  8
TEXT
100
AcDbLine
 10
1.77331674462966
 20
-0.289253668211201
 30
0.0
 11
1.870616450723105
 21
-0.1249034572759329
 31
0.0
  0
ARC
  5
7DE1B343D9DC4C4
330
7DE1B343D9DC543
100
AcDbEntity
  8
TEXT
100
AcDbCircle
 10
1.739273184717446
 20
-0.2696644520425182
 30
0.0
 40
0.0392772371940762
100
AcDbArc
 50
270.1604552698595
 51
330.0831797321295
  0
LINE
  5
7DE1B343D9DC4C5
330
7DE1B343D9DC543
100
AcDbEntity
  8
TEXT
100
AcDbLine
 10
1.642742928331575
 20
-0.3092121743162139
 30
0.0
 11
1.739383179406569
 21
-0.3089415352179317
 31
0.0
  0
LWPOLYLINE
  5
7DE1B343D9DC4C6
330
7DE1B343D9DC543
100
AcDbEntity
  8
TEXT
100
AcDbPolyline
 90
        6
 70
     1
 43
0.0
 10
1.685266731906724
 20
-0.1070158359844684
 10
1.654950137686516
 20
-0.1070158359844684
 10
1.654950137686516
 20
-0.2301268340393627
 42
0.407328721240804
 10
1.666493788847993
 20
-0.2419457487157488
 10
1.727115487892723
 20
-0.2419457487157488
 10
1.744580828300041
 20
-0.2091335196722697
  0
LINE
  5
7DE1B343D9DC4CE
330
7DE1B343D9DC543
100
AcDbEntity
  8
TEXT
100
AcDbLine
 10
1.870616450723105
 20
-0.1249034572759329
 30
0.0
 11
1.870616450723105
 21
-0.2576608321012892
 31
0.0
  0
ARC
  5
7DE1B343D9DC4CF
330
7DE1B343D9DC543
100
AcDbEntity
  8
TEXT
100
AcDbCircle
 10
1.953914387045278
 20
-0.2282215418166857
 30
0.0
 40
0.0153818062434269
100
AcDbArc
 50
174.7883570302258
 51
270.0
  0
LWPOLYLINE
  5
7DE1B343D9DC4D0
330
7DE1B343D9DC543
100
AcDbEntity
  8
TEXT
100
AcDbPolyline
 90
        2
 70
     0
 43
0.0
 10
1.870616450723103
 20
-0.2576608321012856
 42
0.3318488747599744
 10
1.939735743288416
 20
-0.3092121743162139
 42
-6.868794160588311
  0
LINE
  5
7DE1B343D9DC4D4
330
7DE1B343D9DC543
100
AcDbEntity
  8
TEXT
100
AcDbLine
 10
2.095128145977112
 20
-0.3092121743162139
 30
0.0
 11
2.162186192758952
 21
-0.3092121743162139
 31
0.0
  0
LINE
  5
7DE1B343D9DC4D5
330
7DE1B343D9DC543
100
AcDbEntity
  8
TEXT
100
AcDbLine
 10
2.095128145977112
 20
-0.1145696251505783
 30
0.0
 11
2.095128145977112
 21
-0.3092121743162139
 31
0.0
  0
LINE
  5
7DE1B343D9DC4D6
330
7DE1B343D9DC543
100
AcDbEntity
  8
TEXT
100
AcDbLine
 10
2.03773907698785
 20
-0.1070158359844684
 30
0.0
 11
2.087574356810998
 21
-0.1070158359844684
 31
0.0
  0
LINE
  5
7DE1B343D9DC4D7
330
7DE1B343D9DC543
100
AcDbEntity
  8
TEXT
100
AcDbLine
 10
2.03773907698785
 20
-0.3092121743162139
 30
0.0
 11
2.03773907698785
 21
-0.1070158359844684
 31
0.0
  0
LWPOLYLINE
  5
7DE1B343D9DC4D8
330
7DE1B343D9DC543
100
AcDbEntity
  8
TEXT
100
AcDbPolyline
 90
        2
 70
     0
 43
0.0
 10
2.087574356810996
 20
-0.1070158359844684
 42
-0.4142135623731017
 10
2.09512814597711
 20
-0.1145696251505783
 42
-0.9999999999999998
  0
LINE
  5
7DE1B343D9DC4DC
330
7DE1B343D9DC543
100
AcDbEntity
  8
TEXT
100
AcDbLine
 10
2.293384357588681
 20
-0.1070158359844684
 30
0.0
 11
2.293384357588681
 21
-0.182068242058675
 31
0.0
  0
LINE
  5
7DE1B343D9DC4DD
330
7DE1B343D9DC543
100
AcDbEntity
  8
TEXT
100
AcDbLine
 10
2.162186192758952
 20
-0.1070158359844684
 30
0.0
 11
2.216319789679902
 21
-0.1070158359844684
 31
0.0
  0
LINE
  5
7DE1B343D9DC4DE
330
7DE1B343D9DC543
100
AcDbEntity
  8
TEXT
100
AcDbLine
 10
2.162186192758952
 20
-0.3092121743162139
 30
0.0
 11
2.162186192758952
 21
-0.1070158359844684
 31
0.0
  0
LWPOLYLINE
  5
7DE1B343D9DC4DF
330
7DE1B343D9DC543
100
AcDbEntity
  8
TEXT
100
AcDbPolyline
 90
        2
 70
     0
 43
0.0
 10
2.2163197896799
 20
-0.1070158359844684
 42
-0.4142135623731017
 10
2.223873578846013
 20
-0.1145696251505783
 42
-0.9999999999999998
  0
LWPOLYLINE
  5
7DE1B343D9DC4E3
330
7DE1B343D9DC543
100
AcDbEntity
  8
TEXT
100
AcDbPolyline
 90
        4
 70
     0
 43
0.0
 10
2.223873578846013
 20
-0.1145696251505783
 10
2.223873578846013
 20
-0.3092121743162139
 10
2.292351862133871
 20
-0.3092121743162139
 10
2.292351862133871
 20
-0.2657212293657758
 42
-1.714843617202739
  0
LINE
  5
7DE1B343D9DC4E9
330
7DE1B343D9DC543
100
AcDbEntity
  8
TEXT
100
AcDbLine
 10
1.652487694450769
 20
-0.042739141327703
 30
0.0
 11
1.652487694450769
 21
-0.0083512237335648
 31
0.0
  0
LINE
  5
7DE1B343D9DC4EA
330
7DE1B343D9DC543
100
AcDbEntity
  8
TEXT
100
AcDbLine
 10
1.724286660594676
 20
-0.042739141327703
 30
0.0
 11
1.652487694450769
 21
-0.042739141327703
 31
0.0
  0
LINE
  5
7DE1B343D9DC4EB
330
7DE1B343D9DC543
100
AcDbEntity
  8
TEXT
100
AcDbLine
 10
1.871787457225856
 20
-0.042739141327703
 30
0.0
 11
1.84166554443248
 21
-0.042739141327703
 31
0.0
  0
LINE
  5
7DE1B343D9DC4EC
330
7DE1B343D9DC543
100
AcDbEntity
  8
TEXT
100
AcDbLine
 10
1.871787457225856
 20
0.0252723364111076
 30
0.0
 11
1.871787457225856
 21
-0.042739141327703
 31
0.0
  0
LINE
  5
7DE1B343D9DC4ED
330
7DE1B343D9DC543
100
AcDbEntity
  8
TEXT
100
AcDbLine
 10
1.938596169792221
 20
0.0252723364111076
 30
0.0
 11
1.871787457225856
 21
0.0252723364111076
 31
0.0
  0
LWPOLYLINE
  5
7DE1B343D9DC4EE
330
7DE1B343D9DC543
100
AcDbEntity
  8
TEXT
100
AcDbPolyline
 90
        3
 70
     0
 43
0.0
 10
2.259007929390223
 20
-0.0427391413276994
 10
2.140707770574179
 20
-0.0427391413276994
 10
2.140707770574179
 20
-0.0699066380885953
 42
-1.960274751411753
  0
LINE
  5
7DE1B343D9DC4F3
330
7DE1B343D9DC543
100
AcDbEntity
  8
TEXT
100
AcDbLine
 10
2.104926079861018
 20
-0.042739141327703
 30
0.0
 11
1.970908023929881
 21
-0.042739141327703
 31
0.0
  0
LWPOLYLINE
  5
7DE1B343D9DC4F4
330
7DE1B343D9DC543
100
AcDbEntity
  8
TEXT
100
AcDbPolyline
 90
        2
 70
     0
 43
0.0
 10
2.104926079861018
 20
-0.0427391413276994
 42
-0.3328679258950098
 10
2.140707770574179
 20
-0.0699066380885953
 42
6.772930709997214
  0
LINE
  5
7DE1B343D9DC4F8
330
7DE1B343D9DC543
100
AcDbEntity
  8
TEXT
100
AcDbLine
 10
2.29478962010339
 20
-0.042739141327703
 30
0.0
 11
2.29478962010339
 21
-0.0710616870973468
 31
0.0
  0
LWPOLYLINE
  5
7DE1B343D9DC4F9
330
7DE1B343D9DC543
100
AcDbEntity
  8
TEXT
100
AcDbPolyline
 90
        2
 70
     0
 43
0.0
 10
2.259007929390223
 20
-0.0427391413276994
 42
-0.3277054968067132
 10
2.294789620103388
 20
-0.0710616870973433
 42
6.667889725900311
  0
LINE
  5
7DE1B343D9DC4FD
330
7DE1B343D9DC543
100
AcDbEntity
  8
TEXT
100
AcDbLine
 10
2.50858146819549
 20
-0.1479511198811303
 30
0.0
 11
2.464830697013589
 21
-0.0657008438849851
 31
0.0
  0
LINE
  5
7DE1B343D9DC4FE
330
7DE1B343D9DC543
100
AcDbEntity
  8
TEXT
100
AcDbLine
 10
2.50858146819549
 20
-0.042739141327703
 30
0.0
 11
2.50858146819549
 21
-0.1479511198811303
 31
0.0
  0
LINE
  5
7DE1B343D9DC4FF
330
7DE1B343D9DC543
100
AcDbEntity
  8
TEXT
100
AcDbLine
 10
2.736265207133859
 20
-0.118604467739241
 30
0.0
 11
2.736265207133859
 21
0.0227250644398978
 31
0.0
  0
LINE
  5
7DE1B343D9DC500
330
7DE1B343D9DC543
100
AcDbEntity
  8
TEXT
100
AcDbLine
 10
2.783363365689844
 20
-0.042739141327703
 30
0.0
 11
2.736265207133859
 21
-0.118604467739241
 31
0.0
  0
LINE
  5
7DE1B343D9DC501
330
7DE1B343D9DC543
100
AcDbEntity
  8
TEXT
100
AcDbLine
 10
2.793798082453767
 20
-0.1526323842686765
 30
0.0
 11
2.858355198419472
 21
-0.042739141327703
 31
0.0
  0
LINE
  5
7DE1B343D9DC502
330
7DE1B343D9DC543
100
AcDbEntity
  8
TEXT
100
AcDbLine
 10
2.672430215911086
 20
-0.3092121743162139
 30
0.0
 11
2.736808400229707
 21
-0.3092121743162139
 31
0.0
  0
LWPOLYLINE
  5
7DE1B343D9DC503
330
7DE1B343D9DC543
100
AcDbEntity
  8
TEXT
100
AcDbPolyline
 90
        2
 70
     0
 43
0.0
 10
2.512521145500528
 20
-0.2657212293657758
 42
-0.2901071551932486
 10
2.469445212632884
 20
-0.3092121743162139
 42
-5.328517124445184
  0
ARC
  5
7DE1B343D9DC507
330
7DE1B343D9DC543
100
AcDbEntity
  8
TEXT
100
AcDbCircle
 10
2.400590630975969
 20
-0.1353752109844657
 30
0.0
 40
0.028359375
100
AcDbArc
 50
25.78218179591245
 51
90.0
  0
LINE
  5
7DE1B343D9DC508
330
7DE1B343D9DC543
100
AcDbEntity
  8
TEXT
100
AcDbLine
 10
2.436391706280092
 20
-0.1442908094466007
 30
0.0
 11
2.426126945866528
 21
-0.1230402698739064
 31
0.0
  0
LINE
  5
7DE1B343D9DC509
330
7DE1B343D9DC543
100
AcDbEntity
  8
TEXT
100
AcDbLine
 10
2.354103716496709
 20
-0.1442908094466007
 30
0.0
 11
2.436391706280092
 21
-0.1442908094466007
 31
0.0
  0
LWPOLYLINE
  5
7DE1B343D9DC50A
330
7DE1B343D9DC543
100
AcDbEntity
  8
TEXT
100
AcDbPolyline
 90
        4
 70
     1
 43
0.0
 10
2.449322747562991
 20
-0.2062481963321887
 10
2.360662428903133
 20
-0.2062481963321887
 42
0.9999999999999998
 10
2.360662428903133
 20
-0.2486467368360494
 10
2.449322747562991
 20
-0.2486467368360494
 42
1.0
  0
LWPOLYLINE
  5
7DE1B343D9DC510
330
7DE1B343D9DC543
100
AcDbEntity
  8
TEXT
100
AcDbPolyline
 90
        2
 70
     0
 43
0.0
 10
2.335427795001507
 20
-0.3092121743162139
 10
2.469445212632884
 20
-0.3092121743162139
 42
0.9999999999999998
  0
LINE
  5
7DE1B343D9DC514
330
7DE1B343D9DC543
100
AcDbEntity
  8
TEXT
100
AcDbLine
 10
2.595782234618523
 20
-0.1070158359844684
 30
0.0
 11
2.672430215911081
 21
-0.1070158359844684
 31
0.0
  0
LINE
  5
7DE1B343D9DC515
330
7DE1B343D9DC543
100
AcDbEntity
  8
TEXT
100
AcDbLine
 10
2.672430215911081
 20
-0.1070158359844684
 30
0.0
 11
2.672430215911086
 21
-0.3092121743162139
 31
0.0
  0
ARC
  5
7DE1B343D9DC516
330
7DE1B343D9DC543
100
AcDbEntity
  8
TEXT
100
AcDbCircle
 10
2.595782234618521
 20
-0.1319217112671311
 30
0.0
 40
0.0249058752826653
100
AcDbArc
 50
89.99971217465335
 51
179.9999999999985
  0
LINE
  5
7DE1B343D9DC517
330
7DE1B343D9DC543
100
AcDbEntity
  8
TEXT
100
AcDbLine
 10
2.570876359335864
 20
-0.3092121743162139
 30
0.0
 11
2.570876359335859
 21
-0.1319216688847455
 31
0.0
  0
LWPOLYLINE
  5
7DE1B343D9DC518
330
7DE1B343D9DC543
100
AcDbEntity
  8
TEXT
100
AcDbPolyline
 90
        2
 70
     0
 43
0.0
 10
2.512521145500528
 20
-0.3092121743162139
 10
2.570876359335862
 20
-0.3092121743162139
  0
LWPOLYLINE
  5
7DE1B343D9DC51C
330
7DE1B343D9DC543
100
AcDbEntity
  8
TEXT
100
AcDbPolyline
 90
        2
 70
     0
 43
0.0
 10
2.512521145500528
 20
-0.2657212293657758
 10
2.512521145500528
 20
-0.3092121743162139
  0
LINE
  5
7DE1B343D9DC520
330
7DE1B343D9DC543
100
AcDbEntity
  8
TEXT
100
AcDbLine
 10
2.889290305817377
 20
-0.3092121743162139
 30
0.0
 11
2.793798082453767
 21
-0.1526323842686765
 31
0.0
  0
LINE
  5
7DE1B343D9DC521
330
7DE1B343D9DC543
100
AcDbEntity
  8
TEXT
100
AcDbLine
 10
2.812711933441171
 20
-0.3092121743162139
 30
0.0
 11
2.889290305817377
 21
-0.3092121743162139
 31
0.0
  0
LINE
  5
7DE1B343D9DC522
330
7DE1B343D9DC543
100
AcDbEntity
  8
TEXT
100
AcDbLine
 10
2.736808400229707
 20
-0.1776326058400337
 30
0.0
 11
2.812711933441171
 21
-0.3092121743162139
 31
0.0
  0
LINE
  5
7DE1B343D9DC523
330
7DE1B343D9DC543
100
AcDbEntity
  8
TEXT
100
AcDbLine
 10
2.736808400229707
 20
-0.3092121743162139
 30
0.0
 11
2.736808400229707
 21
-0.1776326058400337
 31
0.0
  0
LINE
  5
7DE1B343D9DC524
330
7DE1B343D9DC543
100
AcDbEntity
  8
TEXT
100
AcDbLine
 10
2.736265207133859
 20
0.0227250644398978
 30
0.0
 11
2.667950328584586
 21
0.0227250644398978
 31
0.0
  0
ARC
  5
7DE1B343D9DC525
330
7DE1B343D9DC543
100
AcDbEntity
  8
TEXT
100
AcDbCircle
 10
2.42759458954338
 20
-0.0843227084486054
 30
0.0
 40
0.0416329381542859
100
AcDbArc
 50
26.56974201007528
 51
87.20939649401342
  0
LINE
  5
7DE1B343D9DC526
330
7DE1B343D9DC543
100
AcDbEntity
  8
TEXT
100
AcDbLine
 10
2.572478374494991
 20
-0.042739141327703
 30
0.0
 11
2.50858146819549
 21
-0.042739141327703
 31
0.0
  0
LINE
  5
7DE1B343D9DC527
330
7DE1B343D9DC543
100
AcDbEntity
  8
TEXT
100
AcDbLine
 10
2.572478374494991
 20
-0.0702867911885776
 30
0.0
 11
2.572478374494991
 21
-0.042739141327703
 31
0.0
  0
ARC
  5
7DE1B343D9DC528
330
7DE1B343D9DC543
100
AcDbEntity
  8
TEXT
100
AcDbCircle
 10
2.603671191558099
 20
-0.0739848686099678
 30
0.0
 40
0.0314112657011332
100
AcDbArc
 50
95.88484768694724
 51
173.2388340632136
  0
LINE
  5
7DE1B343D9DC529
330
7DE1B343D9DC543
100
AcDbEntity
  8
TEXT
100
AcDbLine
 10
2.667950328584581
 20
-0.042739141327703
 30
0.0
 11
2.600450610935064
 21
-0.042739141327703
 31
0.0
  0
LINE
  5
7DE1B343D9DC52A
330
7DE1B343D9DC543
100
AcDbEntity
  8
TEXT
100
AcDbLine
 10
2.667950328584586
 20
0.0227250644398978
 30
0.0
 11
2.667950328584581
 21
-0.042739141327703
 31
0.0
  0
LINE
  5
7DE1B343D9DC52B
330
7DE1B343D9DC543
100
AcDbEntity
  8
TEXT
100
AcDbLine
 10
2.858355198419472
 20
-0.042739141327703
 30
0.0
 11
2.783363365689845
 21
-0.042739141327703
 31
0.0
  0
INSERT
  5
7DE1B343D9DC55E
330
7DE1B343D9DC543
100
AcDbEntity
  8
ASHADE
 62
     1
100
AcDbBlockReference
  2
AVE_RENDER
 10
0.0
 20
0.0
 30
0.0
1001
AVE_RENDER
1002
{
1070
     6
1000
Pref
1070
    30
1070
    20
1070
     1
1070
     0
1000

1070
    10
1070
     1
1070
    30
1040
1.0
1070
     1
1040
0.3
1040
0.7
1040
0.0
1040
10.0
1010
-1.0
1020
-1.0
1030
-1.0
1040
0.3
1070
    49
1070
     0
1070
     0
1010
1.0
1020
1.0
1030
1.0
1040
45.0
1070
     1
1070
     0
1000
WCS
1040
0.0
1002
}
  0
INSERT
  5
7DE1B343D9DC55F
330
7DE1B343D9DC543
100
AcDbEntity
  8
ASHADE
 62
     3
100
AcDbBlockReference
  2
AVE_RENDER
 10
0.0
 20
0.0
 30
0.0
1001
AVE_RENDER
1002
{
1070
     0
1000
Full Opt
1070
     0
1070
     1
1070
     1
1070
     1
1070
     0
1070
     0
1070
     0
1070
     1
1070
     1
1040
0.0001
1040
0.0001
1002
}
  0
INSERT
  5
7DE1B343D9DC560
330
7DE1B343D9DC543
100
AcDbEntity
  8
ASHADE
 62
     4
100
AcDbBlockReference
  2
AVE_RENDER
 10
0.0
 20
0.0
 30
0.0
1001
AVE_RENDER
1002
{
1070
     0
1000
Quick Opt
1070
     0
1070
     1
1070
     1
1070
     1
1070
     0
1070
     0
1070
     1
1002
}
  0
INSERT
  5
7DE1B343D9DC561
330
7DE1B343D9DC543
100
AcDbEntity
  8
ASHADE
 62
     5
100
AcDbBlockReference
  2
AVE_RENDER
 10
0.0
 20
0.0
 30
0.0
1001
AVE_RENDER
1002
{
1070
     1
1000
Scanl Opt
1070
     2
1070
     0
1070
     2
1040
2.0
1040
4.0
1070
     0
1070
     1
1070
     0
1040
0.03
1002
}
  0
INSERT
  5
7DE1B343D9DC562
330
7DE1B343D9DC543
100
AcDbEntity
  8
ASHADE
 62
     6
100
AcDbBlockReference
  2
AVE_RENDER
 10
0.0
 20
0.0
 30
0.0
1001
AVE_RENDER
1002
{
1070
     2
1000
Raytr Opt
1070
     2
1070
     0
1070
     2
1040
2.0
1040
4.0
1070
     0
1070
     1
1070
     1
1040
0.03
1070
     3
1040
0.03
1002
}
  0
INSERT
  5
7DE1B343D9DC563
330
7DE1B343D9DC543
100
AcDbEntity
  8
ASHADE
 62
     7
100
AcDbBlockReference
  2
AVE_RENDER
 10
0.0
 20
0.0
 30
0.0
1001
AVE_RENDER
1002
{
1070
     0
1000
RFile Opt
1070
     5
1070
   640
1070
   480
1070
 10000
1070
     3
1070
    32
1070
    24
1070
     0
1070
     0
1070
     0
1070
     1
1070
     0
1070
     0
1070
     0
1002
}
  0
INSERT
  5
7DE1B343D9DC564
330
7DE1B343D9DC543
100
AcDbEntity
  8
ASHADE
 62
     8
100
AcDbBlockReference
  2
AVE_RENDER
 10
0.0
 20
0.0
 30
0.0
1001
AVE_RENDER
1002
{
1070
     0
1000
Fog Opt
1070
     0
1070
     0
1040
0.0
1040
1.0
1040
0.0
1040
1.0
1010
0.5
1020
0.5
1030
0.5
1002
}
  0
INSERT
  5
7DE1B343D9DC565
330
7DE1B343D9DC543
100
AcDbEntity
  8
ASHADE
 62
     9
100
AcDbBlockReference
  2
AVE_RENDER
 10
0.0
 20
0.0
 30
0.0
1001
AVE_RENDER
1002
{
1070
     0
1000
BG Opt
1070
     0
1070
     1
1010
0.0
1020
0.0
1030
0.0
1010
1.0
1020
0.0
1030
0.0
1010
0.0
1020
1.0
1030
0.0
1010
0.0
1020
0.0
1030
1.0
1040
0.5
1040
0.33
1040
0.0
1000

1070
     1
1000

1070
     1
1070
     1
1040
1.0
1040
1.0
1040
0.0
1040
0.0
1070
     0
1002
}
  0
INSERT
  5
7DE1B343D9DC56C
330
7DE1B343D9DC543
100
AcDbEntity
  8
ASHADE
 62
     1
100
AcDbBlockReference
  2
AVE_GLOBAL
 10
0.0
 20
0.0
 30
0.0
1001
AVE_MATERIAL
1002
{
1000
*GLOBAL*
1000
1
1000
Global finish.
1002
{
1002
}
1002
{
1070
    63
1002
{
1002
{
1010
-1.0
1020
-1.0
1030
-1.0
1002
}
1040
0.1000000014901161
1000

1040
0.0
1002
{
1002
}
1040
0.0
1002
{
1002
}
1040
0.0
1002
}
1002
{
1002
{
1010
-1.0
1020
-1.0
1030
-1.0
1002
}
1040
0.6999999880790711
1000

1040
0.0
1002
{
1002
}
1040
0.0
1002
{
1002
}
1040
0.0
1002
}
1002
{
1002
{
1010
-1.0
1020
-1.0
1030
-1.0
1002
}
1040
0.2000000029802322
1000

1040
0.0
1002
{
1002
}
1040
0.0
1002
{
1002
}
1040
0.0
1002
}
1002
{
1070
     0
1002
{
1070
     1
1002
{
1040
1.0
1040
1.0
1000

1040
0.0
1002
{
1002
}
1040
0.0
1002
{
1002
}
1040
0.0
1002
}
1002
}
1040
1.0
1040
0.0
1040
0.0
1002
}
1002
{
1040
1.0
1040
1.0
1000

1040
0.0
1002
{
1002
}
1040
0.0
1002
{
1002
}
1040
0.0
1002
}
1002
{
1040
0.5
1040
1.0
1000

1040
0.0
1002
{
1002
}
1040
0.0
1002
{
1002
}
1040
0.0
1002
}
1002
{
1070
     0
1040
0.0
1002
{
1002
}
1040
1.0
1002
{
1002
}
1040
0.0
1002
}
1002
{
1040
0.0
1002
{
1002
{
1010
0.0
1020
0.0
1030
0.0
1002
}
1040
1.0
1000

1040
0.0
1002
{
1002
}
1040
0.0
1002
{
1002
}
1040
0.0
1002
}
1002
}
1002
{
1002
{
1070
     1
1002
{
1040
0.0
1040
1.0
1000

1040
0.0
1002
{
1002
}
1040
0.0
1002
{
1002
}
1040
0.0
1002
}
1002
}
1040
0.0
1002
{
1002
}
1010
1.0
1020
0.0
1030
0.0
1010
0.0
1020
1.0
1030
0.0
1010
0.0
1020
0.0
1030
1.0
1070
     0
1002
}
1002
{
1002
{
1040
1.0
1040
1.0
1002
{
1070
     1
1002
{
1040
1.0
1040
1.0
1000

1040
0.0
1002
{
1002
}
1040
0.0
1002
{
1002
}
1040
0.0
1002
}
1002
}
1002
}
1070
     0
1040
0.0
1002
{
1002
}
1002
}
1002
{
1002
}
1002
}
1002
{
1071
        3
1070
     3
1070
     0
1002
{
1070
     2
1070
     0
1070
     0
1040
0.0
1002
}
1070
     0
1070
     2
1002
{
1002
}
1002
}
1002
{
1040
8030.0
1040
190.3000030517578
1040
0.3050000071525574
1040
228.0
1040
545.0
1040
14.0
1040
17.39999961853027
1040
0.4560000002384186
1002
}
1002
}
  0
ENDSEC
  0
SECTION
  2
OBJECTS
  0
DICTIONARY
  5
7DE1B343D9DC537
330
0
100
AcDbDictionary
  3
ACAD_GROUP
350
7DE1B343D9DC538
  3
ACAD_LAYOUT
350
7DE1B343D9DC578
  3
ACAD_MLINESTYLE
350
7DE1B343D9DC539
  3
ACAD_PLOTSETTINGS
350
7DE1B343D9DC579
  3
ACAD_PLOTSTYLENAME
350
7DE1B343D9DC576
  3
ACDBHEADERROUNDTRIPXREC
350
7DE1B343D9DC583
  3
ACDBVARIABLEDICTIONARY
350
7DE1B343D9DC580
  0
DICTIONARY
  5
7DE1B343D9DC5A5
330
7DE1B343D9DC543
100
AcDbDictionary
280
     1
  3
ACAD_LAYOUTSELFREF
360
7DE1B343D9DC5A6
  0
DICTIONARY
  5
7DE1B343D9DC5A3
330
7DE1B343D9DC540
100
AcDbDictionary
280
     1
  3
ACAD_LAYOUTSELFREF
360
7DE1B343D9DC5A4
  0
DICTIONARY
  5
7DE1B343D9DC538
102
{ACAD_REACTORS
330
7DE1B343D9DC537
102
}
330
7DE1B343D9DC537
100
AcDbDictionary
  0
DICTIONARY
  5
7DE1B343D9DC578
102
{ACAD_REACTORS
330
7DE1B343D9DC537
102
}
330
7DE1B343D9DC537
100
AcDbDictionary
  0
DICTIONARY
  5
7DE1B343D9DC539
102
{ACAD_REACTORS
330
7DE1B343D9DC537
102
}
330
7DE1B343D9DC537
100
AcDbDictionary
  3
STANDARD
350
7DE1B343D9DC546
  0
DICTIONARY
  5
7DE1B343D9DC579
102
{ACAD_REACTORS
330
7DE1B343D9DC537
102
}
330
7DE1B343D9DC537
100
AcDbDictionary
  0
ACDBDICTIONARYWDFLT
  5
7DE1B343D9DC576
102
{ACAD_REACTORS
330
7DE1B343D9DC537
102
}
330
7DE1B343D9DC537
100
AcDbDictionary
281
     1
  3
Normal
350
7DE1B343D9DC577
100
AcDbDictionaryWithDefault
340
7DE1B343D9DC577
  0
DICTIONARY
  5
7DE1B343D9DC583
102
{ACAD_REACTORS
330
7DE1B343D9DC537
102
}
330
7DE1B343D9DC537
100
AcDbDictionary
  3
CEPSNTYPE
350
7DE1B343D9DC58D
  3
FINGERPRINTGUID
350
7DE1B343D9DC58E
  3
HYPERLINKBASE
350
7DE1B343D9DC586
  3
INSUNITS
350
7DE1B343D9DC58C
  3
LAYOUTDICT
350
7DE1B343D9DC588
  3
LWETCUNION
350
7DE1B343D9DC58B
  3
PLOTSETDICT
350
7DE1B343D9DC589
  3
PLOTSTYLNAMDICT
350
7DE1B343D9DC58A
  3
PSVPSCALE
350
7DE1B343D9DC590
  3
PUCSBASE
350
7DE1B343D9DC593
  3
PUCSORGBACK
350
7DE1B343D9DC599
  3
PUCSORGBOTTOM
350
7DE1B343D9DC595
  3
PUCSORGFRONT
350
7DE1B343D9DC598
  3
PUCSORGLEFT
350
7DE1B343D9DC596
  3
PUCSORGRIGHT
350
7DE1B343D9DC597
  3
PUCSORGTOP
350
7DE1B343D9DC594
  3
PUCSORTHOREF
350
7DE1B343D9DC591
  3
PUCSORTHOVIEW
350
7DE1B343D9DC592
  3
STYLESHEET
350
7DE1B343D9DC587
  3
TSTACKALIGN
350
7DE1B343D9DC584
  3
TSTACKSIZE
350
7DE1B343D9DC585
  3
UCSBASE
350
7DE1B343D9DC59C
  3
UCSORGBACK
350
7DE1B343D9DC5A2
  3
UCSORGBOTTOM
350
7DE1B343D9DC59E
  3
UCSORGFRONT
350
7DE1B343D9DC5A1
  3
UCSORGLEFT
350
7DE1B343D9DC59F
  3
UCSORGRIGHT
350
7DE1B343D9DC5A0
  3
UCSORGTOP
350
7DE1B343D9DC59D
  3
UCSORTHOREF
350
7DE1B343D9DC59A
  3
UCSORTHOVIEW
350
7DE1B343D9DC59B
  3
VERSIONGUID
350
7DE1B343D9DC58F
  0
DICTIONARY
  5
7DE1B343D9DC580
102
{ACAD_REACTORS
330
7DE1B343D9DC537
102
}
330
7DE1B343D9DC537
100
AcDbDictionary
  3
DIMASSOC
350
7DE1B343D9DC581
  0
XRECORD
  5
7DE1B343D9DC5A6
102
{ACAD_REACTORS
330
7DE1B343D9DC5A5
102
}
330
7DE1B343D9DC5A5
100
AcDbXrecord
340
7DE1B343D9DC543
  0
XRECORD
  5
7DE1B343D9DC5A4
102
{ACAD_REACTORS
330
7DE1B343D9DC5A3
102
}
330
7DE1B343D9DC5A3
100
AcDbXrecord
340
7DE1B343D9DC540
  0
MLINESTYLE
  5
7DE1B343D9DC546
102
{ACAD_REACTORS
330
7DE1B343D9DC539
102
}
330
7DE1B343D9DC539
100
AcDbMlineStyle
  2
STANDARD
 70
     0
  3

 62
     0
 51
90.0
 52
90.0
 71
     2
 49
0.5
 62
   256
  6
BYLAYER
 49
-0.5
 62
   256
  6
BYLAYER
  0
ACDBPLACEHOLDER
  5
7DE1B343D9DC577
102
{ACAD_REACTORS
330
7DE1B343D9DC576
102
}
330
7DE1B343D9DC576
100
AcDbPlaceHolder
280
     0
  0
XRECORD
  5
7DE1B343D9DC58D
102
{ACAD_REACTORS
330
7DE1B343D9DC583
102
}
330
7DE1B343D9DC583
100
AcDbXrecord
 90
        0
  0
XRECORD
  5
7DE1B343D9DC58E
102
{ACAD_REACTORS
330
7DE1B343D9DC583
102
}
330
7DE1B343D9DC583
100
AcDbXrecord
  1
{1F2AE000-8DB5-11D6-88E6-0090279574E7}
  0
XRECORD
  5
7DE1B343D9DC586
102
{ACAD_REACTORS
330
7DE1B343D9DC583
102
}
330
7DE1B343D9DC583
100
AcDbXrecord
  1

  0
XRECORD
  5
7DE1B343D9DC58C
102
{ACAD_REACTORS
330
7DE1B343D9DC583
102
}
330
7DE1B343D9DC583
100
AcDbXrecord
 90
        0
  0
XRECORD
  5
7DE1B343D9DC588
102
{ACAD_REACTORS
330
7DE1B343D9DC583
102
}
330
7DE1B343D9DC583
100
AcDbXrecord
340
7DE1B343D9DC578
  0
XRECORD
  5
7DE1B343D9DC58B
102
{ACAD_REACTORS
330
7DE1B343D9DC583
102
}
330
7DE1B343D9DC583
100
AcDbXrecord
 90
    14877
  0
XRECORD
  5
7DE1B343D9DC589
102
{ACAD_REACTORS
330
7DE1B343D9DC583
102
}
330
7DE1B343D9DC583
100
AcDbXrecord
340
7DE1B343D9DC579
  0
XRECORD
  5
7DE1B343D9DC58A
102
{ACAD_REACTORS
330
7DE1B343D9DC583
102
}
330
7DE1B343D9DC583
100
AcDbXrecord
340
7DE1B343D9DC576
  0
XRECORD
  5
7DE1B343D9DC590
102
{ACAD_REACTORS
330
7DE1B343D9DC583
102
}
330
7DE1B343D9DC583
100
AcDbXrecord
 40
0.0
  0
XRECORD
  5
7DE1B343D9DC593
102
{ACAD_REACTORS
330
7DE1B343D9DC583
102
}
330
7DE1B343D9DC583
100
AcDbXrecord
340
0
  0
XRECORD
  5
7DE1B343D9DC599
102
{ACAD_REACTORS
330
7DE1B343D9DC583
102
}
330
7DE1B343D9DC583
100
AcDbXrecord
 10
0.0
 20
0.0
 30
0.0
  0
XRECORD
  5
7DE1B343D9DC595
102
{ACAD_REACTORS
330
7DE1B343D9DC583
102
}
330
7DE1B343D9DC583
100
AcDbXrecord
 10
0.0
 20
0.0
 30
0.0
  0
XRECORD
  5
7DE1B343D9DC598
102
{ACAD_REACTORS
330
7DE1B343D9DC583
102
}
330
7DE1B343D9DC583
100
AcDbXrecord
 10
0.0
 20
0.0
 30
0.0
  0
XRECORD
  5
7DE1B343D9DC596
102
{ACAD_REACTORS
330
7DE1B343D9DC583
102
}
330
7DE1B343D9DC583
100
AcDbXrecord
 10
0.0
 20
0.0
 30
0.0
  0
XRECORD
  5
7DE1B343D9DC597
102
{ACAD_REACTORS
330
7DE1B343D9DC583
102
}
330
7DE1B343D9DC583
100
AcDbXrecord
 10
0.0
 20
0.0
 30
0.0
  0
XRECORD
  5
7DE1B343D9DC594
102
{ACAD_REACTORS
330
7DE1B343D9DC583
102
}
330
7DE1B343D9DC583
100
AcDbXrecord
 10
0.0
 20
0.0
 30
0.0
  0
XRECORD
  5
7DE1B343D9DC591
102
{ACAD_REACTORS
330
7DE1B343D9DC583
102
}
330
7DE1B343D9DC583
100
AcDbXrecord
340
0
  0
XRECORD
  5
7DE1B343D9DC592
102
{ACAD_REACTORS
330
7DE1B343D9DC583
102
}
330
7DE1B343D9DC583
100
AcDbXrecord
 70
     0
  0
XRECORD
  5
7DE1B343D9DC587
102
{ACAD_REACTORS
330
7DE1B343D9DC583
102
}
330
7DE1B343D9DC583
100
AcDbXrecord
  1

  0
XRECORD
  5
7DE1B343D9DC584
102
{ACAD_REACTORS
330
7DE1B343D9DC583
102
}
330
7DE1B343D9DC583
100
AcDbXrecord
 90
        1
  0
XRECORD
  5
7DE1B343D9DC585
102
{ACAD_REACTORS
330
7DE1B343D9DC583
102
}
330
7DE1B343D9DC583
100
AcDbXrecord
 90
       70
  0
XRECORD
  5
7DE1B343D9DC59C
102
{ACAD_REACTORS
330
7DE1B343D9DC583
102
}
330
7DE1B343D9DC583
100
AcDbXrecord
340
0
  0
XRECORD
  5
7DE1B343D9DC5A2
102
{ACAD_REACTORS
330
7DE1B343D9DC583
102
}
330
7DE1B343D9DC583
100
AcDbXrecord
 10
0.0
 20
0.0
 30
0.0
  0
XRECORD
  5
7DE1B343D9DC59E
102
{ACAD_REACTORS
330
7DE1B343D9DC583
102
}
330
7DE1B343D9DC583
100
AcDbXrecord
 10
0.0
 20
0.0
 30
0.0
  0
XRECORD
  5
7DE1B343D9DC5A1
102
{ACAD_REACTORS
330
7DE1B343D9DC583
102
}
330
7DE1B343D9DC583
100
AcDbXrecord
 10
0.0
 20
0.0
 30
0.0
  0
XRECORD
  5
7DE1B343D9DC59F
102
{ACAD_REACTORS
330
7DE1B343D9DC583
102
}
330
7DE1B343D9DC583
100
AcDbXrecord
 10
0.0
 20
0.0
 30
0.0
  0
XRECORD
  5
7DE1B343D9DC5A0
102
{ACAD_REACTORS
330
7DE1B343D9DC583
102
}
330
7DE1B343D9DC583
100
AcDbXrecord
 10
0.0
 20
0.0
 30
0.0
  0
XRECORD
  5
7DE1B343D9DC59D
102
{ACAD_REACTORS
330
7DE1B343D9DC583
102
}
330
7DE1B343D9DC583
100
AcDbXrecord
 10
0.0
 20
0.0
 30
0.0
  0
XRECORD
  5
7DE1B343D9DC59A
102
{ACAD_REACTORS
330
7DE1B343D9DC583
102
}
330
7DE1B343D9DC583
100
AcDbXrecord
340
0
  0
XRECORD
  5
7DE1B343D9DC59B
102
{ACAD_REACTORS
330
7DE1B343D9DC583
102
}
330
7DE1B343D9DC583
100
AcDbXrecord
 70
     0
  0
XRECORD
  5
7DE1B343D9DC58F
102
{ACAD_REACTORS
330
7DE1B343D9DC583
102
}
330
7DE1B343D9DC583
100
AcDbXrecord
  1
{1F2AE002-8DB5-11D6-88E6-0090279574E7}
  0
DICTIONARYVAR
  5
7DE1B343D9DC581
102
{ACAD_REACTORS
330
7DE1B343D9DC580
102
}
330
7DE1B343D9DC580
100
DictionaryVariables
280
     0
  1
1
  0
ENDSEC
  0
EOF
